  0
SECTION
  2
HEADER
  9
$ACADVER
  1
AC1014
  9
$ACADMAINTVER
 70
     0
  9
$DWGCODEPAGE
  3
ANSI_932
  9
$INSBASE
 10
0.0
 20
0.0
 30
0.0
  9
$EXTMIN
 10
239.672325
 20
-421.422887
 30
0.0
  9
$EXTMAX
 10
502.281699
 20
-167.505504
 30
0.0
  9
$LIMMIN
 10
239.672325
 20
-421.422887
  9
$LIMMAX
 10
502.281699
 20
-167.505504
  9
$ORTHOMODE
 70
     0
  9
$REGENMODE
 70
     1
  9
$FILLMODE
 70
     1
  9
$QTEXTMODE
 70
     0
  9
$MIRRTEXT
 70
     1
  9
$DRAGMODE
 70
     2
  9
$LTSCALE
 40
1.0
  9
$OSMODE
 70
     0
  9
$ATTMODE
 70
     1
  9
$TEXTSIZE
 40
3.2
  9
$TRACEWID
 40
0.05
  9
$TEXTSTYLE
  7
MX_NOTE_STANDARD
  9
$CLAYER
  8
0
  9
$CELTYPE
  6
CONTINUOUS
  9
$CECOLOR
 62
   256
  9
$CELTSCALE
 40
1.0
  9
$DELOBJ
 70
     1
  9
$DISPSILH
 70
     0
  9
$DIMSCALE
 40
1.0
  9
$DIMASZ
 40
2.5
  9
$DIMEXO
 40
0.0
  9
$DIMDLI
 40
3.75
  9
$DIMRND
 40
0.0
  9
$DIMDLE
 40
0.0
  9
$DIMEXE
 40
1.0
  9
$DIMTP
 40
0.0
  9
$DIMTM
 40
0.0
  9
$DIMTXT
 40
3.2
  9
$DIMCEN
 40
2.5
  9
$DIMTSZ
 40
0.0
  9
$DIMTOL
 70
     0
  9
$DIMLIM
 70
     0
  9
$DIMTIH
 70
     0
  9
$DIMTOH
 70
     0
  9
$DIMSE1
 70
     0
  9
$DIMSE2
 70
     0
  9
$DIMTAD
 70
     1
  9
$DIMZIN
 70
     8
  9
$DIMBLK
  1

  9
$DIMASO
 70
     1
  9
$DIMSHO
 70
     1
  9
$DIMPOST
  1

  9
$DIMAPOST
  1

  9
$DIMALT
 70
     0
  9
$DIMALTD
 70
     4
  9
$DIMALTF
 40
0.03937
  9
$DIMLFAC
 40
1.0
  9
$DIMTOFL
 70
     1
  9
$DIMTVP
 40
0.0
  9
$DIMTIX
 70
     0
  9
$DIMSOXD
 70
     0
  9
$DIMSAH
 70
     0
  9
$DIMBLK1
  1

  9
$DIMBLK2
  1

  9
$DIMSTYLE
  2
MXDIMSTYLE
  9
$DIMCLRD
 70
     0
  9
$DIMCLRE
 70
     0
  9
$DIMCLRT
 70
     0
  9
$DIMTFAC
 40
1.0
  9
$DIMGAP
 40
1.0
  9
$DIMJUST
 70
     0
  9
$DIMSD1
 70
     0
  9
$DIMSD2
 70
     0
  9
$DIMTOLJ
 70
     1
  9
$DIMTZIN
 70
     0
  9
$DIMALTZ
 70
     0
  9
$DIMALTTZ
 70
     0
  9
$DIMFIT
 70
     3
  9
$DIMUPT
 70
     1
  9
$DIMUNIT
 70
     2
  9
$DIMDEC
 70
     4
  9
$DIMTDEC
 70
     4
  9
$DIMALTU
 70
     2
  9
$DIMALTTD
 70
     4
  9
$DIMTXSTY
  7
MX_NOTE_STANDARD
  9
$DIMAUNIT
 70
     0
  9
$LUNITS
 70
     2
  9
$LUPREC
 70
     4
  9
$SKETCHINC
 40
0.1
  9
$FILLETRAD
 40
0.0
  9
$AUNITS
 70
     0
  9
$AUPREC
 70
     0
  9
$MENU
  1
acad
  9
$ELEVATION
 40
0.0
  9
$PELEVATION
 40
0.0
  9
$THICKNESS
 40
0.0
  9
$LIMCHECK
 70
     0
  9
$BLIPMODE
 70
     1
  9
$CHAMFERA
 40
0.0
  9
$CHAMFERB
 40
0.0
  9
$CHAMFERC
 40
0.0
  9
$CHAMFERD
 40
0.0
  9
$SKPOLY
 70
     0
  9
$TDCREATE
 40
2454063.685798611
  9
$TDUPDATE
 40
2454063.685798611
  9
$TDINDWG
 40
0.0000000000
  9
$TDUSRTIMER
 40
0.0000000000
  9
$USRTIMER
 70
     1
  9
$ANGBASE
 50
0.0
  9
$ANGDIR
 70
     0
  9
$PDMODE
 70
     0
  9
$PDSIZE
 40
0.0
  9
$PLINEWID
 40
0.0
  9
$COORDS
 70
     1
  9
$SPLFRAME
 70
     0
  9
$SPLINETYPE
 70
     6
  9
$SPLINESEGS
 70
     8
  9
$ATTDIA
 70
     0
  9
$ATTREQ
 70
     1
  9
$HANDLING
 70
     1
  9
$HANDSEED
  5
140
  9
$SURFTAB1
 70
     6
  9
$SURFTAB2
 70
     6
  9
$SURFTYPE
 70
     6
  9
$SURFU
 70
     6
  9
$SURFV
 70
     6
  9
$UCSNAME
  2

  9
$UCSORG
 10
0.0
 20
0.0
 30
0.0
  9
$UCSXDIR
 10
1.0
 20
0.0
 30
0.0
  9
$UCSYDIR
 10
0.0
 20
1.0
 30
0.0
  9
$PUCSNAME
  2

  9
$PUCSORG
 10
0.0
 20
0.0
 30
0.0
  9
$PUCSXDIR
 10
1.0
 20
0.0
 30
0.0
  9
$PUCSYDIR
 10
0.0
 20
1.0
 30
0.0
  9
$USERI1
 70
     0
  9
$USERI2
 70
     0
  9
$USERI3
 70
     0
  9
$USERI4
 70
     0
  9
$USERI5
 70
     0
  9
$USERR1
 40
0.0
  9
$USERR2
 40
0.0
  9
$USERR3
 40
0.0
  9
$USERR4
 40
0.0
  9
$USERR5
 40
0.0
  9
$WORLDVIEW
 70
     1
  9
$SHADEDGE
 70
     3
  9
$SHADEDIF
 70
    70
  9
$TILEMODE
 70
     1
  9
$MAXACTVP
 70
    16
  9
$PINSBASE
 10
0.0
 20
0.0
 30
0.0
  9
$PLIMCHECK
 70
     0
  9
$PEXTMIN
 10
1.000000E+20
 20
1.000000E+20
 30
1.000000E+20
  9
$PEXTMAX
 10
-1.000000E+20
 20
-1.000000E+20
 30
-1.000000E+20
  9
$PLIMMIN
 10
0.0
 20
0.0
  9
$PLIMMAX
 10
12.0
 20
9.0
  9
$UNITMODE
 70
     0
  9
$VISRETAIN
 70
     0
  9
$PLINEGEN
 70
     1
  9
$PSLTSCALE
 70
     0
  9
$TREEDEPTH
 70
  3020
  9
$PICKSTYLE
 70
     1
  9
$CMLSTYLE
  2
Standard
  9
$CMLJUST
 70
     0
  9
$CMLSCALE
 40
1.0
  9
$PROXYGRAPHICS
 70
     0
  9
$MEASUREMENT
 70
     1
  0
ENDSEC
  0
SECTION
  2
CLASSES
  0
CLASS
  1
LWPOLYLINE
  2
AcDbPolyline
  3
"AutoCAD"
 90
        0
280
     0
281
     1
  0
CLASS
  1
IMAGE
  2
AcDbRasterImage
  3
ISM
 90
      127
280
     0
281
     1
  0
CLASS
  1
OLE2FRAME
  2
AcDbOle2Frame
  3
""
 90
        0
280
     0
281
     1
  0
CLASS
  1
HATCH
  2
AcDbHatch
  3
"ACAD_SEDONA"
 90
        0
280
     0
281
     1
  0
CLASS
  1
DICTIONARYVAR
  2
AcDbDictionaryVar
  3
"AutoCAD"
 90
        0
280
     0
281
     0
  0
CLASS
  1
RASTERVARIABLES
  2
AcDbRasterVariables
  3
ISM
 90
        0
280
     0
281
     0
  0
CLASS
  1
IMAGEDEF
  2
AcDbRasterImageDef
  3
ISM
 90
        0
280
     0
281
     0
  0
CLASS
  1
IMAGEDEF_REACTOR
  2
AcDbRasterImageDefReactor
  3
ISM
 90
        1
280
     0
281
     0
  0
CLASS
  1
IDBUFFER
  2
AcDbIdBuffer
  3
"Acad"
 90
        0
280
     0
281
     0
  0
CLASS
  1
SPATIAL_FILTER
  2
AcDbSpatialFilter
  3
"Acad"
 90
        0
280
     0
281
     0
  0
CLASS
  1
XRECORD
  2
AcDbXrecord
  3
"<Built In>"
 90
        0
280
     0
281
     0
  0
CLASS
  1
SORTENTSTABLE
  2
AcDbSortentsTable
  3
"AutoCAD"
 90
        0
280
     0
281
     0
  0
CLASS
  1
LAYER_INDEX
  2
AcDbLayerIndex
  3
"Acad"
 90
        0
280
     0
281
     0
  0
CLASS
  1
SPATIAL_INDEX
  2
AcDbSpatialIndex
  3
"Acad"
 90
        0
280
     0
281
     0
  0
CLASS
  1
OBJECT_PTR
  2
CAseDLPNTableRecord
  3
"ASE-LPNTableRecord"
 90
        1
280
     0
281
     0
  0
CLASS
  1
LAYOUT
  2
AcDbLayout
  3
"AutoCAD 2000"
 90
        1
280
     0
281
     0
  0
CLASS
  1
PLOTSETTINGS
  2
AcDbPlotSettings
  3
"AutoCAD 2000"
 90
        1
280
     0
281
     0
  0
CLASS
  1
ACDBDICTIONARYWDFLT
  2
AcDbDictionaryWithDefault
  3
"AutoCAD 2000"
 90
        1
280
     0
281
     0
  0
CLASS
  1
ACDBPLACEHOLDER
  2
AcDbPlaceHolder
  3
"AutoCAD 2000"
 90
        1
280
     0
281
     0
  0
CLASS
  1
VBA_PROJECT
  2
AcDbVbaProject
  3
"acadvba"
 90
        1
280
     0
281
     0
  0
CLASS
  1
WIPEOUT
  2
AcDbWipeout
  3
WipeOut|AutoCAD Express Tool|expresstools@autodesk.com
 90
      127
280
     0
281
     1
  0
CLASS
  1
WIPEOUTVARIABLES
  2
AcDbWipeoutVariables
  3
WipeOut|AutoCAD Express Tool|expresstools@autodesk.com
 90
        0
280
     0
281
     0
  0
CLASS
  1
RTEXT
  2
RText
  3
RText|AutoCAD Express Tool|expresstools@autodesk.com
 90
        0
280
     0
281
     1
  0
CLASS
  1
ARCALIGNEDTEXT
  2
AcDbArcAlignedText
  3
ATEXT|AutoCAD Express Tool|expresstools@autodesk.com
 90
        0
280
     0
281
     1
  0
ENDSEC
  0
SECTION
  2
TABLES
  0
TABLE
  2
VPORT
  5
7
100
AcDbSymbolTable
 70
     1
  0
VPORT
  5
15
100
AcDbSymbolTableRecord
100
AcDbViewportTableRecord
  2
*ACTIVE
 70
     0
 10
0.0
 20
0.0
 11
1.0
 21
1.0
 12
370.977012
 22
-294.464195
 13
0.0
 23
0.0
 14
1.0
 24
1.0
 15
0.0
 25
0.0
 16
0.0
 26
0.0
 36
1.0
 17
0.0
 27
0.0
 37
0.0
 40
256.456557
 41
1.732051
 42
50.0
 43
0.0
 44
0.0
 50
0.0
 51
0.0
 71
     0
 72
   100
 73
     1
 74
     1
 75
     0
 76
     0
 77
     0
 78
     0
  0
ENDTAB
  0
TABLE
  2
LTYPE
  5
4
100
AcDbSymbolTable
 70
     5
  0
LTYPE
  5
11
100
AcDbSymbolTableRecord
100
AcDbLinetypeTableRecord
  2
BYBLOCK
 70
    64
  3

 72
    65
 73
     0
 40
0.0
  0
LTYPE
  5
12
100
AcDbSymbolTableRecord
100
AcDbLinetypeTableRecord
  2
BYLAYER
 70
    64
  3

 72
    65
 73
     0
 40
0.0
  0
LTYPE
  5
13
100
AcDbSymbolTableRecord
100
AcDbLinetypeTableRecord
  2
CONTINUOUS
 70
    64
  3
Solid line
 72
    65
 73
     0
 40
0.0
  0
LTYPE
  5
59
100
AcDbSymbolTableRecord
100
AcDbLinetypeTableRecord
  2
DASHED
 70
    64
  3
Dashed __ __ __ __ __ __ __ __ __ __ __ __ __ _
 72
    65
 73
     2
 40
19.05
 49
12.7
 74
     0
 49
-6.35
 74
     0
  0
LTYPE
  5
84
100
AcDbSymbolTableRecord
100
AcDbLinetypeTableRecord
  2
CENTER
 70
    64
  3
Center ____ _ ____ _ ____ _ ____ _ ____ _ ____
 72
    65
 73
     4
 40
50.8
 49
31.75
 74
     0
 49
-6.35
 74
     0
 49
6.35
 74
     0
 49
-6.35
 74
     0
  0
ENDTAB
  0
TABLE
  2
LAYER
  5
2
100
AcDbSymbolTable
 70
     2
  0
LAYER
  5
14
100
AcDbSymbolTableRecord
100
AcDbLayerTableRecord
  2
0
 70
     0
 62
     7
  6
CONTINUOUS
  0
LAYER
  5
1D
100
AcDbSymbolTableRecord
100
AcDbLayerTableRecord
  2
DEFPOINTS
 70
     0
 62
     7
  6
CONTINUOUS
  0
ENDTAB
  0
TABLE
  2
STYLE
  5
3
100
AcDbSymbolTable
 70
     1
  0
STYLE
  5
17
100
AcDbSymbolTableRecord
100
AcDbTextStyleTableRecord
  2
MX_NOTE_STANDARD
 70
     0
 40
0.0
 41
1.0
 50
0.0
 71
     0
 42
3.2
  3
txt.sh
  4
extfont
  0
ENDTAB
  0
TABLE
  2
VIEW
  5
5
100
AcDbSymbolTable
 70
     0
  0
ENDTAB
  0
TABLE
  2
UCS
  5
6
100
AcDbSymbolTable
 70
     0
  0
ENDTAB
  0
TABLE
  2
APPID
  5
8
100
AcDbSymbolTable
 70
     1
  0
APPID
  5
16
100
AcDbSymbolTableRecord
100
AcDbRegAppTableRecord
  2
ACAD
 70
     0
  0
ENDTAB
  0
TABLE
  2
DIMSTYLE
  5
9
100
AcDbSymbolTable
 70
     1
  0
DIMSTYLE
105
18
100
AcDbSymbolTableRecord
100
AcDbDimStyleTableRecord
  2
MXDIMSTYLE
 70
     0
  3

  4

  5

  6

  7

 40
1.0
 41
2.5
 42
0.0
 43
3.75
 44
1.0
 45
0.0
 46
0.0
 47
0.0
 48
0.0
 71
     0
 72
     0
 73
     0
 74
     0
 75
     0
 76
     0
 77
     1
 78
     8
140
3.2
141
2.5
142
0.0
143
0.03937
144
1.0
145
0.0
146
1.0
147
1.0
170
     0
171
     4
172
     1
173
     0
174
     0
175
     0
176
     0
177
     0
178
     0
270
     2
271
     4
272
     4
273
     2
274
     4
275
     0
280
     0
281
     0
282
     0
283
     1
284
     0
285
     0
286
     0
287
     3
288
     1
340
17
  0
ENDTAB
  0
TABLE
  2
BLOCK_RECORD
  5
1
100
AcDbSymbolTable
 70
     5
  0
BLOCK_RECORD
  5
A
100
AcDbSymbolTableRecord
100
AcDbBlockTableRecord
  2
*MODEL_SPACE
  0
BLOCK_RECORD
  5
B
100
AcDbSymbolTableRecord
100
AcDbBlockTableRecord
  2
*PAPER_SPACE
  0
BLOCK_RECORD
  5
1E
100
AcDbSymbolTableRecord
100
AcDbBlockTableRecord
  2
DC_GROUP_1
  0
BLOCK_RECORD
  5
1F
100
AcDbSymbolTableRecord
100
AcDbBlockTableRecord
  2
DC_GROUP_2
  0
BLOCK_RECORD
  5
20
100
AcDbSymbolTableRecord
100
AcDbBlockTableRecord
  2
DC_GROUP_3
  0
BLOCK_RECORD
  5
21
100
AcDbSymbolTableRecord
100
AcDbBlockTableRecord
  2
DC_GROUP_4
  0
BLOCK_RECORD
  5
22
100
AcDbSymbolTableRecord
100
AcDbBlockTableRecord
  2
*U4
  0
ENDTAB
  0
ENDSEC
  0
SECTION
  2
BLOCKS
  0
BLOCK
  5
D
100
AcDbEntity
  8
0
100
AcDbBlockBegin
  2
*MODEL_SPACE
 70
     0
 10
0.0
 20
0.0
 30
0.0
  3
*MODEL_SPACE
  1

  0
ENDBLK
  5
E
100
AcDbEntity
  8
0
100
AcDbBlockEnd
  0
BLOCK
  5
F
100
AcDbEntity
 67
     1
  8
0
100
AcDbBlockBegin
  2
*PAPER_SPACE
 70
     0
 10
0.0
 20
0.0
 30
0.0
  3
*PAPER_SPACE
  1

  0
ENDBLK
  5
10
100
AcDbEntity
 67
     1
  8
0
100
AcDbBlockEnd
  0
BLOCK
  5
23
100
AcDbEntity
  8
0
100
AcDbBlockBegin
  2
DC_GROUP_1
 70
     0
 10
0.0
 20
0.0
 30
0.0
  3
DC_GROUP_1
  1

  0
INSERT
  5
24
100
AcDbEntity
  8
0
  6
ByBlock
100
AcDbBlockReference
  2
*U4
 10
371.172325
 20
-229.952856
 30
0.0
 41
7.764572
 42
7.764572
 43
7.764572
 50
240.0
  0
MTEXT
  5
25
100
AcDbEntity
  8
0
  6
CONTINUOUS
 62
     7
100
AcDbMText
 10
406.263547
 20
-172.902963
 30
0.0
 40
3.2
 41
0.0
 71
     2
 72
     1
  1
\W0.754;\A1;基準点
  7
MX_NOTE_STANDARD
  0
LINE
  5
26
100
AcDbEntity
  8
0
  6
CONTINUOUS
 62
     2
100
AcDbLine
 10
401.800695
 20
-176.902963
 30
0.0
 11
411.401795
 21
-176.902963
 31
0.0
  0
LINE
  5
27
100
AcDbEntity
  8
0
  6
CONTINUOUS
 62
     2
100
AcDbLine
 10
371.172325
 20
-229.952856
 30
0.0
 11
401.800695
 21
-176.902963
 31
0.0
  0
ENDBLK
  5
28
100
AcDbEntity
  8
0
100
AcDbBlockEnd
  0
BLOCK
  5
29
100
AcDbEntity
  8
0
100
AcDbBlockBegin
  2
DC_GROUP_2
 70
     0
 10
0.0
 20
0.0
 30
0.0
  3
DC_GROUP_2
  1

  0
INSERT
  5
2A
100
AcDbEntity
  8
0
  6
ByBlock
100
AcDbBlockReference
  2
*U4
 10
366.797325
 20
-195.187311
 30
0.0
 41
7.764572
 42
7.764572
 43
7.764572
 50
300.0
  0
MTEXT
  5
2B
100
AcDbEntity
  8
0
  6
CONTINUOUS
 62
     7
100
AcDbMText
 10
337.55423
 20
-168.57217
 30
0.0
 40
3.2
 41
0.0
 71
     2
 72
     1
  1
\W0.813;\A1;\U+2205７０のみヌスミ無し
  7
MX_NOTE_STANDARD
  0
LINE
  5
2C
100
AcDbEntity
  8
0
  6
CONTINUOUS
 62
     2
100
AcDbLine
 10
353.740467
 20
-172.572171
 30
0.0
 11
321.739368
 21
-172.572171
 31
0.0
  0
LINE
  5
2D
100
AcDbEntity
  8
0
  6
CONTINUOUS
 62
     2
100
AcDbLine
 10
366.797325
 20
-195.187311
 30
0.0
 11
353.740467
 21
-172.572171
 31
0.0
  0
ENDBLK
  5
2E
100
AcDbEntity
  8
0
100
AcDbBlockEnd
  0
BLOCK
  5
2F
100
AcDbEntity
  8
0
100
AcDbBlockBegin
  2
DC_GROUP_3
 70
     0
 10
0.0
 20
0.0
 30
0.0
  3
DC_GROUP_3
  1

  0
INSERT
  5
30
100
AcDbEntity
  8
0
  6
ByBlock
100
AcDbBlockReference
  2
*U4
 10
431.26573
 20
-383.957887
 30
0.0
 41
7.764572
 42
7.764572
 43
7.764572
 50
240.0
  0
MTEXT
  5
31
100
AcDbEntity
  8
0
  6
CONTINUOUS
 62
     7
100
AcDbMText
 10
465.302715
 20
-370.451294
 30
0.0
 40
3.2
 41
0.0
 71
     2
 72
     1
  1
\W0.819;\A1;（上図を反転させてここに張り付け）
  7
MX_NOTE_STANDARD
  0
MTEXT
  5
32
100
AcDbEntity
  8
0
  6
CONTINUOUS
 62
     7
100
AcDbMText
 10
449.302715
 20
-365.651294
 30
0.0
 40
3.2
 41
0.0
 71
     2
 72
     1
  1
\W0.799;\A1;形式Ａの基準点
  7
MX_NOTE_STANDARD
  0
LINE
  5
33
100
AcDbEntity
  8
0
  6
CONTINUOUS
 62
     2
100
AcDbLine
 10
436.754364
 20
-374.451294
 30
0.0
 11
493.416715
 21
-374.451294
 31
0.0
  0
LINE
  5
34
100
AcDbEntity
  8
0
  6
CONTINUOUS
 62
     2
100
AcDbLine
 10
431.26573
 20
-383.957887
 30
0.0
 11
436.754364
 21
-374.451294
 31
0.0
  0
ENDBLK
  5
35
100
AcDbEntity
  8
0
100
AcDbBlockEnd
  0
BLOCK
  5
36
100
AcDbEntity
  8
0
100
AcDbBlockBegin
  2
DC_GROUP_4
 70
     0
 10
0.0
 20
0.0
 30
0.0
  3
DC_GROUP_4
  1

  0
INSERT
  5
37
100
AcDbEntity
  8
0
  6
ByBlock
100
AcDbBlockReference
  2
*U4
 10
411.26573
 20
-383.957887
 30
0.0
 41
7.764572
 42
7.764572
 43
7.764572
 50
300.0
  0
MTEXT
  5
38
100
AcDbEntity
  8
0
  6
CONTINUOUS
 62
     7
100
AcDbMText
 10
380.862975
 20
-371.458779
 30
0.0
 40
3.2
 41
0.0
 71
     2
 72
     1
  1
\W0.818;\A1;（上図をそのままここに張り付け）
  7
MX_NOTE_STANDARD
  0
MTEXT
  5
39
100
AcDbEntity
  8
0
  6
CONTINUOUS
 62
     7
100
AcDbMText
 10
366.462975
 20
-366.658779
 30
0.0
 40
3.2
 41
0.0
 71
     2
 72
     1
  1
\W0.799;\A1;形式Ｂの基準点
  7
MX_NOTE_STANDARD
  0
LINE
  5
3A
100
AcDbEntity
  8
0
  6
CONTINUOUS
 62
     2
100
AcDbLine
 10
406.358768
 20
-375.45878
 30
0.0
 11
354.700668
 21
-375.45878
 31
0.0
  0
LINE
  5
3B
100
AcDbEntity
  8
0
  6
CONTINUOUS
 62
     2
100
AcDbLine
 10
411.26573
 20
-383.957887
 30
0.0
 11
406.358768
 21
-375.45878
 31
0.0
  0
ENDBLK
  5
3C
100
AcDbEntity
  8
0
100
AcDbBlockEnd
  0
BLOCK
  5
3D
100
AcDbEntity
  8
0
100
AcDbBlockBegin
  2
*U4
 70
     1
 10
0.0
 20
0.0
 30
0.0
  3
*U4
  1

  0
LINE
  5
3E
100
AcDbEntity
  8
0
  6
CONTINUOUS
 62
     7
100
AcDbLine
 10
-1.0
 20
0.267949
 30
0.0
 11
0.0
 21
0.0
 31
0.0
  0
LINE
  5
3F
100
AcDbEntity
  8
0
  6
CONTINUOUS
 62
     7
100
AcDbLine
 10
0.0
 20
0.0
 30
0.0
 11
-1.0
 21
-0.267949
 31
0.0
  0
LINE
  5
40
100
AcDbEntity
  8
0
  6
CONTINUOUS
 62
     7
100
AcDbLine
 10
0.0
 20
0.0
 30
0.0
 11
-1.0
 21
0.0
 31
0.0
  0
ENDBLK
  5
41
100
AcDbEntity
  8
0
100
AcDbBlockEnd
  0
ENDSEC
  0
SECTION
  2
ENTITIES
  0
VIEWPORT
  5
13F
100
AcDbEntity
 67
     1
  8
0
 62
     7
100
AcDbViewport
 10
370.977012
 20
-18.7325
 30
0.0
 40
787.828121
 41
2416.142321
 68
     1
 69
     1
1001
ACAD
1000
MVIEW
1002
{
1070
    16
1010
0.0
1020
0.0
1030
0.0
1010
0.0
1020
0.0
1030
1.0
1040
0.0
1040
2416.142321
1040
370.977012
1040
-18.7325
1040
50.0
1040
0.0
1040
0.0
1070
     0
1070
   100
1070
     0
1070
     1
1070
     0
1070
     0
1070
     0
1070
     0
1040
0.0
1040
0.0
1040
0.0
1040
0.5
1040
0.5
1040
0.0
1040
0.0
1070
     0
1002
{
1002
}
1002
}
  0
INSERT
  5
42
100
AcDbEntity
  8
0
  6
ByBlock
100
AcDbBlockReference
  2
DC_GROUP_4
 10
0.0
 20
0.0
 30
0.0
  0
INSERT
  5
43
100
AcDbEntity
  8
0
  6
ByBlock
100
AcDbBlockReference
  2
DC_GROUP_3
 10
0.0
 20
0.0
 30
0.0
  0
INSERT
  5
44
100
AcDbEntity
  8
0
  6
ByBlock
100
AcDbBlockReference
  2
DC_GROUP_2
 10
0.0
 20
0.0
 30
0.0
  0
INSERT
  5
45
100
AcDbEntity
  8
0
  6
ByBlock
100
AcDbBlockReference
  2
DC_GROUP_1
 10
0.0
 20
0.0
 30
0.0
  0
MTEXT
  5
46
100
AcDbEntity
  8
0
  6
CONTINUOUS
 62
     7
100
AcDbMText
 10
371.961021
 20
-333.053297
 30
0.0
 40
3.2
 41
0.0
 71
     2
 72
     1
  1
\W0.821;\A1;５．張り付け方法をの例を下図に示します。
  7
MX_NOTE_STANDARD
  0
MTEXT
  5
47
100
AcDbEntity
  8
0
  6
CONTINUOUS
 62
     7
100
AcDbMText
 10
483.512404
 20
-275.713267
 30
0.0
 40
2.5
 41
0.0
 71
     2
 72
     1
  1
\W0.820;\A1;\U+2205１４３（材質Ｓ４５Ｃの場合）
  7
MX_NOTE_STANDARD
  0
MTEXT
  5
48
100
AcDbEntity
  8
0
  6
CONTINUOUS
 62
     7
100
AcDbMText
 10
448.188013
 20
-275.363267
 30
0.0
 40
3.2
 41
0.0
 71
     2
 72
     1
  1
\W0.799;\A1;最低必要ハブ径
  7
MX_NOTE_STANDARD
  0
MTEXT
  5
49
100
AcDbEntity
  8
0
  6
CONTINUOUS
 62
     7
100
AcDbMText
 10
483.612373
 20
-267.863267
 30
0.0
 40
3.2
 41
0.0
 71
     2
 72
     1
  1
\W0.819;\A1;４０．５Ｎ・m
  7
MX_NOTE_STANDARD
  0
MTEXT
  5
4A
100
AcDbEntity
  8
0
  6
CONTINUOUS
 62
     7
100
AcDbMText
 10
448.188013
 20
-267.863267
 30
0.0
 40
3.2
 41
0.0
 71
     2
 72
     1
  1
\W0.807;\A1;ボルト締付けトルク
  7
MX_NOTE_STANDARD
  0
MTEXT
  5
4B
100
AcDbEntity
  8
0
  6
CONTINUOUS
 62
     7
100
AcDbMText
 10
483.612373
 20
-260.363267
 30
0.0
 40
3.2
 41
0.0
 71
     2
 72
     1
  1
\W0.807;\A1;Ｍ８×３０（５本）
  7
MX_NOTE_STANDARD
  0
MTEXT
  5
4C
100
AcDbEntity
  8
0
  6
CONTINUOUS
 62
     7
100
AcDbMText
 10
448.188013
 20
-260.363267
 30
0.0
 40
3.2
 41
0.0
 71
     2
 72
     1
  1
\W0.786;\A1;使用ボルト
  7
MX_NOTE_STANDARD
  0
MTEXT
  5
4D
100
AcDbEntity
  8
0
  6
CONTINUOUS
 62
     7
100
AcDbMText
 10
483.512404
 20
-255.088267
 30
0.0
 40
2.5
 41
0.0
 71
     2
 72
     1
  1
\W0.815;\A1;弊社カタログ参照願います。
  7
MX_NOTE_STANDARD
  0
MTEXT
  5
4E
100
AcDbEntity
  8
0
  6
CONTINUOUS
 62
     7
100
AcDbMText
 10
482.262404
 20
-251.338267
 30
0.0
 40
2.5
 41
0.0
 71
     2
 72
     1
  1
\W0.813;\A1;２１４０～２４９７Ｎ・ｍ
  7
MX_NOTE_STANDARD
  0
MTEXT
  5
4F
100
AcDbEntity
  8
0
  6
CONTINUOUS
 62
     7
100
AcDbMText
 10
448.188013
 20
-252.863267
 30
0.0
 40
3.2
 41
0.0
 71
     2
 72
     1
  1
\W0.807;\A1;最大許容伝達トルク
  7
MX_NOTE_STANDARD
  0
MTEXT
  5
50
100
AcDbEntity
  8
0
  6
CONTINUOUS
 62
     7
100
AcDbMText
 10
483.612373
 20
-245.363267
 30
0.0
 40
3.2
 41
0.0
 71
     2
 72
     1
  1
\W0.800;\A1;\U+2205６０～７０
  7
MX_NOTE_STANDARD
  0
MTEXT
  5
51
100
AcDbEntity
  8
0
  6
CONTINUOUS
 62
     7
100
AcDbMText
 10
448.188013
 20
-245.363267
 30
0.0
 40
3.2
 41
0.0
 71
     2
 72
     1
  1
\W0.774;\A1;適用穴径
  7
MX_NOTE_STANDARD
  0
MTEXT
  5
52
100
AcDbEntity
  8
0
  6
CONTINUOUS
 62
     7
100
AcDbMText
 10
467.314339
 20
-237.863267
 30
0.0
 40
3.2
 41
0.0
 71
     2
 72
     1
  1
\W0.821;\A1;ロックスプロケットＳ７５ＸＸスリーブ諸元
  7
MX_NOTE_STANDARD
  0
MTEXT
  5
53
100
AcDbEntity
  8
0
  6
CONTINUOUS
 62
     7
100
AcDbMText
 10
408.76102
 20
-326.053297
 30
0.0
 40
3.2
 41
0.0
 71
     2
 72
     1
  1
\W0.829;\A1;４．ＲＳ標準ロックスプロケットＳタイプの、Ｓ７５ＸＸのガイド穴径は全て\U+2205７０．７です。
  7
MX_NOTE_STANDARD
  0
MTEXT
  5
54
100
AcDbEntity
  8
0
  6
CONTINUOUS
 62
     7
100
AcDbMText
 10
416.76102
 20
-319.053297
 30
0.0
 40
3.2
 41
0.0
 71
     2
 72
     1
  1
\W0.828;\A1;３．基準点をスプロケット端面に合わせて、スプロケットのＣＡＤデータに本データを張り付けて下さい。
  7
MX_NOTE_STANDARD
  0
MTEXT
  5
55
100
AcDbEntity
  8
0
  6
CONTINUOUS
 62
     7
100
AcDbMText
 10
405.56102
 20
-312.053297
 30
0.0
 40
3.2
 41
0.0
 71
     2
 72
     1
  1
\W0.828;\A1;２．選定後、弊社ホームページよりスプロケットのＣＡＤデータをダウンロード願います。
  7
MX_NOTE_STANDARD
  0
MTEXT
  5
56
100
AcDbEntity
  8
0
  6
CONTINUOUS
 62
     7
100
AcDbMText
 10
357.561021
 20
-306.853297
 30
0.0
 40
3.2
 41
0.0
 71
     2
 72
     1
  1
\W0.893;\A1;  選定してください。
  7
MX_NOTE_STANDARD
  0
MTEXT
  5
57
100
AcDbEntity
  8
0
  6
CONTINUOUS
 62
     7
100
AcDbMText
 10
402.36102
 20
-302.053297
 30
0.0
 40
3.2
 41
0.0
 71
     2
 72
     1
  1
\W0.827;\A1;１．必ず弊社カタログをご確認の上、Ｓ７５ＸＸスリーブが適用可能なスプロケットを
  7
MX_NOTE_STANDARD
  0
MTEXT
  5
58
100
AcDbEntity
  8
0
  6
CONTINUOUS
 62
     7
100
AcDbMText
 10
391.16102
 20
-295.053297
 30
0.0
 40
3.2
 41
0.0
 71
     2
 72
     1
  1
\W0.853;\A1;※ロックスプロケット Ｓ７５ＸＸスリーブ ＣＡＤデータ使用方法※
  7
MX_NOTE_STANDARD
  0
LINE
  5
5A
100
AcDbEntity
  8
0
  6
DASHED
 62
     2
100
AcDbLine
 10
350.672325
 20
-276.416957
 30
0.0
 11
352.672325
 21
-272.952856
 31
0.0
  0
LINE
  5
5B
100
AcDbEntity
  8
0
  6
DASHED
 62
     2
100
AcDbLine
 10
350.672325
 20
-269.488754
 30
0.0
 11
352.672325
 21
-272.952856
 31
0.0
  0
LINE
  5
5C
100
AcDbEntity
  8
0
  6
DASHED
 62
     2
100
AcDbLine
 10
346.672325
 20
-271.220805
 30
0.0
 11
350.672325
 21
-271.220805
 31
0.0
  0
LINE
  5
5D
100
AcDbEntity
  8
0
  6
DASHED
 62
     2
100
AcDbLine
 10
346.672325
 20
-274.684907
 30
0.0
 11
350.672325
 21
-274.684907
 31
0.0
  0
LINE
  5
5E
100
AcDbEntity
  8
0
  6
DASHED
 62
     2
100
AcDbLine
 10
346.672325
 20
-269.488754
 30
0.0
 11
350.672325
 21
-269.488754
 31
0.0
  0
LINE
  5
5F
100
AcDbEntity
  8
0
  6
DASHED
 62
     2
100
AcDbLine
 10
350.672325
 20
-274.684907
 30
0.0
 11
351.172325
 21
-272.952856
 31
0.0
  0
LINE
  5
60
100
AcDbEntity
  8
0
  6
DASHED
 62
     2
100
AcDbLine
 10
351.172325
 20
-272.952856
 30
0.0
 11
350.672325
 21
-271.220805
 31
0.0
  0
LINE
  5
61
100
AcDbEntity
  8
0
  6
DASHED
 62
     2
100
AcDbLine
 10
350.672325
 20
-271.220805
 30
0.0
 11
351.172325
 21
-270.35478
 31
0.0
  0
LINE
  5
62
100
AcDbEntity
  8
0
  6
DASHED
 62
     2
100
AcDbLine
 10
351.172325
 20
-275.550932
 30
0.0
 11
350.672325
 21
-274.684907
 31
0.0
  0
LINE
  5
63
100
AcDbEntity
  8
0
  6
DASHED
 62
     2
100
AcDbLine
 10
346.672325
 20
-276.416957
 30
0.0
 11
350.672325
 21
-276.416957
 31
0.0
  0
LINE
  5
64
100
AcDbEntity
  8
0
  6
DASHED
 62
     2
100
AcDbLine
 10
350.672325
 20
-188.684907
 30
0.0
 11
351.172325
 21
-189.550932
 31
0.0
  0
LINE
  5
65
100
AcDbEntity
  8
0
  6
DASHED
 62
     2
100
AcDbLine
 10
351.172325
 20
-186.952856
 30
0.0
 11
350.672325
 21
-188.684907
 31
0.0
  0
LINE
  5
66
100
AcDbEntity
  8
0
  6
DASHED
 62
     2
100
AcDbLine
 10
350.672325
 20
-185.220805
 30
0.0
 11
351.172325
 21
-186.952856
 31
0.0
  0
LINE
  5
67
100
AcDbEntity
  8
0
  6
DASHED
 62
     2
100
AcDbLine
 10
351.172325
 20
-184.35478
 30
0.0
 11
350.672325
 21
-185.220805
 31
0.0
  0
LINE
  5
68
100
AcDbEntity
  8
0
  6
DASHED
 62
     2
100
AcDbLine
 10
350.672325
 20
-183.488754
 30
0.0
 11
352.672325
 21
-186.952856
 31
0.0
  0
LINE
  5
69
100
AcDbEntity
  8
0
  6
DASHED
 62
     2
100
AcDbLine
 10
350.672325
 20
-190.416957
 30
0.0
 11
352.672325
 21
-186.952856
 31
0.0
  0
LINE
  5
6A
100
AcDbEntity
  8
0
  6
DASHED
 62
     2
100
AcDbLine
 10
346.672325
 20
-190.416957
 30
0.0
 11
350.672325
 21
-190.416957
 31
0.0
  0
LINE
  5
6B
100
AcDbEntity
  8
0
  6
DASHED
 62
     2
100
AcDbLine
 10
346.672325
 20
-188.684907
 30
0.0
 11
350.672325
 21
-188.684907
 31
0.0
  0
LINE
  5
6C
100
AcDbEntity
  8
0
  6
DASHED
 62
     2
100
AcDbLine
 10
346.672325
 20
-185.220805
 30
0.0
 11
350.672325
 21
-185.220805
 31
0.0
  0
LINE
  5
6D
100
AcDbEntity
  8
0
  6
DASHED
 62
     2
100
AcDbLine
 10
346.672325
 20
-183.488754
 30
0.0
 11
350.672325
 21
-183.488754
 31
0.0
  0
CIRCLE
  5
6E
100
AcDbEntity
  8
0
  6
CONTINUOUS
 62
     4
100
AcDbCircle
 10
304.460056
 20
-189.057426
 30
0.0
 40
4.0
  0
CIRCLE
  5
6F
100
AcDbEntity
  8
0
  6
CONTINUOUS
 62
     4
100
AcDbCircle
 10
325.960056
 20
-204.67809
 30
0.0
 40
4.0
  0
CIRCLE
  5
70
100
AcDbEntity
  8
0
  6
CONTINUOUS
 62
     4
100
AcDbCircle
 10
334.172325
 20
-229.952856
 30
0.0
 40
4.0
  0
CIRCLE
  5
71
100
AcDbEntity
  8
0
  6
CONTINUOUS
 62
     4
100
AcDbCircle
 10
325.960056
 20
-255.227622
 30
0.0
 40
4.0
  0
CIRCLE
  5
72
100
AcDbEntity
  8
0
  6
CONTINUOUS
 62
     4
100
AcDbCircle
 10
304.460056
 20
-270.848286
 30
0.0
 40
4.0
  0
CIRCLE
  5
73
100
AcDbEntity
  8
0
  6
CONTINUOUS
 62
     4
100
AcDbCircle
 10
277.884594
 20
-270.848286
 30
0.0
 40
4.0
  0
CIRCLE
  5
74
100
AcDbEntity
  8
0
  6
CONTINUOUS
 62
     4
100
AcDbCircle
 10
256.384594
 20
-255.227622
 30
0.0
 40
4.0
  0
CIRCLE
  5
75
100
AcDbEntity
  8
0
  6
CONTINUOUS
 62
     4
100
AcDbCircle
 10
277.884594
 20
-189.057426
 30
0.0
 40
4.0
  0
CIRCLE
  5
76
100
AcDbEntity
  8
0
  6
CONTINUOUS
 62
     4
100
AcDbCircle
 10
256.384594
 20
-204.67809
 30
0.0
 40
4.0
  0
CIRCLE
  5
77
100
AcDbEntity
  8
0
  6
CONTINUOUS
 62
     4
100
AcDbCircle
 10
248.172325
 20
-229.952856
 30
0.0
 40
4.0
  0
LINE
  5
78
100
AcDbEntity
  8
0
  6
CONTINUOUS
 62
     4
100
AcDbLine
 10
384.047325
 20
-268.952856
 30
0.0
 11
387.172325
 21
-268.952856
 31
0.0
  0
LINE
  5
79
100
AcDbEntity
  8
0
  6
CONTINUOUS
 62
     4
100
AcDbLine
 10
384.047325
 20
-276.952856
 30
0.0
 11
387.172325
 21
-276.952856
 31
0.0
  0
LINE
  5
7A
100
AcDbEntity
  8
0
  6
CONTINUOUS
 62
     4
100
AcDbLine
 10
384.047325
 20
-182.952856
 30
0.0
 11
387.172325
 21
-182.952856
 31
0.0
  0
LINE
  5
7B
100
AcDbEntity
  8
0
  6
CONTINUOUS
 62
     4
100
AcDbLine
 10
384.047325
 20
-190.952856
 30
0.0
 11
387.172325
 21
-190.952856
 31
0.0
  0
LINE
  5
7C
100
AcDbEntity
  8
0
  6
CONTINUOUS
 62
     4
100
AcDbLine
 10
362.547325
 20
-276.327856
 30
0.0
 11
384.672325
 21
-276.327856
 31
0.0
  0
LINE
  5
7D
100
AcDbEntity
  8
0
  6
CONTINUOUS
 62
     4
100
AcDbLine
 10
361.464793
 20
-276.952856
 30
0.0
 11
362.547325
 21
-276.327856
 31
0.0
  0
LINE
  5
7E
100
AcDbEntity
  8
0
  6
CONTINUOUS
 62
     4
100
AcDbLine
 10
361.464793
 20
-268.952856
 30
0.0
 11
362.547325
 21
-269.577856
 31
0.0
  0
LINE
  5
7F
100
AcDbEntity
  8
0
  6
CONTINUOUS
 62
     4
100
AcDbLine
 10
362.547325
 20
-269.577856
 30
0.0
 11
384.672325
 21
-269.577856
 31
0.0
  0
LINE
  5
80
100
AcDbEntity
  8
0
  6
CONTINUOUS
 62
     4
100
AcDbLine
 10
361.464793
 20
-190.952856
 30
0.0
 11
362.547325
 21
-190.327856
 31
0.0
  0
LINE
  5
81
100
AcDbEntity
  8
0
  6
CONTINUOUS
 62
     4
100
AcDbLine
 10
361.464793
 20
-182.952856
 30
0.0
 11
362.547325
 21
-183.577856
 31
0.0
  0
LINE
  5
82
100
AcDbEntity
  8
0
  6
CONTINUOUS
 62
     4
100
AcDbLine
 10
362.547325
 20
-183.577856
 30
0.0
 11
384.672325
 21
-183.577856
 31
0.0
  0
LINE
  5
83
100
AcDbEntity
  8
0
  6
CONTINUOUS
 62
     4
100
AcDbLine
 10
362.547325
 20
-190.327856
 30
0.0
 11
384.672325
 21
-190.327856
 31
0.0
  0
CIRCLE
  5
85
100
AcDbEntity
  8
0
  6
CENTER
 62
     7
100
AcDbCircle
 10
291.172325
 20
-229.952856
 30
0.0
 40
43.0
  0
LINE
  5
86
100
AcDbEntity
  8
0
  6
CENTER
 62
     7
100
AcDbLine
 10
409.301201
 20
-383.957887
 30
0.0
 11
433.76573
 21
-383.957887
 31
0.0
  0
LINE
  5
87
100
AcDbEntity
  8
0
  6
CENTER
 62
     7
100
AcDbLine
 10
413.46573
 20
-346.492887
 30
0.0
 11
413.46573
 21
-354.492887
 31
0.0
  0
LINE
  5
88
100
AcDbEntity
  8
0
  6
CENTER
 62
     7
100
AcDbLine
 10
409.46573
 20
-350.492887
 30
0.0
 11
417.46573
 21
-350.492887
 31
0.0
  0
LINE
  5
89
100
AcDbEntity
  8
0
  6
CENTER
 62
     7
100
AcDbLine
 10
413.46573
 20
-421.422887
 30
0.0
 11
413.46573
 21
-413.422887
 31
0.0
  0
LINE
  5
8A
100
AcDbEntity
  8
0
  6
CENTER
 62
     7
100
AcDbLine
 10
409.46573
 20
-417.422887
 30
0.0
 11
417.46573
 21
-417.422887
 31
0.0
  0
LINE
  5
8B
100
AcDbEntity
  8
0
  6
CENTER
 62
     7
100
AcDbLine
 10
275.25795
 20
-278.932266
 30
0.0
 11
307.0867
 21
-180.973445
 31
0.0
  0
LINE
  5
8C
100
AcDbEntity
  8
0
  6
CENTER
 62
     7
100
AcDbLine
 10
260.901385
 20
-271.617231
 30
0.0
 11
321.443266
 21
-188.288481
 31
0.0
  0
LINE
  5
8D
100
AcDbEntity
  8
0
  6
CENTER
 62
     7
100
AcDbLine
 10
249.50795
 20
-260.223796
 30
0.0
 11
332.8367
 21
-199.681915
 31
0.0
  0
LINE
  5
8E
100
AcDbEntity
  8
0
  6
CENTER
 62
     7
100
AcDbLine
 10
242.192915
 20
-245.867231
 30
0.0
 11
340.151736
 21
-214.038481
 31
0.0
  0
LINE
  5
8F
100
AcDbEntity
  8
0
  6
CENTER
 62
     7
100
AcDbLine
 10
239.672325
 20
-229.952856
 30
0.0
 11
342.672325
 21
-229.952856
 31
0.0
  0
LINE
  5
90
100
AcDbEntity
  8
0
  6
CENTER
 62
     7
100
AcDbLine
 10
275.25795
 20
-180.973445
 30
0.0
 11
307.0867
 21
-278.932266
 31
0.0
  0
LINE
  5
91
100
AcDbEntity
  8
0
  6
CENTER
 62
     7
100
AcDbLine
 10
249.50795
 20
-199.681915
 30
0.0
 11
332.8367
 21
-260.223796
 31
0.0
  0
LINE
  5
92
100
AcDbEntity
  8
0
  6
CENTER
 62
     7
100
AcDbLine
 10
242.192915
 20
-214.038481
 30
0.0
 11
340.151736
 21
-245.867231
 31
0.0
  0
LINE
  5
93
100
AcDbEntity
  8
0
  6
CENTER
 62
     7
100
AcDbLine
 10
260.901385
 20
-188.288481
 30
0.0
 11
321.443266
 21
-271.617231
 31
0.0
  0
LINE
  5
94
100
AcDbEntity
  8
0
  6
CENTER
 62
     7
100
AcDbLine
 10
291.172325
 20
-178.452856
 30
0.0
 11
291.172325
 21
-281.452856
 31
0.0
  0
LINE
  5
95
100
AcDbEntity
  8
0
  6
CENTER
 62
     7
100
AcDbLine
 10
345.790146
 20
-272.952856
 30
0.0
 11
394.375734
 21
-272.952856
 31
0.0
  0
LINE
  5
96
100
AcDbEntity
  8
0
  6
CENTER
 62
     7
100
AcDbLine
 10
345.579706
 20
-186.952856
 30
0.0
 11
394.055065
 21
-186.952856
 31
0.0
  0
LINE
  5
97
100
AcDbEntity
  8
0
  6
CENTER
 62
     7
100
AcDbLine
 10
352.395656
 20
-229.952856
 30
0.0
 11
411.035845
 21
-229.952856
 31
0.0
  0
LINE
  5
98
100
AcDbEntity
  8
0
  6
CONTINUOUS
 62
     4
100
AcDbLine
 10
502.281699
 20
-235.713267
 30
0.0
 11
502.281699
 21
-280.713267
 31
0.0
  0
LINE
  5
99
100
AcDbEntity
  8
0
  6
CONTINUOUS
 62
     4
100
AcDbLine
 10
464.029047
 20
-243.213267
 30
0.0
 11
464.029047
 21
-280.713267
 31
0.0
  0
LINE
  5
9A
100
AcDbEntity
  8
0
  6
CONTINUOUS
 62
     4
100
AcDbLine
 10
431.432979
 20
-235.713267
 30
0.0
 11
502.281699
 21
-235.713267
 31
0.0
  0
LINE
  5
9B
100
AcDbEntity
  8
0
  6
CONTINUOUS
 62
     4
100
AcDbLine
 10
431.432979
 20
-243.213267
 30
0.0
 11
502.281699
 21
-243.213267
 31
0.0
  0
LINE
  5
9C
100
AcDbEntity
  8
0
  6
CONTINUOUS
 62
     4
100
AcDbLine
 10
431.432979
 20
-250.713267
 30
0.0
 11
502.281699
 21
-250.713267
 31
0.0
  0
LINE
  5
9D
100
AcDbEntity
  8
0
  6
CONTINUOUS
 62
     4
100
AcDbLine
 10
431.432979
 20
-258.213267
 30
0.0
 11
502.281699
 21
-258.213267
 31
0.0
  0
LINE
  5
9E
100
AcDbEntity
  8
0
  6
CONTINUOUS
 62
     4
100
AcDbLine
 10
431.432979
 20
-235.713267
 30
0.0
 11
431.432979
 21
-280.713267
 31
0.0
  0
LINE
  5
9F
100
AcDbEntity
  8
0
  6
CONTINUOUS
 62
     4
100
AcDbLine
 10
431.432979
 20
-265.713267
 30
0.0
 11
502.281699
 21
-265.713267
 31
0.0
  0
LINE
  5
A0
100
AcDbEntity
  8
0
  6
CONTINUOUS
 62
     4
100
AcDbLine
 10
431.432979
 20
-280.713267
 30
0.0
 11
502.281699
 21
-280.713267
 31
0.0
  0
LINE
  5
A1
100
AcDbEntity
  8
0
  6
CONTINUOUS
 62
     4
100
AcDbLine
 10
431.432979
 20
-273.213267
 30
0.0
 11
502.281699
 21
-273.213267
 31
0.0
  0
SPLINE
  5
A2
100
AcDbEntity
  8
0
  6
CONTINUOUS
 62
     7
100
AcDbSpline
210
0.0
220
0.0
230
1.0
 70
     0
 71
     3
 72
     0
 73
     0
 74
    55
 44
0.000001
 12
0.9972026512428539
 22
0.074745383497733
 32
0.0
 13
-0.9997071745535646
 23
-0.0241984533829872
 33
0.0
 11
371.17232512100952
 21
-174.52383567274811
 31
0.0
 11
374.33166628249825
 21
-174.37333109807562
 31
0.0
 11
377.49685929647455
 21
-174.39525193740099
 31
0.0
 11
380.66273305868492
 21
-174.5833956539947
 31
0.0
 11
383.822596995759
 21
-174.93356461638274
 31
0.0
 11
386.95841761234846
 21
-175.45652792300805
 31
0.0
 11
390.04703288755519
 21
-176.16982164619611
 31
0.0
 11
393.06525563813472
 21
-177.09101505942067
 31
0.0
 11
395.99369187688802
 21
-178.23644141052901
 31
0.0
 11
398.82815588810394
 21
-179.61747828120485
 31
0.0
 11
401.56827291651064
 21
-181.24426143891816
 31
0.0
 11
404.21262579735873
 21
-183.12682061382662
 31
0.0
 11
406.69422851682845
 21
-185.2685156576801
 31
0.0
 11
408.84268515487031
 21
-187.66218722735891
 31
0.0
 11
410.47849319006428
 21
-190.2997496263803
 31
0.0
 11
411.45132019129977
 21
-193.16878090973842
 31
0.0
 11
411.81646361492841
 21
-196.22629144181053
 31
0.0
 11
411.71762850372272
 21
-199.41614945193143
 31
0.0
 11
411.29886246147805
 21
-202.68217224639378
 31
0.0
 11
410.70421309198986
 21
-205.96817713149034
 31
0.0
 11
410.07741448065121
 21
-209.21813625952214
 31
0.0
 11
409.51836611290275
 21
-212.39767158955624
 31
0.0
 11
409.03846112135608
 21
-215.51611816207014
 31
0.0
 11
408.63843670080149
 21
-218.58807396039882
 31
0.0
 11
408.31903004603004
 21
-221.62813696787725
 31
0.0
 11
408.08097835183241
 21
-224.65090516784051
 31
0.0
 11
407.92501881299933
 21
-227.67097654362342
 31
0.0
 11
407.85188862432142
 21
-230.70294907856103
 31
0.0
 11
407.86232498058951
 21
-233.76142075598835
 31
0.0
 11
407.9570650765944
 21
-236.86098955924032
 31
0.0
 11
408.13684610712664
 21
-240.01625347165191
 31
0.0
 11
408.40240526697715
 21
-243.24181047655816
 31
0.0
 11
408.75447975093664
 21
-246.55225855729398
 31
0.0
 11
409.19380675379563
 21
-249.96219569719437
 31
0.0
 11
409.72112347034505
 21
-253.4862198795943
 31
0.0
 11
410.32433299419171
 21
-257.12478273328941
 31
0.0
 11
410.93737140269138
 21
-260.81885088423962
 31
0.0
 11
411.47999201333755
 21
-264.49375804835665
 31
0.0
 11
411.8719480812681
 21
-268.07483787282086
 31
0.0
 11
412.03299286162058
 21
-271.4874240048124
 31
0.0
 11
411.88287960953289
 21
-274.65685009151133
 31
0.0
 11
411.34136158014257
 21
-277.50844978009803
 31
0.0
 11
410.32819202858747
 21
-279.96755671775264
 31
0.0
 11
408.76312421000534
 21
-281.95950455165536
 31
0.0
 11
406.5984300808866
 21
-283.43641174279691
 31
0.0
 11
403.91912343978771
 21
-284.45973277657004
 31
0.0
 11
400.84408391930413
 21
-285.11881655055288
 31
0.0
 11
397.49219116230762
 21
-285.50301197078812
 31
0.0
 11
393.98232481166997
 21
-285.70166794331823
 31
0.0
 11
390.43336451026306
 21
-285.80413337418599
 31
0.0
 11
386.96418169382611
 21
-285.89975090463776
 31
0.0
 11
383.65828561141001
 21
-286.0508699612036
 31
0.0
 11
380.4828568219063
 21
-286.23104214411291
 31
0.0
 11
377.38119041632888
 21
-286.39558642650371
 31
0.0
 11
374.29658148569189
 21
-286.49982178151436
 31
0.0
  0
ARC
  5
A3
100
AcDbEntity
  8
0
  6
CONTINUOUS
 62
     7
100
AcDbCircle
 10
416.06573
 20
-357.057887
 30
0.0
 40
0.4
100
AcDbArc
 50
180.0
 51
270.0
  0
ARC
  5
A4
100
AcDbEntity
  8
0
  6
CONTINUOUS
 62
     7
100
AcDbCircle
 10
405.56573
 20
-352.757887
 30
0.0
 40
10.1
100
AcDbArc
 50
0.0
 51
28.375468
  0
ARC
  5
A5
100
AcDbEntity
  8
0
  6
CONTINUOUS
 62
     7
100
AcDbCircle
 10
421.36573
 20
-352.757887
 30
0.0
 40
10.1
100
AcDbArc
 50
151.624532
 51
180.0
  0
ARC
  5
A6
100
AcDbEntity
  8
0
  6
CONTINUOUS
 62
     7
100
AcDbCircle
 10
421.36573
 20
-415.157887
 30
0.0
 40
10.1
100
AcDbArc
 50
180.0
 51
208.375468
  0
ARC
  5
A7
100
AcDbEntity
  8
0
  6
CONTINUOUS
 62
     7
100
AcDbCircle
 10
416.06573
 20
-410.857887
 30
0.0
 40
0.4
100
AcDbArc
 50
90.0
 51
180.0
  0
ARC
  5
A8
100
AcDbEntity
  8
0
  6
CONTINUOUS
 62
     7
100
AcDbCircle
 10
405.56573
 20
-415.157887
 30
0.0
 40
10.1
100
AcDbArc
 50
331.624532
 51
0.0
  0
CIRCLE
  5
A9
100
AcDbEntity
  8
0
  6
CONTINUOUS
 62
     7
100
AcDbCircle
 10
332.067755
 20
-216.665125
 30
0.0
 40
5.7
  0
CIRCLE
  5
AA
100
AcDbEntity
  8
0
  6
CONTINUOUS
 62
     7
100
AcDbCircle
 10
332.067755
 20
-216.665125
 30
0.0
 40
6.5
  0
CIRCLE
  5
AB
100
AcDbEntity
  8
0
  6
CONTINUOUS
 62
     7
100
AcDbCircle
 10
316.447091
 20
-264.740587
 30
0.0
 40
5.7
  0
CIRCLE
  5
AC
100
AcDbEntity
  8
0
  6
CONTINUOUS
 62
     7
100
AcDbCircle
 10
316.447091
 20
-264.740587
 30
0.0
 40
6.5
  0
CIRCLE
  5
AD
100
AcDbEntity
  8
0
  6
CONTINUOUS
 62
     7
100
AcDbCircle
 10
265.897559
 20
-264.740587
 30
0.0
 40
5.7
  0
CIRCLE
  5
AE
100
AcDbEntity
  8
0
  6
CONTINUOUS
 62
     7
100
AcDbCircle
 10
265.897559
 20
-264.740587
 30
0.0
 40
6.5
  0
CIRCLE
  5
AF
100
AcDbEntity
  8
0
  6
CONTINUOUS
 62
     7
100
AcDbCircle
 10
250.276895
 20
-216.665125
 30
0.0
 40
6.5
  0
CIRCLE
  5
B0
100
AcDbEntity
  8
0
  6
CONTINUOUS
 62
     7
100
AcDbCircle
 10
250.276895
 20
-216.665125
 30
0.0
 40
5.7
  0
CIRCLE
  5
B1
100
AcDbEntity
  8
0
  6
CONTINUOUS
 62
     7
100
AcDbCircle
 10
291.172325
 20
-186.952856
 30
0.0
 40
6.5
  0
CIRCLE
  5
B2
100
AcDbEntity
  8
0
  6
CONTINUOUS
 62
     7
100
AcDbCircle
 10
291.172325
 20
-186.952856
 30
0.0
 40
5.7
  0
CIRCLE
  5
B3
100
AcDbEntity
  8
0
  6
CONTINUOUS
 62
     7
100
AcDbCircle
 10
304.460056
 20
-189.057426
 30
0.0
 40
3.375
  0
CIRCLE
  5
B4
100
AcDbEntity
  8
0
  6
CONTINUOUS
 62
     7
100
AcDbCircle
 10
325.960056
 20
-204.67809
 30
0.0
 40
3.375
  0
CIRCLE
  5
B5
100
AcDbEntity
  8
0
  6
CONTINUOUS
 62
     7
100
AcDbCircle
 10
334.172325
 20
-229.952856
 30
0.0
 40
3.375
  0
CIRCLE
  5
B6
100
AcDbEntity
  8
0
  6
CONTINUOUS
 62
     7
100
AcDbCircle
 10
325.960056
 20
-255.227622
 30
0.0
 40
3.375
  0
CIRCLE
  5
B7
100
AcDbEntity
  8
0
  6
CONTINUOUS
 62
     7
100
AcDbCircle
 10
304.460056
 20
-270.848286
 30
0.0
 40
3.375
  0
CIRCLE
  5
B8
100
AcDbEntity
  8
0
  6
CONTINUOUS
 62
     7
100
AcDbCircle
 10
277.884594
 20
-270.848286
 30
0.0
 40
3.375
  0
CIRCLE
  5
B9
100
AcDbEntity
  8
0
  6
CONTINUOUS
 62
     7
100
AcDbCircle
 10
256.384594
 20
-255.227622
 30
0.0
 40
3.375
  0
CIRCLE
  5
BA
100
AcDbEntity
  8
0
  6
CONTINUOUS
 62
     7
100
AcDbCircle
 10
248.172325
 20
-229.952856
 30
0.0
 40
3.375
  0
CIRCLE
  5
BB
100
AcDbEntity
  8
0
  6
CONTINUOUS
 62
     7
100
AcDbCircle
 10
265.897559
 20
-195.165125
 30
0.0
 40
4.25
  0
CIRCLE
  5
BC
100
AcDbEntity
  8
0
  6
CONTINUOUS
 62
     7
100
AcDbCircle
 10
250.276895
 20
-243.240587
 30
0.0
 40
4.25
  0
CIRCLE
  5
BD
100
AcDbEntity
  8
0
  6
CONTINUOUS
 62
     7
100
AcDbCircle
 10
332.067755
 20
-243.240587
 30
0.0
 40
4.25
  0
CIRCLE
  5
BE
100
AcDbEntity
  8
0
  6
CONTINUOUS
 62
     7
100
AcDbCircle
 10
316.447091
 20
-195.165125
 30
0.0
 40
4.25
  0
CIRCLE
  5
BF
100
AcDbEntity
  8
0
  6
CONTINUOUS
 62
     7
100
AcDbCircle
 10
256.384594
 20
-204.67809
 30
0.0
 40
3.375
  0
CIRCLE
  5
C0
100
AcDbEntity
  8
0
  6
CONTINUOUS
 62
     7
100
AcDbCircle
 10
291.172325
 20
-272.952856
 30
0.0
 40
4.25
  0
CIRCLE
  5
C1
100
AcDbEntity
  8
0
  6
CONTINUOUS
 62
     7
100
AcDbCircle
 10
277.884594
 20
-189.057426
 30
0.0
 40
3.375
  0
CIRCLE
  5
C2
100
AcDbEntity
  8
0
  6
CONTINUOUS
 62
     7
100
AcDbCircle
 10
291.172325
 20
-229.952856
 30
0.0
 40
50.5
  0
CIRCLE
  5
C3
100
AcDbEntity
  8
0
  6
CONTINUOUS
 62
     7
100
AcDbCircle
 10
291.172325
 20
-229.952856
 30
0.0
 40
30.0
  0
ARC
  5
C4
100
AcDbEntity
  8
0
  6
CONTINUOUS
 62
     7
100
AcDbCircle
 10
367.672325
 20
-263.202856
 30
0.0
 40
1.75
100
AcDbArc
 50
180.0
 51
0.0
  0
ARC
  5
C5
100
AcDbEntity
  8
0
  6
CONTINUOUS
 62
     7
100
AcDbCircle
 10
367.672325
 20
-196.702856
 30
0.0
 40
1.75
100
AcDbArc
 50
0.0
 51
180.0
  0
LINE
  5
C6
100
AcDbEntity
  8
0
  6
CONTINUOUS
 62
     7
100
AcDbLine
 10
411.26573
 20
-352.757887
 30
0.0
 11
411.26573
 21
-415.157887
 31
0.0
  0
LINE
  5
C7
100
AcDbEntity
  8
0
  6
CONTINUOUS
 62
     7
100
AcDbLine
 10
415.66573
 20
-352.757887
 30
0.0
 11
415.66573
 21
-357.057887
 31
0.0
  0
LINE
  5
C8
100
AcDbEntity
  8
0
  6
CONTINUOUS
 62
     7
100
AcDbLine
 10
416.06573
 20
-357.457887
 30
0.0
 11
428.76573
 21
-357.457887
 31
0.0
  0
LINE
  5
C9
100
AcDbEntity
  8
0
  6
CONTINUOUS
 62
     7
100
AcDbLine
 10
431.26573
 20
-359.957887
 30
0.0
 11
431.26573
 21
-407.957887
 31
0.0
  0
LINE
  5
CA
100
AcDbEntity
  8
0
  6
CONTINUOUS
 62
     7
100
AcDbLine
 10
411.26573
 20
-377.607887
 30
0.0
 11
431.26573
 21
-377.607887
 31
0.0
  0
LINE
  5
CB
100
AcDbEntity
  8
0
  6
CONTINUOUS
 62
     7
100
AcDbLine
 10
412.479223
 20
-347.957887
 30
0.0
 11
414.452237
 21
-347.957887
 31
0.0
  0
LINE
  5
CC
100
AcDbEntity
  8
0
  6
CONTINUOUS
 62
     7
100
AcDbLine
 10
411.26573
 20
-353.037887
 30
0.0
 11
415.66573
 21
-353.037887
 31
0.0
  0
LINE
  5
CD
100
AcDbEntity
  8
0
  6
CONTINUOUS
 62
     7
100
AcDbLine
 10
415.66573
 20
-415.157887
 30
0.0
 11
415.66573
 21
-410.857887
 31
0.0
  0
LINE
  5
CE
100
AcDbEntity
  8
0
  6
CONTINUOUS
 62
     7
100
AcDbLine
 10
416.06573
 20
-410.457887
 30
0.0
 11
428.76573
 21
-410.457887
 31
0.0
  0
LINE
  5
CF
100
AcDbEntity
  8
0
  6
CONTINUOUS
 62
     7
100
AcDbLine
 10
411.26573
 20
-390.307887
 30
0.0
 11
431.26573
 21
-390.307887
 31
0.0
  0
LINE
  5
D0
100
AcDbEntity
  8
0
  6
CONTINUOUS
 62
     7
100
AcDbLine
 10
411.26573
 20
-414.877887
 30
0.0
 11
415.66573
 21
-414.877887
 31
0.0
  0
LINE
  5
D1
100
AcDbEntity
  8
0
  6
CONTINUOUS
 62
     7
100
AcDbLine
 10
412.479223
 20
-419.957887
 30
0.0
 11
414.452237
 21
-419.957887
 31
0.0
  0
LINE
  5
D2
100
AcDbEntity
  8
0
  6
CONTINUOUS
 62
     7
100
AcDbLine
 10
431.26573
 20
-407.957887
 30
0.0
 11
428.76573
 21
-410.457887
 31
0.0
  0
LINE
  5
D3
100
AcDbEntity
  8
0
  6
CONTINUOUS
 62
     7
100
AcDbLine
 10
428.76573
 20
-357.457887
 30
0.0
 11
431.26573
 21
-359.957887
 31
0.0
  0
LINE
  5
D4
100
AcDbEntity
  8
0
  6
CONTINUOUS
 62
     7
100
AcDbLine
 10
398.172325
 20
-265.302856
 30
0.0
 11
411.583255
 21
-265.302856
 31
0.0
  0
LINE
  5
D5
100
AcDbEntity
  8
0
  6
CONTINUOUS
 62
     7
100
AcDbLine
 10
398.172325
 20
-194.602856
 30
0.0
 11
411.691968
 21
-194.602856
 31
0.0
  0
LINE
  5
D6
100
AcDbEntity
  8
0
  6
CONTINUOUS
 62
     7
100
AcDbLine
 10
371.172325
 20
-190.952856
 30
0.0
 11
371.172325
 21
-192.202856
 31
0.0
  0
LINE
  5
D7
100
AcDbEntity
  8
0
  6
CONTINUOUS
 62
     7
100
AcDbLine
 10
371.172325
 20
-229.452856
 30
0.0
 11
371.172325
 21
-230.452856
 31
0.0
  0
LINE
  5
D8
100
AcDbEntity
  8
0
  6
CONTINUOUS
 62
     7
100
AcDbLine
 10
371.172325
 20
-276.952856
 30
0.0
 11
371.172325
 21
-286.499067
 31
0.0
  0
LINE
  5
D9
100
AcDbEntity
  8
0
  6
CONTINUOUS
 62
     7
100
AcDbLine
 10
371.172325
 20
-267.702856
 30
0.0
 11
371.172325
 21
-268.952856
 31
0.0
  0
LINE
  5
DA
100
AcDbEntity
  8
0
  6
CONTINUOUS
 62
     7
100
AcDbLine
 10
371.172325
 20
-174.523836
 30
0.0
 11
371.172325
 21
-182.952856
 31
0.0
  0
LINE
  5
DB
100
AcDbEntity
  8
0
  6
CONTINUOUS
 62
     7
100
AcDbLine
 10
328.773199
 20
-217.735591
 30
0.0
 11
331.347528
 21
-220.053528
 31
0.0
  0
LINE
  5
DC
100
AcDbEntity
  8
0
  6
CONTINUOUS
 62
     7
100
AcDbLine
 10
332.787983
 20
-213.276722
 30
0.0
 11
335.362312
 21
-215.594659
 31
0.0
  0
LINE
  5
DD
100
AcDbEntity
  8
0
  6
CONTINUOUS
 62
     7
100
AcDbLine
 10
332.787983
 20
-213.276722
 30
0.0
 11
329.493426
 21
-214.347189
 31
0.0
  0
LINE
  5
DE
100
AcDbEntity
  8
0
  6
CONTINUOUS
 62
     7
100
AcDbLine
 10
334.642085
 20
-218.983062
 30
0.0
 11
331.347528
 21
-220.053528
 31
0.0
  0
LINE
  5
DF
100
AcDbEntity
  8
0
  6
CONTINUOUS
 62
     7
100
AcDbLine
 10
329.493426
 20
-214.347189
 30
0.0
 11
328.773199
 21
-217.735591
 31
0.0
  0
LINE
  5
E0
100
AcDbEntity
  8
0
  6
CONTINUOUS
 62
     7
100
AcDbLine
 10
335.362312
 20
-215.594659
 30
0.0
 11
334.642085
 21
-218.983062
 31
0.0
  0
LINE
  5
E1
100
AcDbEntity
  8
0
  6
CONTINUOUS
 62
     7
100
AcDbLine
 10
314.410943
 20
-261.93807
 30
0.0
 11
313.001966
 21
-265.102684
 31
0.0
  0
LINE
  5
E2
100
AcDbEntity
  8
0
  6
CONTINUOUS
 62
     7
100
AcDbLine
 10
319.892216
 20
-264.378489
 30
0.0
 11
318.483239
 21
-267.543104
 31
0.0
  0
LINE
  5
E3
100
AcDbEntity
  8
0
  6
CONTINUOUS
 62
     7
100
AcDbLine
 10
319.892216
 20
-264.378489
 30
0.0
 11
317.856068
 21
-261.575972
 31
0.0
  0
LINE
  5
E4
100
AcDbEntity
  8
0
  6
CONTINUOUS
 62
     7
100
AcDbLine
 10
315.038114
 20
-267.905201
 30
0.0
 11
313.001966
 21
-265.102684
 31
0.0
  0
LINE
  5
E5
100
AcDbEntity
  8
0
  6
CONTINUOUS
 62
     7
100
AcDbLine
 10
317.856068
 20
-261.575972
 30
0.0
 11
314.410943
 21
-261.93807
 31
0.0
  0
LINE
  5
E6
100
AcDbEntity
  8
0
  6
CONTINUOUS
 62
     7
100
AcDbLine
 10
318.483239
 20
-267.543104
 30
0.0
 11
315.038114
 21
-267.905201
 31
0.0
  0
LINE
  5
E7
100
AcDbEntity
  8
0
  6
CONTINUOUS
 62
     7
100
AcDbLine
 10
267.933707
 20
-261.93807
 30
0.0
 11
264.488582
 21
-261.575972
 31
0.0
  0
LINE
  5
E8
100
AcDbEntity
  8
0
  6
CONTINUOUS
 62
     7
100
AcDbLine
 10
267.306536
 20
-267.905201
 30
0.0
 11
263.861411
 21
-267.543104
 31
0.0
  0
LINE
  5
E9
100
AcDbEntity
  8
0
  6
CONTINUOUS
 62
     7
100
AcDbLine
 10
267.306536
 20
-267.905201
 30
0.0
 11
269.342684
 21
-265.102684
 31
0.0
  0
LINE
  5
EA
100
AcDbEntity
  8
0
  6
CONTINUOUS
 62
     7
100
AcDbLine
 10
262.452434
 20
-264.378489
 30
0.0
 11
264.488582
 21
-261.575972
 31
0.0
  0
LINE
  5
EB
100
AcDbEntity
  8
0
  6
CONTINUOUS
 62
     7
100
AcDbLine
 10
269.342684
 20
-265.102684
 30
0.0
 11
267.933707
 21
-261.93807
 31
0.0
  0
LINE
  5
EC
100
AcDbEntity
  8
0
  6
CONTINUOUS
 62
     7
100
AcDbLine
 10
263.861411
 20
-267.543104
 30
0.0
 11
262.452434
 21
-264.378489
 31
0.0
  0
LINE
  5
ED
100
AcDbEntity
  8
0
  6
CONTINUOUS
 62
     7
100
AcDbLine
 10
253.571451
 20
-217.735591
 30
0.0
 11
252.851224
 21
-214.347189
 31
0.0
  0
LINE
  5
EE
100
AcDbEntity
  8
0
  6
CONTINUOUS
 62
     7
100
AcDbLine
 10
247.702566
 20
-218.983062
 30
0.0
 11
246.982339
 21
-215.594659
 31
0.0
  0
LINE
  5
EF
100
AcDbEntity
  8
0
  6
CONTINUOUS
 62
     7
100
AcDbLine
 10
246.982339
 20
-215.594659
 30
0.0
 11
249.556668
 21
-213.276722
 31
0.0
  0
LINE
  5
F0
100
AcDbEntity
  8
0
  6
CONTINUOUS
 62
     7
100
AcDbLine
 10
250.997122
 20
-220.053528
 30
0.0
 11
253.571451
 21
-217.735591
 31
0.0
  0
LINE
  5
F1
100
AcDbEntity
  8
0
  6
CONTINUOUS
 62
     7
100
AcDbLine
 10
249.556668
 20
-213.276722
 30
0.0
 11
252.851224
 21
-214.347189
 31
0.0
  0
LINE
  5
F2
100
AcDbEntity
  8
0
  6
CONTINUOUS
 62
     7
100
AcDbLine
 10
247.702566
 20
-218.983062
 30
0.0
 11
250.997122
 21
-220.053528
 31
0.0
  0
LINE
  5
F3
100
AcDbEntity
  8
0
  6
CONTINUOUS
 62
     7
100
AcDbLine
 10
390.172325
 20
-276.327856
 30
0.0
 11
390.172325
 21
-269.577856
 31
0.0
  0
LINE
  5
F4
100
AcDbEntity
  8
0
  6
CONTINUOUS
 62
     7
100
AcDbLine
 10
387.172325
 20
-276.952856
 30
0.0
 11
387.172325
 21
-268.952856
 31
0.0
  0
LINE
  5
F5
100
AcDbEntity
  8
0
  6
CONTINUOUS
 62
     7
100
AcDbLine
 10
390.172325
 20
-276.327856
 30
0.0
 11
392.120882
 21
-272.952856
 31
0.0
  0
LINE
  5
F6
100
AcDbEntity
  8
0
  6
CONTINUOUS
 62
     7
100
AcDbLine
 10
384.672325
 20
-269.577856
 30
0.0
 11
390.172325
 21
-269.577856
 31
0.0
  0
LINE
  5
F7
100
AcDbEntity
  8
0
  6
CONTINUOUS
 62
     7
100
AcDbLine
 10
390.172325
 20
-269.577856
 30
0.0
 11
392.120882
 21
-272.952856
 31
0.0
  0
LINE
  5
F8
100
AcDbEntity
  8
0
  6
CONTINUOUS
 62
     7
100
AcDbLine
 10
384.672325
 20
-276.327856
 30
0.0
 11
390.172325
 21
-276.327856
 31
0.0
  0
LINE
  5
F9
100
AcDbEntity
  8
0
  6
CONTINUOUS
 62
     7
100
AcDbLine
 10
390.172325
 20
-183.577856
 30
0.0
 11
390.172325
 21
-190.327856
 31
0.0
  0
LINE
  5
FA
100
AcDbEntity
  8
0
  6
CONTINUOUS
 62
     7
100
AcDbLine
 10
387.172325
 20
-182.952856
 30
0.0
 11
387.172325
 21
-190.952856
 31
0.0
  0
LINE
  5
FB
100
AcDbEntity
  8
0
  6
CONTINUOUS
 62
     7
100
AcDbLine
 10
390.172325
 20
-183.577856
 30
0.0
 11
392.120882
 21
-186.952856
 31
0.0
  0
LINE
  5
FC
100
AcDbEntity
  8
0
  6
CONTINUOUS
 62
     7
100
AcDbLine
 10
390.172325
 20
-190.327856
 30
0.0
 11
392.120882
 21
-186.952856
 31
0.0
  0
LINE
  5
FD
100
AcDbEntity
  8
0
  6
CONTINUOUS
 62
     7
100
AcDbLine
 10
384.672325
 20
-190.327856
 30
0.0
 11
390.172325
 21
-190.327856
 31
0.0
  0
LINE
  5
FE
100
AcDbEntity
  8
0
  6
CONTINUOUS
 62
     7
100
AcDbLine
 10
384.672325
 20
-183.577856
 30
0.0
 11
390.172325
 21
-183.577856
 31
0.0
  0
LINE
  5
FF
100
AcDbEntity
  8
0
  6
CONTINUOUS
 62
     7
100
AcDbLine
 10
398.172325
 20
-194.56505
 30
0.0
 11
398.172325
 21
-265.340662
 31
0.0
  0
LINE
  5
100
100
AcDbEntity
  8
0
  6
CONTINUOUS
 62
     7
100
AcDbLine
 10
367.672325
 20
-276.952856
 30
0.0
 11
367.672325
 21
-280.452856
 31
0.0
  0
LINE
  5
101
100
AcDbEntity
  8
0
  6
CONTINUOUS
 62
     7
100
AcDbLine
 10
384.047325
 20
-276.952856
 30
0.0
 11
384.672325
 21
-276.327856
 31
0.0
  0
LINE
  5
102
100
AcDbEntity
  8
0
  6
CONTINUOUS
 62
     7
100
AcDbLine
 10
362.547325
 20
-276.952856
 30
0.0
 11
362.547325
 21
-268.952856
 31
0.0
  0
LINE
  5
103
100
AcDbEntity
  8
0
  6
CONTINUOUS
 62
     7
100
AcDbLine
 10
354.672325
 20
-279.452856
 30
0.0
 11
354.672325
 21
-266.452856
 31
0.0
  0
LINE
  5
104
100
AcDbEntity
  8
0
  6
CONTINUOUS
 62
     7
100
AcDbLine
 10
346.672325
 20
-267.252856
 30
0.0
 11
347.472325
 21
-266.452856
 31
0.0
  0
LINE
  5
105
100
AcDbEntity
  8
0
  6
CONTINUOUS
 62
     7
100
AcDbLine
 10
384.672325
 20
-276.327856
 30
0.0
 11
384.672325
 21
-269.577856
 31
0.0
  0
LINE
  5
106
100
AcDbEntity
  8
0
  6
CONTINUOUS
 62
     7
100
AcDbLine
 10
346.672325
 20
-278.652856
 30
0.0
 11
346.672325
 21
-267.252856
 31
0.0
  0
LINE
  5
107
100
AcDbEntity
  8
0
  6
CONTINUOUS
 62
     7
100
AcDbLine
 10
384.047325
 20
-268.952856
 30
0.0
 11
384.672325
 21
-269.577856
 31
0.0
  0
LINE
  5
108
100
AcDbEntity
  8
0
  6
CONTINUOUS
 62
     7
100
AcDbLine
 10
347.472325
 20
-266.452856
 30
0.0
 11
354.672325
 21
-266.452856
 31
0.0
  0
LINE
  5
109
100
AcDbEntity
  8
0
  6
CONTINUOUS
 62
     7
100
AcDbLine
 10
354.672325
 20
-268.952856
 30
0.0
 11
384.047325
 21
-268.952856
 31
0.0
  0
LINE
  5
10A
100
AcDbEntity
  8
0
  6
CONTINUOUS
 62
     7
100
AcDbLine
 10
347.472325
 20
-279.452856
 30
0.0
 11
347.472325
 21
-266.452856
 31
0.0
  0
LINE
  5
10B
100
AcDbEntity
  8
0
  6
CONTINUOUS
 62
     7
100
AcDbLine
 10
347.472325
 20
-279.452856
 30
0.0
 11
354.672325
 21
-279.452856
 31
0.0
  0
LINE
  5
10C
100
AcDbEntity
  8
0
  6
CONTINUOUS
 62
     7
100
AcDbLine
 10
354.672325
 20
-276.952856
 30
0.0
 11
384.047325
 21
-276.952856
 31
0.0
  0
LINE
  5
10D
100
AcDbEntity
  8
0
  6
CONTINUOUS
 62
     7
100
AcDbLine
 10
346.672325
 20
-278.652856
 30
0.0
 11
347.472325
 21
-279.452856
 31
0.0
  0
LINE
  5
10E
100
AcDbEntity
  8
0
  6
CONTINUOUS
 62
     7
100
AcDbLine
 10
354.672325
 20
-268.702856
 30
0.0
 11
367.672325
 21
-268.702856
 31
0.0
  0
LINE
  5
10F
100
AcDbEntity
  8
0
  6
CONTINUOUS
 62
     7
100
AcDbLine
 10
354.672325
 20
-277.202856
 30
0.0
 11
367.672325
 21
-277.202856
 31
0.0
  0
LINE
  5
110
100
AcDbEntity
  8
0
  6
CONTINUOUS
 62
     7
100
AcDbLine
 10
384.047325
 20
-276.952856
 30
0.0
 11
384.047325
 21
-268.952856
 31
0.0
  0
LINE
  5
111
100
AcDbEntity
  8
0
  6
CONTINUOUS
 62
     7
100
AcDbLine
 10
347.472325
 20
-180.452856
 30
0.0
 11
347.472325
 21
-193.452856
 31
0.0
  0
LINE
  5
112
100
AcDbEntity
  8
0
  6
CONTINUOUS
 62
     7
100
AcDbLine
 10
367.672325
 20
-190.952856
 30
0.0
 11
367.672325
 21
-192.202856
 31
0.0
  0
LINE
  5
113
100
AcDbEntity
  8
0
  6
CONTINUOUS
 62
     7
100
AcDbLine
 10
354.672325
 20
-191.202856
 30
0.0
 11
367.672325
 21
-191.202856
 31
0.0
  0
LINE
  5
114
100
AcDbEntity
  8
0
  6
CONTINUOUS
 62
     7
100
AcDbLine
 10
354.672325
 20
-182.702856
 30
0.0
 11
367.672325
 21
-182.702856
 31
0.0
  0
LINE
  5
115
100
AcDbEntity
  8
0
  6
CONTINUOUS
 62
     7
100
AcDbLine
 10
362.547325
 20
-182.952856
 30
0.0
 11
362.547325
 21
-190.952856
 31
0.0
  0
LINE
  5
116
100
AcDbEntity
  8
0
  6
CONTINUOUS
 62
     7
100
AcDbLine
 10
291.172325
 20
-190.416957
 30
0.0
 11
294.172325
 21
-188.684907
 31
0.0
  0
LINE
  5
117
100
AcDbEntity
  8
0
  6
CONTINUOUS
 62
     7
100
AcDbLine
 10
288.172325
 20
-185.220805
 30
0.0
 11
291.172325
 21
-183.488754
 31
0.0
  0
LINE
  5
118
100
AcDbEntity
  8
0
  6
CONTINUOUS
 62
     7
100
AcDbLine
 10
291.172325
 20
-183.488754
 30
0.0
 11
294.172325
 21
-185.220805
 31
0.0
  0
LINE
  5
119
100
AcDbEntity
  8
0
  6
CONTINUOUS
 62
     7
100
AcDbLine
 10
288.172325
 20
-188.684907
 30
0.0
 11
291.172325
 21
-190.416957
 31
0.0
  0
LINE
  5
11A
100
AcDbEntity
  8
0
  6
CONTINUOUS
 62
     7
100
AcDbLine
 10
294.172325
 20
-185.220805
 30
0.0
 11
294.172325
 21
-188.684907
 31
0.0
  0
LINE
  5
11B
100
AcDbEntity
  8
0
  6
CONTINUOUS
 62
     7
100
AcDbLine
 10
288.172325
 20
-185.220805
 30
0.0
 11
288.172325
 21
-188.684907
 31
0.0
  0
LINE
  5
11C
100
AcDbEntity
  8
0
  6
CONTINUOUS
 62
     7
100
AcDbLine
 10
346.672325
 20
-192.652856
 30
0.0
 11
347.472325
 21
-193.452856
 31
0.0
  0
LINE
  5
11D
100
AcDbEntity
  8
0
  6
CONTINUOUS
 62
     7
100
AcDbLine
 10
346.672325
 20
-181.252856
 30
0.0
 11
347.472325
 21
-180.452856
 31
0.0
  0
LINE
  5
11E
100
AcDbEntity
  8
0
  6
CONTINUOUS
 62
     7
100
AcDbLine
 10
384.047325
 20
-182.952856
 30
0.0
 11
384.047325
 21
-190.952856
 31
0.0
  0
LINE
  5
11F
100
AcDbEntity
  8
0
  6
CONTINUOUS
 62
     7
100
AcDbLine
 10
384.047325
 20
-190.952856
 30
0.0
 11
384.672325
 21
-190.327856
 31
0.0
  0
LINE
  5
120
100
AcDbEntity
  8
0
  6
CONTINUOUS
 62
     7
100
AcDbLine
 10
384.047325
 20
-182.952856
 30
0.0
 11
384.672325
 21
-183.577856
 31
0.0
  0
LINE
  5
121
100
AcDbEntity
  8
0
  6
CONTINUOUS
 62
     7
100
AcDbLine
 10
347.472325
 20
-193.452856
 30
0.0
 11
354.672325
 21
-193.452856
 31
0.0
  0
LINE
  5
122
100
AcDbEntity
  8
0
  6
CONTINUOUS
 62
     7
100
AcDbLine
 10
347.472325
 20
-180.452856
 30
0.0
 11
354.672325
 21
-180.452856
 31
0.0
  0
LINE
  5
123
100
AcDbEntity
  8
0
  6
CONTINUOUS
 62
     7
100
AcDbLine
 10
354.672325
 20
-182.952856
 30
0.0
 11
384.047325
 21
-182.952856
 31
0.0
  0
LINE
  5
124
100
AcDbEntity
  8
0
  6
CONTINUOUS
 62
     7
100
AcDbLine
 10
354.672325
 20
-190.952856
 30
0.0
 11
384.047325
 21
-190.952856
 31
0.0
  0
LINE
  5
125
100
AcDbEntity
  8
0
  6
CONTINUOUS
 62
     7
100
AcDbLine
 10
384.672325
 20
-183.577856
 30
0.0
 11
384.672325
 21
-190.327856
 31
0.0
  0
LINE
  5
126
100
AcDbEntity
  8
0
  6
CONTINUOUS
 62
     7
100
AcDbLine
 10
346.672325
 20
-181.252856
 30
0.0
 11
346.672325
 21
-192.652856
 31
0.0
  0
LINE
  5
127
100
AcDbEntity
  8
0
  6
CONTINUOUS
 62
     7
100
AcDbLine
 10
354.672325
 20
-180.452856
 30
0.0
 11
354.672325
 21
-193.452856
 31
0.0
  0
LINE
  5
128
100
AcDbEntity
  8
0
  6
CONTINUOUS
 62
     7
100
AcDbLine
 10
369.422325
 20
-229.452856
 30
0.0
 11
369.422325
 21
-196.702856
 31
0.0
  0
LINE
  5
129
100
AcDbEntity
  8
0
  6
CONTINUOUS
 62
     7
100
AcDbLine
 10
369.422325
 20
-263.202856
 30
0.0
 11
369.422325
 21
-230.452856
 31
0.0
  0
LINE
  5
12A
100
AcDbEntity
  8
0
  6
CONTINUOUS
 62
     7
100
AcDbLine
 10
365.922325
 20
-196.702856
 30
0.0
 11
365.922325
 21
-263.202856
 31
0.0
  0
LINE
  5
12B
100
AcDbEntity
  8
0
  6
CONTINUOUS
 62
     7
100
AcDbLine
 10
368.672325
 20
-229.452856
 30
0.0
 11
368.672325
 21
-230.452856
 31
0.0
  0
LINE
  5
12C
100
AcDbEntity
  8
0
  6
CONTINUOUS
 62
     7
100
AcDbLine
 10
368.672325
 20
-230.452856
 30
0.0
 11
394.672325
 21
-230.452856
 31
0.0
  0
LINE
  5
12D
100
AcDbEntity
  8
0
  6
CONTINUOUS
 62
     7
100
AcDbLine
 10
368.672325
 20
-229.452856
 30
0.0
 11
394.672325
 21
-229.452856
 31
0.0
  0
LINE
  5
12E
100
AcDbEntity
  8
0
  6
CONTINUOUS
 62
     7
100
AcDbLine
 10
394.672325
 20
-230.452856
 30
0.0
 11
394.672325
 21
-265.646872
 31
0.0
  0
LINE
  5
12F
100
AcDbEntity
  8
0
  6
CONTINUOUS
 62
     7
100
AcDbLine
 10
369.422325
 20
-259.952856
 30
0.0
 11
394.672325
 21
-259.952856
 31
0.0
  0
LINE
  5
130
100
AcDbEntity
  8
0
  6
CONTINUOUS
 62
     7
100
AcDbLine
 10
369.422325
 20
-199.952856
 30
0.0
 11
394.672325
 21
-199.952856
 31
0.0
  0
LINE
  5
131
100
AcDbEntity
  8
0
  6
CONTINUOUS
 62
     7
100
AcDbLine
 10
354.672325
 20
-259.952856
 30
0.0
 11
365.922325
 21
-259.952856
 31
0.0
  0
LINE
  5
132
100
AcDbEntity
  8
0
  6
CONTINUOUS
 62
     7
100
AcDbLine
 10
354.672325
 20
-199.952856
 30
0.0
 11
365.922325
 21
-199.952856
 31
0.0
  0
LINE
  5
133
100
AcDbEntity
  8
0
  6
CONTINUOUS
 62
     7
100
AcDbLine
 10
367.672325
 20
-267.702856
 30
0.0
 11
367.672325
 21
-268.952856
 31
0.0
  0
LINE
  5
134
100
AcDbEntity
  8
0
  6
CONTINUOUS
 62
     7
100
AcDbLine
 10
371.172325
 20
-267.702856
 30
0.0
 11
398.172325
 21
-265.340662
 31
0.0
  0
LINE
  5
135
100
AcDbEntity
  8
0
  6
CONTINUOUS
 62
     7
100
AcDbLine
 10
371.172325
 20
-192.202856
 30
0.0
 11
398.172325
 21
-194.56505
 31
0.0
  0
LINE
  5
136
100
AcDbEntity
  8
0
  6
CONTINUOUS
 62
     7
100
AcDbLine
 10
367.672325
 20
-267.702856
 30
0.0
 11
371.172325
 21
-267.702856
 31
0.0
  0
LINE
  5
137
100
AcDbEntity
  8
0
  6
CONTINUOUS
 62
     7
100
AcDbLine
 10
367.672325
 20
-192.202856
 30
0.0
 11
371.172325
 21
-192.202856
 31
0.0
  0
LINE
  5
138
100
AcDbEntity
  8
0
  6
CONTINUOUS
 62
     7
100
AcDbLine
 10
354.672325
 20
-179.452856
 30
0.0
 11
367.672325
 21
-179.452856
 31
0.0
  0
LINE
  5
139
100
AcDbEntity
  8
0
  6
CONTINUOUS
 62
     7
100
AcDbLine
 10
354.672325
 20
-179.452856
 30
0.0
 11
354.672325
 21
-280.452856
 31
0.0
  0
LINE
  5
13A
100
AcDbEntity
  8
0
  6
CONTINUOUS
 62
     7
100
AcDbLine
 10
367.672325
 20
-179.452856
 30
0.0
 11
367.672325
 21
-182.952856
 31
0.0
  0
LINE
  5
13B
100
AcDbEntity
  8
0
  6
CONTINUOUS
 62
     7
100
AcDbLine
 10
394.672325
 20
-194.258839
 30
0.0
 11
394.672325
 21
-229.452856
 31
0.0
  0
LINE
  5
13C
100
AcDbEntity
  8
0
  6
CONTINUOUS
 62
     7
100
AcDbLine
 10
354.672325
 20
-280.452856
 30
0.0
 11
367.672325
 21
-280.452856
 31
0.0
  0
LINE
  5
13D
100
AcDbEntity
  8
0
  6
CONTINUOUS
 62
     7
100
AcDbLine
 10
346.581435
 20
-306.002073
 30
0.0
 11
393.830093
 21
-306.002073
 31
0.0
  0
LINE
  5
13E
100
AcDbEntity
  8
0
  6
CONTINUOUS
 62
     7
100
AcDbLine
 10
340.418021
 20
-299.402687
 30
0.0
 11
443.343185
 21
-299.402687
 31
0.0
  0
ENDSEC
  0
SECTION
  2
OBJECTS
  0
DICTIONARY
  5
19
100
AcDbDictionary
  3
ACAD_GROUP
350
1A
  3
ACAD_MLINESTYLE
350
1B
  0
DICTIONARY
  5
1A
102
{ACAD_REACTORS
330
19
102
}
100
AcDbDictionary
  0
DICTIONARY
  5
1B
102
{ACAD_REACTORS
330
19
102
}
100
AcDbDictionary
  3
STANDARD
350
1C
  0
MLINESTYLE
  5
1C
102
{ACAD_REACTORS
330
1B
102
}
100
AcDbMlineStyle
  2
Standard
 70
     0
  3

 62
     0
 51
90.0
 52
90.0
 71
     2
 49
0.5
 62
   256
  6
ByLayer
 49
-0.5
 62
   256
  6
ByLayer
  0
ENDSEC
  0
EOF
