  0
SECTION
  2
HEADER
  9
$ACADVER
  1
AC1014
  9
$ACADMAINTVER
 70
     0
  9
$DWGCODEPAGE
  3
ANSI_932
  9
$INSBASE
 10
0.0
 20
0.0
 30
0.0
  9
$EXTMIN
 10
302.035473
 20
-421.422887
 30
0.0
  9
$EXTMAX
 10
502.281699
 20
-206.780793
 30
0.0
  9
$LIMMIN
 10
302.035473
 20
-421.422887
  9
$LIMMAX
 10
502.281699
 20
-206.780793
  9
$ORTHOMODE
 70
     0
  9
$REGENMODE
 70
     1
  9
$FILLMODE
 70
     1
  9
$QTEXTMODE
 70
     0
  9
$MIRRTEXT
 70
     1
  9
$DRAGMODE
 70
     2
  9
$LTSCALE
 40
1.0
  9
$OSMODE
 70
     0
  9
$ATTMODE
 70
     1
  9
$TEXTSIZE
 40
3.2
  9
$TRACEWID
 40
0.05
  9
$TEXTSTYLE
  7
MX_NOTE_STANDARD
  9
$CLAYER
  8
0
  9
$CELTYPE
  6
CONTINUOUS
  9
$CECOLOR
 62
   256
  9
$CELTSCALE
 40
1.0
  9
$DELOBJ
 70
     1
  9
$DISPSILH
 70
     0
  9
$DIMSCALE
 40
1.0
  9
$DIMASZ
 40
2.5
  9
$DIMEXO
 40
0.0
  9
$DIMDLI
 40
3.75
  9
$DIMRND
 40
0.0
  9
$DIMDLE
 40
0.0
  9
$DIMEXE
 40
1.0
  9
$DIMTP
 40
0.0
  9
$DIMTM
 40
0.0
  9
$DIMTXT
 40
3.2
  9
$DIMCEN
 40
2.5
  9
$DIMTSZ
 40
0.0
  9
$DIMTOL
 70
     0
  9
$DIMLIM
 70
     0
  9
$DIMTIH
 70
     0
  9
$DIMTOH
 70
     0
  9
$DIMSE1
 70
     0
  9
$DIMSE2
 70
     0
  9
$DIMTAD
 70
     1
  9
$DIMZIN
 70
     8
  9
$DIMBLK
  1

  9
$DIMASO
 70
     1
  9
$DIMSHO
 70
     1
  9
$DIMPOST
  1

  9
$DIMAPOST
  1

  9
$DIMALT
 70
     0
  9
$DIMALTD
 70
     4
  9
$DIMALTF
 40
0.03937
  9
$DIMLFAC
 40
1.0
  9
$DIMTOFL
 70
     1
  9
$DIMTVP
 40
0.0
  9
$DIMTIX
 70
     0
  9
$DIMSOXD
 70
     0
  9
$DIMSAH
 70
     0
  9
$DIMBLK1
  1

  9
$DIMBLK2
  1

  9
$DIMSTYLE
  2
MXDIMSTYLE
  9
$DIMCLRD
 70
     0
  9
$DIMCLRE
 70
     0
  9
$DIMCLRT
 70
     0
  9
$DIMTFAC
 40
1.0
  9
$DIMGAP
 40
1.0
  9
$DIMJUST
 70
     0
  9
$DIMSD1
 70
     0
  9
$DIMSD2
 70
     0
  9
$DIMTOLJ
 70
     1
  9
$DIMTZIN
 70
     0
  9
$DIMALTZ
 70
     0
  9
$DIMALTTZ
 70
     0
  9
$DIMFIT
 70
     3
  9
$DIMUPT
 70
     1
  9
$DIMUNIT
 70
     2
  9
$DIMDEC
 70
     4
  9
$DIMTDEC
 70
     4
  9
$DIMALTU
 70
     2
  9
$DIMALTTD
 70
     4
  9
$DIMTXSTY
  7
MX_NOTE_STANDARD
  9
$DIMAUNIT
 70
     0
  9
$LUNITS
 70
     2
  9
$LUPREC
 70
     4
  9
$SKETCHINC
 40
0.1
  9
$FILLETRAD
 40
0.0
  9
$AUNITS
 70
     0
  9
$AUPREC
 70
     0
  9
$MENU
  1
acad
  9
$ELEVATION
 40
0.0
  9
$PELEVATION
 40
0.0
  9
$THICKNESS
 40
0.0
  9
$LIMCHECK
 70
     0
  9
$BLIPMODE
 70
     1
  9
$CHAMFERA
 40
0.0
  9
$CHAMFERB
 40
0.0
  9
$CHAMFERC
 40
0.0
  9
$CHAMFERD
 40
0.0
  9
$SKPOLY
 70
     0
  9
$TDCREATE
 40
2454063.685219907
  9
$TDUPDATE
 40
2454063.685219907
  9
$TDINDWG
 40
0.0000000000
  9
$TDUSRTIMER
 40
0.0000000000
  9
$USRTIMER
 70
     1
  9
$ANGBASE
 50
0.0
  9
$ANGDIR
 70
     0
  9
$PDMODE
 70
     0
  9
$PDSIZE
 40
0.0
  9
$PLINEWID
 40
0.0
  9
$COORDS
 70
     1
  9
$SPLFRAME
 70
     0
  9
$SPLINETYPE
 70
     6
  9
$SPLINESEGS
 70
     8
  9
$ATTDIA
 70
     0
  9
$ATTREQ
 70
     1
  9
$HANDLING
 70
     1
  9
$HANDSEED
  5
149
  9
$SURFTAB1
 70
     6
  9
$SURFTAB2
 70
     6
  9
$SURFTYPE
 70
     6
  9
$SURFU
 70
     6
  9
$SURFV
 70
     6
  9
$UCSNAME
  2

  9
$UCSORG
 10
0.0
 20
0.0
 30
0.0
  9
$UCSXDIR
 10
1.0
 20
0.0
 30
0.0
  9
$UCSYDIR
 10
0.0
 20
1.0
 30
0.0
  9
$PUCSNAME
  2

  9
$PUCSORG
 10
0.0
 20
0.0
 30
0.0
  9
$PUCSXDIR
 10
1.0
 20
0.0
 30
0.0
  9
$PUCSYDIR
 10
0.0
 20
1.0
 30
0.0
  9
$USERI1
 70
     0
  9
$USERI2
 70
     0
  9
$USERI3
 70
     0
  9
$USERI4
 70
     0
  9
$USERI5
 70
     0
  9
$USERR1
 40
0.0
  9
$USERR2
 40
0.0
  9
$USERR3
 40
0.0
  9
$USERR4
 40
0.0
  9
$USERR5
 40
0.0
  9
$WORLDVIEW
 70
     1
  9
$SHADEDGE
 70
     3
  9
$SHADEDIF
 70
    70
  9
$TILEMODE
 70
     1
  9
$MAXACTVP
 70
    16
  9
$PINSBASE
 10
0.0
 20
0.0
 30
0.0
  9
$PLIMCHECK
 70
     0
  9
$PEXTMIN
 10
1.000000E+20
 20
1.000000E+20
 30
1.000000E+20
  9
$PEXTMAX
 10
-1.000000E+20
 20
-1.000000E+20
 30
-1.000000E+20
  9
$PLIMMIN
 10
0.0
 20
0.0
  9
$PLIMMAX
 10
12.0
 20
9.0
  9
$UNITMODE
 70
     0
  9
$VISRETAIN
 70
     0
  9
$PLINEGEN
 70
     1
  9
$PSLTSCALE
 70
     0
  9
$TREEDEPTH
 70
  3020
  9
$PICKSTYLE
 70
     1
  9
$CMLSTYLE
  2
Standard
  9
$CMLJUST
 70
     0
  9
$CMLSCALE
 40
1.0
  9
$PROXYGRAPHICS
 70
     0
  9
$MEASUREMENT
 70
     1
  0
ENDSEC
  0
SECTION
  2
CLASSES
  0
CLASS
  1
LWPOLYLINE
  2
AcDbPolyline
  3
"AutoCAD"
 90
        0
280
     0
281
     1
  0
CLASS
  1
IMAGE
  2
AcDbRasterImage
  3
ISM
 90
      127
280
     0
281
     1
  0
CLASS
  1
OLE2FRAME
  2
AcDbOle2Frame
  3
""
 90
        0
280
     0
281
     1
  0
CLASS
  1
HATCH
  2
AcDbHatch
  3
"ACAD_SEDONA"
 90
        0
280
     0
281
     1
  0
CLASS
  1
DICTIONARYVAR
  2
AcDbDictionaryVar
  3
"AutoCAD"
 90
        0
280
     0
281
     0
  0
CLASS
  1
RASTERVARIABLES
  2
AcDbRasterVariables
  3
ISM
 90
        0
280
     0
281
     0
  0
CLASS
  1
IMAGEDEF
  2
AcDbRasterImageDef
  3
ISM
 90
        0
280
     0
281
     0
  0
CLASS
  1
IMAGEDEF_REACTOR
  2
AcDbRasterImageDefReactor
  3
ISM
 90
        1
280
     0
281
     0
  0
CLASS
  1
IDBUFFER
  2
AcDbIdBuffer
  3
"Acad"
 90
        0
280
     0
281
     0
  0
CLASS
  1
SPATIAL_FILTER
  2
AcDbSpatialFilter
  3
"Acad"
 90
        0
280
     0
281
     0
  0
CLASS
  1
XRECORD
  2
AcDbXrecord
  3
"<Built In>"
 90
        0
280
     0
281
     0
  0
CLASS
  1
SORTENTSTABLE
  2
AcDbSortentsTable
  3
"AutoCAD"
 90
        0
280
     0
281
     0
  0
CLASS
  1
LAYER_INDEX
  2
AcDbLayerIndex
  3
"Acad"
 90
        0
280
     0
281
     0
  0
CLASS
  1
SPATIAL_INDEX
  2
AcDbSpatialIndex
  3
"Acad"
 90
        0
280
     0
281
     0
  0
CLASS
  1
OBJECT_PTR
  2
CAseDLPNTableRecord
  3
"ASE-LPNTableRecord"
 90
        1
280
     0
281
     0
  0
CLASS
  1
LAYOUT
  2
AcDbLayout
  3
"AutoCAD 2000"
 90
        1
280
     0
281
     0
  0
CLASS
  1
PLOTSETTINGS
  2
AcDbPlotSettings
  3
"AutoCAD 2000"
 90
        1
280
     0
281
     0
  0
CLASS
  1
ACDBDICTIONARYWDFLT
  2
AcDbDictionaryWithDefault
  3
"AutoCAD 2000"
 90
        1
280
     0
281
     0
  0
CLASS
  1
ACDBPLACEHOLDER
  2
AcDbPlaceHolder
  3
"AutoCAD 2000"
 90
        1
280
     0
281
     0
  0
CLASS
  1
VBA_PROJECT
  2
AcDbVbaProject
  3
"acadvba"
 90
        1
280
     0
281
     0
  0
CLASS
  1
WIPEOUT
  2
AcDbWipeout
  3
WipeOut|AutoCAD Express Tool|expresstools@autodesk.com
 90
      127
280
     0
281
     1
  0
CLASS
  1
WIPEOUTVARIABLES
  2
AcDbWipeoutVariables
  3
WipeOut|AutoCAD Express Tool|expresstools@autodesk.com
 90
        0
280
     0
281
     0
  0
CLASS
  1
RTEXT
  2
RText
  3
RText|AutoCAD Express Tool|expresstools@autodesk.com
 90
        0
280
     0
281
     1
  0
CLASS
  1
ARCALIGNEDTEXT
  2
AcDbArcAlignedText
  3
ATEXT|AutoCAD Express Tool|expresstools@autodesk.com
 90
        0
280
     0
281
     1
  0
ENDSEC
  0
SECTION
  2
TABLES
  0
TABLE
  2
VPORT
  5
7
100
AcDbSymbolTable
 70
     1
  0
VPORT
  5
15
100
AcDbSymbolTableRecord
100
AcDbViewportTableRecord
  2
*ACTIVE
 70
     0
 10
0.0
 20
0.0
 11
1.0
 21
1.0
 12
402.158586
 22
-314.10184
 13
0.0
 23
0.0
 14
1.0
 24
1.0
 15
0.0
 25
0.0
 16
0.0
 26
0.0
 36
1.0
 17
0.0
 27
0.0
 37
0.0
 40
216.788515
 41
1.732051
 42
50.0
 43
0.0
 44
0.0
 50
0.0
 51
0.0
 71
     0
 72
   100
 73
     1
 74
     1
 75
     0
 76
     0
 77
     0
 78
     0
  0
ENDTAB
  0
TABLE
  2
LTYPE
  5
4
100
AcDbSymbolTable
 70
     5
  0
LTYPE
  5
11
100
AcDbSymbolTableRecord
100
AcDbLinetypeTableRecord
  2
BYBLOCK
 70
    64
  3

 72
    65
 73
     0
 40
0.0
  0
LTYPE
  5
12
100
AcDbSymbolTableRecord
100
AcDbLinetypeTableRecord
  2
BYLAYER
 70
    64
  3

 72
    65
 73
     0
 40
0.0
  0
LTYPE
  5
13
100
AcDbSymbolTableRecord
100
AcDbLinetypeTableRecord
  2
CONTINUOUS
 70
    64
  3
Solid line
 72
    65
 73
     0
 40
0.0
  0
LTYPE
  5
59
100
AcDbSymbolTableRecord
100
AcDbLinetypeTableRecord
  2
DASHED
 70
    64
  3
Dashed __ __ __ __ __ __ __ __ __ __ __ __ __ _
 72
    65
 73
     2
 40
19.05
 49
12.7
 74
     0
 49
-6.35
 74
     0
  0
LTYPE
  5
84
100
AcDbSymbolTableRecord
100
AcDbLinetypeTableRecord
  2
CENTER
 70
    64
  3
Center ____ _ ____ _ ____ _ ____ _ ____ _ ____
 72
    65
 73
     4
 40
50.8
 49
31.75
 74
     0
 49
-6.35
 74
     0
 49
6.35
 74
     0
 49
-6.35
 74
     0
  0
ENDTAB
  0
TABLE
  2
LAYER
  5
2
100
AcDbSymbolTable
 70
     2
  0
LAYER
  5
14
100
AcDbSymbolTableRecord
100
AcDbLayerTableRecord
  2
0
 70
     0
 62
     7
  6
CONTINUOUS
  0
LAYER
  5
1D
100
AcDbSymbolTableRecord
100
AcDbLayerTableRecord
  2
DEFPOINTS
 70
     0
 62
     7
  6
CONTINUOUS
  0
ENDTAB
  0
TABLE
  2
STYLE
  5
3
100
AcDbSymbolTable
 70
     1
  0
STYLE
  5
17
100
AcDbSymbolTableRecord
100
AcDbTextStyleTableRecord
  2
MX_NOTE_STANDARD
 70
     0
 40
0.0
 41
1.0
 50
0.0
 71
     0
 42
3.2
  3
txt.sh
  4
extfont
  0
ENDTAB
  0
TABLE
  2
VIEW
  5
5
100
AcDbSymbolTable
 70
     0
  0
ENDTAB
  0
TABLE
  2
UCS
  5
6
100
AcDbSymbolTable
 70
     0
  0
ENDTAB
  0
TABLE
  2
APPID
  5
8
100
AcDbSymbolTable
 70
     1
  0
APPID
  5
16
100
AcDbSymbolTableRecord
100
AcDbRegAppTableRecord
  2
ACAD
 70
     0
  0
ENDTAB
  0
TABLE
  2
DIMSTYLE
  5
9
100
AcDbSymbolTable
 70
     1
  0
DIMSTYLE
105
18
100
AcDbSymbolTableRecord
100
AcDbDimStyleTableRecord
  2
MXDIMSTYLE
 70
     0
  3

  4

  5

  6

  7

 40
1.0
 41
2.5
 42
0.0
 43
3.75
 44
1.0
 45
0.0
 46
0.0
 47
0.0
 48
0.0
 71
     0
 72
     0
 73
     0
 74
     0
 75
     0
 76
     0
 77
     1
 78
     8
140
3.2
141
2.5
142
0.0
143
0.03937
144
1.0
145
0.0
146
1.0
147
1.0
170
     0
171
     4
172
     1
173
     0
174
     0
175
     0
176
     0
177
     0
178
     0
270
     2
271
     4
272
     4
273
     2
274
     4
275
     0
280
     0
281
     0
282
     0
283
     1
284
     0
285
     0
286
     0
287
     3
288
     1
340
17
  0
ENDTAB
  0
TABLE
  2
BLOCK_RECORD
  5
1
100
AcDbSymbolTable
 70
     5
  0
BLOCK_RECORD
  5
A
100
AcDbSymbolTableRecord
100
AcDbBlockTableRecord
  2
*MODEL_SPACE
  0
BLOCK_RECORD
  5
B
100
AcDbSymbolTableRecord
100
AcDbBlockTableRecord
  2
*PAPER_SPACE
  0
BLOCK_RECORD
  5
1E
100
AcDbSymbolTableRecord
100
AcDbBlockTableRecord
  2
DC_GROUP_1
  0
BLOCK_RECORD
  5
1F
100
AcDbSymbolTableRecord
100
AcDbBlockTableRecord
  2
DC_GROUP_2
  0
BLOCK_RECORD
  5
20
100
AcDbSymbolTableRecord
100
AcDbBlockTableRecord
  2
DC_GROUP_3
  0
BLOCK_RECORD
  5
21
100
AcDbSymbolTableRecord
100
AcDbBlockTableRecord
  2
DC_GROUP_4
  0
BLOCK_RECORD
  5
22
100
AcDbSymbolTableRecord
100
AcDbBlockTableRecord
  2
*U4
  0
ENDTAB
  0
ENDSEC
  0
SECTION
  2
BLOCKS
  0
BLOCK
  5
D
100
AcDbEntity
  8
0
100
AcDbBlockBegin
  2
*MODEL_SPACE
 70
     0
 10
0.0
 20
0.0
 30
0.0
  3
*MODEL_SPACE
  1

  0
ENDBLK
  5
E
100
AcDbEntity
  8
0
100
AcDbBlockEnd
  0
BLOCK
  5
F
100
AcDbEntity
 67
     1
  8
0
100
AcDbBlockBegin
  2
*PAPER_SPACE
 70
     0
 10
0.0
 20
0.0
 30
0.0
  3
*PAPER_SPACE
  1

  0
ENDBLK
  5
10
100
AcDbEntity
 67
     1
  8
0
100
AcDbBlockEnd
  0
BLOCK
  5
23
100
AcDbEntity
  8
0
100
AcDbBlockBegin
  2
DC_GROUP_1
 70
     0
 10
0.0
 20
0.0
 30
0.0
  3
DC_GROUP_1
  1

  0
INSERT
  5
24
100
AcDbEntity
  8
0
  6
ByBlock
100
AcDbBlockReference
  2
*U4
 10
391.035473
 20
-250.69605
 30
0.0
 41
7.764572
 42
7.764572
 43
7.764572
 50
240.0
  0
MTEXT
  5
25
100
AcDbEntity
  8
0
  6
CONTINUOUS
 62
     7
100
AcDbMText
 10
416.72448
 20
-210.496452
 30
0.0
 40
3.2
 41
0.0
 71
     2
 72
     1
  1
\W0.754;\A1;基準点
  7
MX_NOTE_STANDARD
  0
LINE
  5
26
100
AcDbEntity
  8
0
  6
CONTINUOUS
 62
     2
100
AcDbLine
 10
411.935321
 20
-214.496452
 30
0.0
 11
421.536421
 21
-214.496452
 31
0.0
  0
LINE
  5
27
100
AcDbEntity
  8
0
  6
CONTINUOUS
 62
     2
100
AcDbLine
 10
391.035473
 20
-250.69605
 30
0.0
 11
411.935321
 21
-214.496452
 31
0.0
  0
ENDBLK
  5
28
100
AcDbEntity
  8
0
100
AcDbBlockEnd
  0
BLOCK
  5
29
100
AcDbEntity
  8
0
100
AcDbBlockBegin
  2
DC_GROUP_2
 70
     0
 10
0.0
 20
0.0
 30
0.0
  3
DC_GROUP_2
  1

  0
INSERT
  5
2A
100
AcDbEntity
  8
0
  6
ByBlock
100
AcDbBlockReference
  2
*U4
 10
387.910473
 20
-228.363518
 30
0.0
 41
7.764572
 42
7.764572
 43
7.764572
 50
300.0
  0
MTEXT
  5
2B
100
AcDbEntity
  8
0
  6
CONTINUOUS
 62
     7
100
AcDbMText
 10
362.612443
 20
-207.84746
 30
0.0
 40
3.2
 41
0.0
 71
     2
 72
     1
  1
\W0.813;\A1;\U+2205４５のみヌスミ無し
  7
MX_NOTE_STANDARD
  0
LINE
  5
2C
100
AcDbEntity
  8
0
  6
CONTINUOUS
 62
     2
100
AcDbLine
 10
378.374923
 20
-211.84746
 30
0.0
 11
346.373823
 21
-211.84746
 31
0.0
  0
LINE
  5
2D
100
AcDbEntity
  8
0
  6
CONTINUOUS
 62
     2
100
AcDbLine
 10
387.910473
 20
-228.363518
 30
0.0
 11
378.374923
 21
-211.84746
 31
0.0
  0
ENDBLK
  5
2E
100
AcDbEntity
  8
0
100
AcDbBlockEnd
  0
BLOCK
  5
2F
100
AcDbEntity
  8
0
100
AcDbBlockBegin
  2
DC_GROUP_3
 70
     0
 10
0.0
 20
0.0
 30
0.0
  3
DC_GROUP_3
  1

  0
INSERT
  5
30
100
AcDbEntity
  8
0
  6
ByBlock
100
AcDbBlockReference
  2
*U4
 10
431.26573
 20
-383.957887
 30
0.0
 41
7.764572
 42
7.764572
 43
7.764572
 50
240.0
  0
MTEXT
  5
31
100
AcDbEntity
  8
0
  6
CONTINUOUS
 62
     7
100
AcDbMText
 10
465.302715
 20
-370.451294
 30
0.0
 40
3.2
 41
0.0
 71
     2
 72
     1
  1
\W0.819;\A1;（上図を反転させてここに張り付け）
  7
MX_NOTE_STANDARD
  0
MTEXT
  5
32
100
AcDbEntity
  8
0
  6
CONTINUOUS
 62
     7
100
AcDbMText
 10
449.302715
 20
-365.651294
 30
0.0
 40
3.2
 41
0.0
 71
     2
 72
     1
  1
\W0.799;\A1;形式Ａの基準点
  7
MX_NOTE_STANDARD
  0
LINE
  5
33
100
AcDbEntity
  8
0
  6
CONTINUOUS
 62
     2
100
AcDbLine
 10
436.754364
 20
-374.451294
 30
0.0
 11
493.416715
 21
-374.451294
 31
0.0
  0
LINE
  5
34
100
AcDbEntity
  8
0
  6
CONTINUOUS
 62
     2
100
AcDbLine
 10
431.26573
 20
-383.957887
 30
0.0
 11
436.754364
 21
-374.451294
 31
0.0
  0
ENDBLK
  5
35
100
AcDbEntity
  8
0
100
AcDbBlockEnd
  0
BLOCK
  5
36
100
AcDbEntity
  8
0
100
AcDbBlockBegin
  2
DC_GROUP_4
 70
     0
 10
0.0
 20
0.0
 30
0.0
  3
DC_GROUP_4
  1

  0
INSERT
  5
37
100
AcDbEntity
  8
0
  6
ByBlock
100
AcDbBlockReference
  2
*U4
 10
411.26573
 20
-383.957887
 30
0.0
 41
7.764572
 42
7.764572
 43
7.764572
 50
300.0
  0
MTEXT
  5
38
100
AcDbEntity
  8
0
  6
CONTINUOUS
 62
     7
100
AcDbMText
 10
380.862975
 20
-371.458779
 30
0.0
 40
3.2
 41
0.0
 71
     2
 72
     1
  1
\W0.818;\A1;（上図をそのままここに張り付け）
  7
MX_NOTE_STANDARD
  0
MTEXT
  5
39
100
AcDbEntity
  8
0
  6
CONTINUOUS
 62
     7
100
AcDbMText
 10
366.462975
 20
-366.658779
 30
0.0
 40
3.2
 41
0.0
 71
     2
 72
     1
  1
\W0.799;\A1;形式Ｂの基準点
  7
MX_NOTE_STANDARD
  0
LINE
  5
3A
100
AcDbEntity
  8
0
  6
CONTINUOUS
 62
     2
100
AcDbLine
 10
406.358768
 20
-375.45878
 30
0.0
 11
354.700668
 21
-375.45878
 31
0.0
  0
LINE
  5
3B
100
AcDbEntity
  8
0
  6
CONTINUOUS
 62
     2
100
AcDbLine
 10
411.26573
 20
-383.957887
 30
0.0
 11
406.358768
 21
-375.45878
 31
0.0
  0
ENDBLK
  5
3C
100
AcDbEntity
  8
0
100
AcDbBlockEnd
  0
BLOCK
  5
3D
100
AcDbEntity
  8
0
100
AcDbBlockBegin
  2
*U4
 70
     1
 10
0.0
 20
0.0
 30
0.0
  3
*U4
  1

  0
LINE
  5
3E
100
AcDbEntity
  8
0
  6
CONTINUOUS
 62
     7
100
AcDbLine
 10
-1.0
 20
0.267949
 30
0.0
 11
0.0
 21
0.0
 31
0.0
  0
LINE
  5
3F
100
AcDbEntity
  8
0
  6
CONTINUOUS
 62
     7
100
AcDbLine
 10
0.0
 20
0.0
 30
0.0
 11
-1.0
 21
-0.267949
 31
0.0
  0
LINE
  5
40
100
AcDbEntity
  8
0
  6
CONTINUOUS
 62
     7
100
AcDbLine
 10
0.0
 20
0.0
 30
0.0
 11
-1.0
 21
0.0
 31
0.0
  0
ENDBLK
  5
41
100
AcDbEntity
  8
0
100
AcDbBlockEnd
  0
ENDSEC
  0
SECTION
  2
ENTITIES
  0
VIEWPORT
  5
148
100
AcDbEntity
 67
     1
  8
0
 62
     7
100
AcDbViewport
 10
402.158586
 20
-18.7325
 30
0.0
 40
600.738677
 41
2416.142321
 68
     1
 69
     1
1001
ACAD
1000
MVIEW
1002
{
1070
    16
1010
0.0
1020
0.0
1030
0.0
1010
0.0
1020
0.0
1030
1.0
1040
0.0
1040
2416.142321
1040
402.158586
1040
-18.7325
1040
50.0
1040
0.0
1040
0.0
1070
     0
1070
   100
1070
     0
1070
     1
1070
     0
1070
     0
1070
     0
1070
     0
1040
0.0
1040
0.0
1040
0.0
1040
0.5
1040
0.5
1040
0.0
1040
0.0
1070
     0
1002
{
1002
}
1002
}
  0
INSERT
  5
42
100
AcDbEntity
  8
0
  6
ByBlock
100
AcDbBlockReference
  2
DC_GROUP_4
 10
0.0
 20
0.0
 30
0.0
  0
INSERT
  5
43
100
AcDbEntity
  8
0
  6
ByBlock
100
AcDbBlockReference
  2
DC_GROUP_3
 10
0.0
 20
0.0
 30
0.0
  0
INSERT
  5
44
100
AcDbEntity
  8
0
  6
ByBlock
100
AcDbBlockReference
  2
DC_GROUP_2
 10
0.0
 20
0.0
 30
0.0
  0
INSERT
  5
45
100
AcDbEntity
  8
0
  6
ByBlock
100
AcDbBlockReference
  2
DC_GROUP_1
 10
0.0
 20
0.0
 30
0.0
  0
MTEXT
  5
46
100
AcDbEntity
  8
0
  6
CONTINUOUS
 62
     7
100
AcDbMText
 10
371.961021
 20
-333.053297
 30
0.0
 40
3.2
 41
0.0
 71
     2
 72
     1
  1
\W0.821;\A1;５．張り付け方法をの例を下図に示します。
  7
MX_NOTE_STANDARD
  0
MTEXT
  5
47
100
AcDbEntity
  8
0
  6
CONTINUOUS
 62
     7
100
AcDbMText
 10
483.512404
 20
-275.713267
 30
0.0
 40
2.5
 41
0.0
 71
     2
 72
     1
  1
\W0.819;\A1;\U+2205６５（材質Ｓ４５Ｃの場合）
  7
MX_NOTE_STANDARD
  0
MTEXT
  5
48
100
AcDbEntity
  8
0
  6
CONTINUOUS
 62
     7
100
AcDbMText
 10
448.188013
 20
-275.363267
 30
0.0
 40
3.2
 41
0.0
 71
     2
 72
     1
  1
\W0.799;\A1;最低必要ハブ径
  7
MX_NOTE_STANDARD
  0
MTEXT
  5
49
100
AcDbEntity
  8
0
  6
CONTINUOUS
 62
     7
100
AcDbMText
 10
483.612373
 20
-267.863267
 30
0.0
 40
3.2
 41
0.0
 71
     2
 72
     1
  1
\W0.816;\A1;８．３Ｎ・m
  7
MX_NOTE_STANDARD
  0
MTEXT
  5
4A
100
AcDbEntity
  8
0
  6
CONTINUOUS
 62
     7
100
AcDbMText
 10
448.188013
 20
-267.863267
 30
0.0
 40
3.2
 41
0.0
 71
     2
 72
     1
  1
\W0.807;\A1;ボルト締付けトルク
  7
MX_NOTE_STANDARD
  0
MTEXT
  5
4B
100
AcDbEntity
  8
0
  6
CONTINUOUS
 62
     7
100
AcDbMText
 10
483.612373
 20
-260.363267
 30
0.0
 40
3.2
 41
0.0
 71
     2
 72
     1
  1
\W0.807;\A1;Ｍ５×２２（６本）
  7
MX_NOTE_STANDARD
  0
MTEXT
  5
4C
100
AcDbEntity
  8
0
  6
CONTINUOUS
 62
     7
100
AcDbMText
 10
448.188013
 20
-260.363267
 30
0.0
 40
3.2
 41
0.0
 71
     2
 72
     1
  1
\W0.786;\A1;使用ボルト
  7
MX_NOTE_STANDARD
  0
MTEXT
  5
4D
100
AcDbEntity
  8
0
  6
CONTINUOUS
 62
     7
100
AcDbMText
 10
483.512404
 20
-255.088267
 30
0.0
 40
2.5
 41
0.0
 71
     2
 72
     1
  1
\W0.815;\A1;弊社カタログ参照願います。
  7
MX_NOTE_STANDARD
  0
MTEXT
  5
4E
100
AcDbEntity
  8
0
  6
CONTINUOUS
 62
     7
100
AcDbMText
 10
479.762405
 20
-251.338267
 30
0.0
 40
2.5
 41
0.0
 71
     2
 72
     1
  1
\W0.810;\A1;５３０～６２８Ｎ・ｍ
  7
MX_NOTE_STANDARD
  0
MTEXT
  5
4F
100
AcDbEntity
  8
0
  6
CONTINUOUS
 62
     7
100
AcDbMText
 10
448.188013
 20
-252.863267
 30
0.0
 40
3.2
 41
0.0
 71
     2
 72
     1
  1
\W0.807;\A1;最大許容伝達トルク
  7
MX_NOTE_STANDARD
  0
MTEXT
  5
50
100
AcDbEntity
  8
0
  6
CONTINUOUS
 62
     7
100
AcDbMText
 10
483.612373
 20
-245.363267
 30
0.0
 40
3.2
 41
0.0
 71
     2
 72
     1
  1
\W0.800;\A1;\U+2205３８～４５
  7
MX_NOTE_STANDARD
  0
MTEXT
  5
51
100
AcDbEntity
  8
0
  6
CONTINUOUS
 62
     7
100
AcDbMText
 10
448.188013
 20
-245.363267
 30
0.0
 40
3.2
 41
0.0
 71
     2
 72
     1
  1
\W0.774;\A1;適用穴径
  7
MX_NOTE_STANDARD
  0
MTEXT
  5
52
100
AcDbEntity
  8
0
  6
CONTINUOUS
 62
     7
100
AcDbMText
 10
467.314339
 20
-237.863267
 30
0.0
 40
3.2
 41
0.0
 71
     2
 72
     1
  1
\W0.821;\A1;ロックスプロケットＳ５６ＸＸスリーブ諸元
  7
MX_NOTE_STANDARD
  0
MTEXT
  5
53
100
AcDbEntity
  8
0
  6
CONTINUOUS
 62
     7
100
AcDbMText
 10
408.76102
 20
-326.053297
 30
0.0
 40
3.2
 41
0.0
 71
     2
 72
     1
  1
\W0.829;\A1;４．ＲＳ標準ロックスプロケットＳタイプの、Ｓ５６ＸＸのガイド穴径は全て\U+2205４５．４です。
  7
MX_NOTE_STANDARD
  0
MTEXT
  5
54
100
AcDbEntity
  8
0
  6
CONTINUOUS
 62
     7
100
AcDbMText
 10
416.76102
 20
-319.053297
 30
0.0
 40
3.2
 41
0.0
 71
     2
 72
     1
  1
\W0.828;\A1;３．基準点をスプロケット端面に合わせて、スプロケットのＣＡＤデータに本データを張り付けて下さい。
  7
MX_NOTE_STANDARD
  0
MTEXT
  5
55
100
AcDbEntity
  8
0
  6
CONTINUOUS
 62
     7
100
AcDbMText
 10
405.56102
 20
-312.053297
 30
0.0
 40
3.2
 41
0.0
 71
     2
 72
     1
  1
\W0.828;\A1;２．選定後、弊社ホームページよりスプロケットのＣＡＤデータをダウンロード願います。
  7
MX_NOTE_STANDARD
  0
MTEXT
  5
56
100
AcDbEntity
  8
0
  6
CONTINUOUS
 62
     7
100
AcDbMText
 10
357.561021
 20
-306.853297
 30
0.0
 40
3.2
 41
0.0
 71
     2
 72
     1
  1
\W0.893;\A1;  選定してください。
  7
MX_NOTE_STANDARD
  0
MTEXT
  5
57
100
AcDbEntity
  8
0
  6
CONTINUOUS
 62
     7
100
AcDbMText
 10
402.36102
 20
-302.053297
 30
0.0
 40
3.2
 41
0.0
 71
     2
 72
     1
  1
\W0.827;\A1;１．必ず弊社カタログをご確認の上、Ｓ５６ＸＸスリーブが適用可能なスプロケットを
  7
MX_NOTE_STANDARD
  0
MTEXT
  5
58
100
AcDbEntity
  8
0
  6
CONTINUOUS
 62
     7
100
AcDbMText
 10
391.16102
 20
-295.053297
 30
0.0
 40
3.2
 41
0.0
 71
     2
 72
     1
  1
\W0.853;\A1;※ロックスプロケット Ｓ５６ＸＸスリーブ ＣＡＤデータ使用方法※
  7
MX_NOTE_STANDARD
  0
LINE
  5
5A
100
AcDbEntity
  8
0
  6
DASHED
 62
     2
100
AcDbLine
 10
376.035473
 20
-221.541349
 30
0.0
 11
376.368807
 21
-220.963999
 31
0.0
  0
LINE
  5
5B
100
AcDbEntity
  8
0
  6
DASHED
 62
     2
100
AcDbLine
 10
376.368807
 20
-222.69605
 30
0.0
 11
376.035473
 21
-221.541349
 31
0.0
  0
LINE
  5
5C
100
AcDbEntity
  8
0
  6
DASHED
 62
     2
100
AcDbLine
 10
376.035473
 20
-223.850751
 30
0.0
 11
376.368807
 21
-222.69605
 31
0.0
  0
LINE
  5
5D
100
AcDbEntity
  8
0
  6
DASHED
 62
     2
100
AcDbLine
 10
376.368807
 20
-224.428101
 30
0.0
 11
376.035473
 21
-223.850751
 31
0.0
  0
LINE
  5
5E
100
AcDbEntity
  8
0
  6
DASHED
 62
     2
100
AcDbLine
 10
376.035473
 20
-225.005451
 30
0.0
 11
377.368807
 21
-222.69605
 31
0.0
  0
LINE
  5
5F
100
AcDbEntity
  8
0
  6
DASHED
 62
     2
100
AcDbLine
 10
376.035473
 20
-220.386649
 30
0.0
 11
377.368807
 21
-222.69605
 31
0.0
  0
LINE
  5
60
100
AcDbEntity
  8
0
  6
DASHED
 62
     2
100
AcDbLine
 10
373.535473
 20
-220.386649
 30
0.0
 11
376.035473
 21
-220.386649
 31
0.0
  0
LINE
  5
61
100
AcDbEntity
  8
0
  6
DASHED
 62
     2
100
AcDbLine
 10
373.535473
 20
-221.541349
 30
0.0
 11
376.035473
 21
-221.541349
 31
0.0
  0
LINE
  5
62
100
AcDbEntity
  8
0
  6
DASHED
 62
     2
100
AcDbLine
 10
373.535473
 20
-223.850751
 30
0.0
 11
376.035473
 21
-223.850751
 31
0.0
  0
LINE
  5
63
100
AcDbEntity
  8
0
  6
DASHED
 62
     2
100
AcDbLine
 10
373.535473
 20
-225.005451
 30
0.0
 11
376.035473
 21
-225.005451
 31
0.0
  0
LINE
  5
64
100
AcDbEntity
  8
0
  6
DASHED
 62
     2
100
AcDbLine
 10
376.035473
 20
-279.850751
 30
0.0
 11
376.368807
 21
-280.428101
 31
0.0
  0
LINE
  5
65
100
AcDbEntity
  8
0
  6
DASHED
 62
     2
100
AcDbLine
 10
376.368807
 20
-278.69605
 30
0.0
 11
376.035473
 21
-279.850751
 31
0.0
  0
LINE
  5
66
100
AcDbEntity
  8
0
  6
DASHED
 62
     2
100
AcDbLine
 10
376.035473
 20
-277.541349
 30
0.0
 11
376.368807
 21
-278.69605
 31
0.0
  0
LINE
  5
67
100
AcDbEntity
  8
0
  6
DASHED
 62
     2
100
AcDbLine
 10
376.368807
 20
-276.963999
 30
0.0
 11
376.035473
 21
-277.541349
 31
0.0
  0
LINE
  5
68
100
AcDbEntity
  8
0
  6
DASHED
 62
     2
100
AcDbLine
 10
376.035473
 20
-276.386649
 30
0.0
 11
377.368807
 21
-278.69605
 31
0.0
  0
LINE
  5
69
100
AcDbEntity
  8
0
  6
DASHED
 62
     2
100
AcDbLine
 10
376.035473
 20
-281.005451
 30
0.0
 11
377.368807
 21
-278.69605
 31
0.0
  0
LINE
  5
6A
100
AcDbEntity
  8
0
  6
DASHED
 62
     2
100
AcDbLine
 10
373.535473
 20
-281.005451
 30
0.0
 11
376.035473
 21
-281.005451
 31
0.0
  0
LINE
  5
6B
100
AcDbEntity
  8
0
  6
DASHED
 62
     2
100
AcDbLine
 10
373.535473
 20
-279.850751
 30
0.0
 11
376.035473
 21
-279.850751
 31
0.0
  0
LINE
  5
6C
100
AcDbEntity
  8
0
  6
DASHED
 62
     2
100
AcDbLine
 10
373.535473
 20
-277.541349
 30
0.0
 11
376.035473
 21
-277.541349
 31
0.0
  0
LINE
  5
6D
100
AcDbEntity
  8
0
  6
DASHED
 62
     2
100
AcDbLine
 10
373.535473
 20
-276.386649
 30
0.0
 11
376.035473
 21
-276.386649
 31
0.0
  0
CIRCLE
  5
6E
100
AcDbEntity
  8
0
  6
CONTINUOUS
 62
     4
100
AcDbCircle
 10
327.382997
 20
-224.066468
 30
0.0
 40
2.5
  0
CIRCLE
  5
6F
100
AcDbEntity
  8
0
  6
CONTINUOUS
 62
     4
100
AcDbCircle
 10
313.382997
 20
-234.238063
 30
0.0
 40
2.5
  0
CIRCLE
  5
70
100
AcDbEntity
  8
0
  6
CONTINUOUS
 62
     4
100
AcDbCircle
 10
308.035473
 20
-250.69605
 30
0.0
 40
2.5
  0
CIRCLE
  5
71
100
AcDbEntity
  8
0
  6
CONTINUOUS
 62
     4
100
AcDbCircle
 10
313.382997
 20
-267.154037
 30
0.0
 40
2.5
  0
CIRCLE
  5
72
100
AcDbEntity
  8
0
  6
CONTINUOUS
 62
     4
100
AcDbCircle
 10
327.382997
 20
-277.325632
 30
0.0
 40
2.5
  0
CIRCLE
  5
73
100
AcDbEntity
  8
0
  6
CONTINUOUS
 62
     4
100
AcDbCircle
 10
344.687949
 20
-277.325632
 30
0.0
 40
2.5
  0
CIRCLE
  5
74
100
AcDbEntity
  8
0
  6
CONTINUOUS
 62
     4
100
AcDbCircle
 10
358.687949
 20
-267.154037
 30
0.0
 40
2.5
  0
CIRCLE
  5
75
100
AcDbEntity
  8
0
  6
CONTINUOUS
 62
     4
100
AcDbCircle
 10
364.035473
 20
-250.69605
 30
0.0
 40
2.5
  0
CIRCLE
  5
76
100
AcDbEntity
  8
0
  6
CONTINUOUS
 62
     4
100
AcDbCircle
 10
358.687949
 20
-234.238063
 30
0.0
 40
2.5
  0
CIRCLE
  5
77
100
AcDbEntity
  8
0
  6
CONTINUOUS
 62
     4
100
AcDbCircle
 10
344.687949
 20
-224.066468
 30
0.0
 40
2.5
  0
LINE
  5
78
100
AcDbEntity
  8
0
  6
CONTINUOUS
 62
     4
100
AcDbLine
 10
400.135473
 20
-281.19605
 30
0.0
 11
403.035473
 21
-281.19605
 31
0.0
  0
LINE
  5
79
100
AcDbEntity
  8
0
  6
CONTINUOUS
 62
     4
100
AcDbLine
 10
400.135473
 20
-276.19605
 30
0.0
 11
403.035473
 21
-276.19605
 31
0.0
  0
LINE
  5
7A
100
AcDbEntity
  8
0
  6
CONTINUOUS
 62
     4
100
AcDbLine
 10
400.135473
 20
-225.19605
 30
0.0
 11
403.035473
 21
-225.19605
 31
0.0
  0
LINE
  5
7B
100
AcDbEntity
  8
0
  6
CONTINUOUS
 62
     4
100
AcDbLine
 10
400.135473
 20
-220.19605
 30
0.0
 11
403.035473
 21
-220.19605
 31
0.0
  0
LINE
  5
7C
100
AcDbEntity
  8
0
  6
CONTINUOUS
 62
     4
100
AcDbLine
 10
383.717653
 20
-220.19605
 30
0.0
 11
384.410473
 21
-220.59605
 31
0.0
  0
LINE
  5
7D
100
AcDbEntity
  8
0
  6
CONTINUOUS
 62
     4
100
AcDbLine
 10
383.717653
 20
-225.19605
 30
0.0
 11
384.410473
 21
-224.79605
 31
0.0
  0
LINE
  5
7E
100
AcDbEntity
  8
0
  6
CONTINUOUS
 62
     4
100
AcDbLine
 10
384.410473
 20
-224.79605
 30
0.0
 11
400.535473
 21
-224.79605
 31
0.0
  0
LINE
  5
7F
100
AcDbEntity
  8
0
  6
CONTINUOUS
 62
     4
100
AcDbLine
 10
384.410473
 20
-220.59605
 30
0.0
 11
400.535473
 21
-220.59605
 31
0.0
  0
LINE
  5
80
100
AcDbEntity
  8
0
  6
CONTINUOUS
 62
     4
100
AcDbLine
 10
383.717653
 20
-281.19605
 30
0.0
 11
384.410473
 21
-280.79605
 31
0.0
  0
LINE
  5
81
100
AcDbEntity
  8
0
  6
CONTINUOUS
 62
     4
100
AcDbLine
 10
383.717653
 20
-276.19605
 30
0.0
 11
384.410473
 21
-276.59605
 31
0.0
  0
LINE
  5
82
100
AcDbEntity
  8
0
  6
CONTINUOUS
 62
     4
100
AcDbLine
 10
384.410473
 20
-276.59605
 30
0.0
 11
400.535473
 21
-276.59605
 31
0.0
  0
LINE
  5
83
100
AcDbEntity
  8
0
  6
CONTINUOUS
 62
     4
100
AcDbLine
 10
384.410473
 20
-280.79605
 30
0.0
 11
400.535473
 21
-280.79605
 31
0.0
  0
CIRCLE
  5
85
100
AcDbEntity
  8
0
  6
CENTER
 62
     7
100
AcDbCircle
 10
336.035473
 20
-250.69605
 30
0.0
 40
28.0
  0
LINE
  5
86
100
AcDbEntity
  8
0
  6
CENTER
 62
     7
100
AcDbLine
 10
409.301201
 20
-383.957887
 30
0.0
 11
433.76573
 21
-383.957887
 31
0.0
  0
LINE
  5
87
100
AcDbEntity
  8
0
  6
CENTER
 62
     7
100
AcDbLine
 10
413.46573
 20
-346.492887
 30
0.0
 11
413.46573
 21
-354.492887
 31
0.0
  0
LINE
  5
88
100
AcDbEntity
  8
0
  6
CENTER
 62
     7
100
AcDbLine
 10
409.46573
 20
-350.492887
 30
0.0
 11
417.46573
 21
-350.492887
 31
0.0
  0
LINE
  5
89
100
AcDbEntity
  8
0
  6
CENTER
 62
     7
100
AcDbLine
 10
413.46573
 20
-421.422887
 30
0.0
 11
413.46573
 21
-413.422887
 31
0.0
  0
LINE
  5
8A
100
AcDbEntity
  8
0
  6
CENTER
 62
     7
100
AcDbLine
 10
409.46573
 20
-417.422887
 30
0.0
 11
417.46573
 21
-417.422887
 31
0.0
  0
LINE
  5
8B
100
AcDbEntity
  8
0
  6
CENTER
 62
     7
100
AcDbLine
 10
368.371395
 20
-261.202628
 30
0.0
 11
303.699552
 21
-240.189472
 31
0.0
  0
LINE
  5
8C
100
AcDbEntity
  8
0
  6
CENTER
 62
     7
100
AcDbLine
 10
372.750605
 20
-222.69605
 30
0.0
 11
407.949137
 21
-222.69605
 31
0.0
  0
LINE
  5
8D
100
AcDbEntity
  8
0
  6
CENTER
 62
     7
100
AcDbLine
 10
346.542051
 20
-283.031972
 30
0.0
 11
325.528895
 21
-218.360128
 31
0.0
  0
LINE
  5
8E
100
AcDbEntity
  8
0
  6
CENTER
 62
     7
100
AcDbLine
 10
356.020172
 20
-278.202628
 30
0.0
 11
316.050775
 21
-223.189472
 31
0.0
  0
LINE
  5
8F
100
AcDbEntity
  8
0
  6
CENTER
 62
     7
100
AcDbLine
 10
363.542051
 20
-270.680749
 30
0.0
 11
308.528895
 21
-230.711351
 31
0.0
  0
LINE
  5
90
100
AcDbEntity
  8
0
  6
CENTER
 62
     7
100
AcDbLine
 10
368.371395
 20
-240.189472
 30
0.0
 11
303.699552
 21
-261.202628
 31
0.0
  0
LINE
  5
91
100
AcDbEntity
  8
0
  6
CENTER
 62
     7
100
AcDbLine
 10
363.542051
 20
-230.711351
 30
0.0
 11
308.528895
 21
-270.680749
 31
0.0
  0
LINE
  5
92
100
AcDbEntity
  8
0
  6
CENTER
 62
     7
100
AcDbLine
 10
356.020172
 20
-223.189472
 30
0.0
 11
316.050775
 21
-278.202628
 31
0.0
  0
LINE
  5
93
100
AcDbEntity
  8
0
  6
CENTER
 62
     7
100
AcDbLine
 10
346.542051
 20
-218.360128
 30
0.0
 11
325.528895
 21
-283.031972
 31
0.0
  0
LINE
  5
94
100
AcDbEntity
  8
0
  6
CENTER
 62
     7
100
AcDbLine
 10
370.035473
 20
-250.69605
 30
0.0
 11
302.035473
 21
-250.69605
 31
0.0
  0
LINE
  5
95
100
AcDbEntity
  8
0
  6
CENTER
 62
     7
100
AcDbLine
 10
336.035473
 20
-216.69605
 30
0.0
 11
336.035473
 21
-284.69605
 31
0.0
  0
LINE
  5
96
100
AcDbEntity
  8
0
  6
CENTER
 62
     7
100
AcDbLine
 10
372.750605
 20
-278.69605
 30
0.0
 11
408.136443
 21
-278.69605
 31
0.0
  0
LINE
  5
97
100
AcDbEntity
  8
0
  6
CENTER
 62
     7
100
AcDbLine
 10
376.868617
 20
-250.69605
 30
0.0
 11
418.999797
 21
-250.69605
 31
0.0
  0
LINE
  5
98
100
AcDbEntity
  8
0
  6
CONTINUOUS
 62
     4
100
AcDbLine
 10
502.281699
 20
-235.713267
 30
0.0
 11
502.281699
 21
-280.713267
 31
0.0
  0
LINE
  5
99
100
AcDbEntity
  8
0
  6
CONTINUOUS
 62
     4
100
AcDbLine
 10
464.029047
 20
-243.213267
 30
0.0
 11
464.029047
 21
-280.713267
 31
0.0
  0
LINE
  5
9A
100
AcDbEntity
  8
0
  6
CONTINUOUS
 62
     4
100
AcDbLine
 10
431.432979
 20
-235.713267
 30
0.0
 11
502.281699
 21
-235.713267
 31
0.0
  0
LINE
  5
9B
100
AcDbEntity
  8
0
  6
CONTINUOUS
 62
     4
100
AcDbLine
 10
431.432979
 20
-243.213267
 30
0.0
 11
502.281699
 21
-243.213267
 31
0.0
  0
LINE
  5
9C
100
AcDbEntity
  8
0
  6
CONTINUOUS
 62
     4
100
AcDbLine
 10
431.432979
 20
-250.713267
 30
0.0
 11
502.281699
 21
-250.713267
 31
0.0
  0
LINE
  5
9D
100
AcDbEntity
  8
0
  6
CONTINUOUS
 62
     4
100
AcDbLine
 10
431.432979
 20
-258.213267
 30
0.0
 11
502.281699
 21
-258.213267
 31
0.0
  0
LINE
  5
9E
100
AcDbEntity
  8
0
  6
CONTINUOUS
 62
     4
100
AcDbLine
 10
431.432979
 20
-235.713267
 30
0.0
 11
431.432979
 21
-280.713267
 31
0.0
  0
LINE
  5
9F
100
AcDbEntity
  8
0
  6
CONTINUOUS
 62
     4
100
AcDbLine
 10
431.432979
 20
-265.713267
 30
0.0
 11
502.281699
 21
-265.713267
 31
0.0
  0
LINE
  5
A0
100
AcDbEntity
  8
0
  6
CONTINUOUS
 62
     4
100
AcDbLine
 10
431.432979
 20
-280.713267
 30
0.0
 11
502.281699
 21
-280.713267
 31
0.0
  0
LINE
  5
A1
100
AcDbEntity
  8
0
  6
CONTINUOUS
 62
     4
100
AcDbLine
 10
431.432979
 20
-273.213267
 30
0.0
 11
502.281699
 21
-273.213267
 31
0.0
  0
SPLINE
  5
A2
100
AcDbEntity
  8
0
  6
CONTINUOUS
 62
     7
100
AcDbSpline
210
0.0
220
0.0
230
1.0
 70
     0
 71
     3
 72
     0
 73
     0
 74
    75
 44
0.000001
 12
0.9917667565223545
 22
0.1280574115665661
 32
0.0
 13
-0.9778550411065097
 23
0.2092833452107127
 33
0.0
 11
391.0354731847342
 21
-216.18163941092749
 31
0.0
 11
392.53730605886545
 21
-215.99216092960037
 31
0.0
 11
394.04021291010753
 21
-215.8114215800382
 31
0.0
 11
395.5424213954384
 21
-215.63410650855226
 31
0.0
 11
397.04347826477124
 21
-215.45899676883619
 31
0.0
 11
398.54717537896835
 21
-215.29805488255579
 31
0.0
 11
400.05815690024667
 21
-215.16588984708557
 31
0.0
 11
401.57904653444859
 21
-215.07948058129949
 31
0.0
 11
403.10281599921802
 21
-215.06712743354191
 31
0.0
 11
404.61955807791497
 21
-215.16050763687613
 31
0.0
 11
406.11936505419351
 21
-215.39129901050109
 31
0.0
 11
407.5921607550614
 21
-215.79098959123738
 31
0.0
 11
409.01587331396013
 21
-216.37755313017215
 31
0.0
 11
410.34866190113854
 21
-217.14669176768845
 31
0.0
 11
411.54683989313668
 21
-218.09202818261539
 31
0.0
 11
412.56783574884423
 21
-219.20663285070341
 31
0.0
 11
413.41127821516471
 21
-220.46267812391767
 31
0.0
 11
414.13096036137676
 21
-221.80551348720033
 31
0.0
 11
414.78290186023395
 21
-223.18014184693698
 31
0.0
 11
415.39424102748728
 21
-224.56231002923715
 31
0.0
 11
415.96413072648176
 21
-225.95755509832611
 31
0.0
 11
416.49057494525209
 21
-227.37263708486734
 31
0.0
 11
416.97157767183313
 21
-228.81431601952445
 31
0.0
 11
417.40380649894269
 21
-230.28891915871313
 31
0.0
 11
417.74349074792434
 21
-231.78967835043886
 31
0.0
 11
417.90016143409622
 21
-233.29470280346749
 31
0.0
 11
417.78372141155273
 21
-234.78172720894881
 31
0.0
 11
417.41518983858862
 21
-236.24594283703877
 31
0.0
 11
416.95750187573873
 21
-237.7048362270092
 31
0.0
 11
416.56359949818204
 21
-239.17515378427223
 31
0.0
 11
416.26616599887819
 21
-240.65993648705842
 31
0.0
 11
416.05150606502662
 21
-242.15693971930858
 31
0.0
 11
415.90582592407435
 21
-243.66390764387793
 31
0.0
 11
415.81533180346855
 21
-245.17858442362191
 31
0.0
 11
415.76622993065615
 21
-246.69871422139568
 31
0.0
 11
415.74472653308442
 21
-248.22204120005455
 31
0.0
 11
415.73702783820033
 21
-249.74630952245369
 31
0.0
 11
415.72934007345089
 21
-251.26926335144847
 31
0.0
 11
415.70786946628317
 21
-252.78864684989412
 31
0.0
 11
415.65882224414446
 21
-254.30220418064596
 31
0.0
 11
415.56850233504821
 21
-255.80769827499995
 31
0.0
 11
415.43960289930891
 21
-257.30604046294428
 31
0.0
 11
415.30945917004573
 21
-258.80479687407609
 31
0.0
 11
415.21980922971125
 21
-260.31237943264762
 31
0.0
 11
415.21239116075748
 21
-261.83720006291122
 31
0.0
 11
415.32822405662841
 21
-263.38749893644416
 31
0.0
 11
415.57686370021366
 21
-264.96400024378858
 31
0.0
 11
415.92483708739275
 21
-266.55714942409526
 31
0.0
 11
416.33556783659947
 21
-268.15665057920467
 31
0.0
 11
416.77247956626712
 21
-269.75220781095692
 31
0.0
 11
417.19899589483009
 21
-271.33352522119259
 31
0.0
 11
417.5785404407215
 21
-272.89030691175157
 31
0.0
 11
417.87453682237515
 21
-274.41225698447442
 31
0.0
 11
418.05040865822502
 21
-275.88907954120151
 31
0.0
 11
418.06957956670453
 21
-277.31047868377289
 31
0.0
 11
417.8954731662476
 21
-278.66615851402906
 31
0.0
 11
417.49151307528768
 21
-279.94582313381022
 31
0.0
 11
416.82769014206457
 21
-281.13997973166943
 31
0.0
 11
415.92229138539528
 21
-282.24504148909864
 31
0.0
 11
414.81515684564221
 21
-283.26005724154669
 31
0.0
 11
413.5462262413696
 21
-284.18408801380855
 31
0.0
 11
412.15543929114165
 21
-285.01619483067924
 31
0.0
 11
410.68273571352267
 21
-285.75543871695385
 31
0.0
 11
409.16805415297137
 21
-286.40088078220521
 31
0.0
 11
407.64381396856987
 21
-286.95217562303662
 31
0.0
 11
406.1169301157081
 21
-287.41099086415971
 31
0.0
 11
404.5889152460357
 21
-287.77942052681743
 31
0.0
 11
403.06128201120282
 21
-288.05955863225319
 31
0.0
 11
401.53554306285901
 21
-288.25349920170999
 31
0.0
 11
400.01321105265413
 21
-288.36333625643096
 31
0.0
 11
398.49579863223801
 21
-288.39116381765922
 31
0.0
 11
396.98481845326063
 21
-288.33907590663807
 31
0.0
 11
395.48178316737182
 21
-288.20916654461058
 31
0.0
 11
393.98820542622116
 21
-288.00352975281993
 31
0.0
 11
392.5055978814587
 21
-287.72425955250918
 31
0.0
  0
ARC
  5
A3
100
AcDbEntity
  8
0
  6
CONTINUOUS
 62
     7
100
AcDbCircle
 10
416.06573
 20
-357.057887
 30
0.0
 40
0.4
100
AcDbArc
 50
180.0
 51
270.0
  0
ARC
  5
A4
100
AcDbEntity
  8
0
  6
CONTINUOUS
 62
     7
100
AcDbCircle
 10
405.56573
 20
-352.757887
 30
0.0
 40
10.1
100
AcDbArc
 50
0.0
 51
28.375468
  0
ARC
  5
A5
100
AcDbEntity
  8
0
  6
CONTINUOUS
 62
     7
100
AcDbCircle
 10
421.36573
 20
-352.757887
 30
0.0
 40
10.1
100
AcDbArc
 50
151.624532
 51
180.0
  0
ARC
  5
A6
100
AcDbEntity
  8
0
  6
CONTINUOUS
 62
     7
100
AcDbCircle
 10
421.36573
 20
-415.157887
 30
0.0
 40
10.1
100
AcDbArc
 50
180.0
 51
208.375468
  0
ARC
  5
A7
100
AcDbEntity
  8
0
  6
CONTINUOUS
 62
     7
100
AcDbCircle
 10
416.06573
 20
-410.857887
 30
0.0
 40
0.4
100
AcDbArc
 50
90.0
 51
180.0
  0
ARC
  5
A8
100
AcDbEntity
  8
0
  6
CONTINUOUS
 62
     7
100
AcDbCircle
 10
405.56573
 20
-415.157887
 30
0.0
 40
10.1
100
AcDbArc
 50
331.624532
 51
0.0
  0
CIRCLE
  5
A9
100
AcDbEntity
  8
0
  6
CONTINUOUS
 62
     7
100
AcDbCircle
 10
319.577486
 20
-228.043574
 30
0.0
 40
2.7
  0
CIRCLE
  5
AA
100
AcDbEntity
  8
0
  6
CONTINUOUS
 62
     7
100
AcDbCircle
 10
362.665056
 20
-242.043574
 30
0.0
 40
3.75
  0
CIRCLE
  5
AB
100
AcDbEntity
  8
0
  6
CONTINUOUS
 62
     7
100
AcDbCircle
 10
362.665056
 20
-242.043574
 30
0.0
 40
4.25
  0
CIRCLE
  5
AC
100
AcDbEntity
  8
0
  6
CONTINUOUS
 62
     7
100
AcDbCircle
 10
362.665056
 20
-259.348526
 30
0.0
 40
3.75
  0
CIRCLE
  5
AD
100
AcDbEntity
  8
0
  6
CONTINUOUS
 62
     7
100
AcDbCircle
 10
362.665056
 20
-259.348526
 30
0.0
 40
4.25
  0
CIRCLE
  5
AE
100
AcDbEntity
  8
0
  6
CONTINUOUS
 62
     7
100
AcDbCircle
 10
336.035473
 20
-278.69605
 30
0.0
 40
3.75
  0
CIRCLE
  5
AF
100
AcDbEntity
  8
0
  6
CONTINUOUS
 62
     7
100
AcDbCircle
 10
336.035473
 20
-278.69605
 30
0.0
 40
4.25
  0
CIRCLE
  5
B0
100
AcDbEntity
  8
0
  6
CONTINUOUS
 62
     7
100
AcDbCircle
 10
309.405891
 20
-259.348526
 30
0.0
 40
3.75
  0
CIRCLE
  5
B1
100
AcDbEntity
  8
0
  6
CONTINUOUS
 62
     7
100
AcDbCircle
 10
309.405891
 20
-259.348526
 30
0.0
 40
4.25
  0
CIRCLE
  5
B2
100
AcDbEntity
  8
0
  6
CONTINUOUS
 62
     7
100
AcDbCircle
 10
309.405891
 20
-242.043574
 30
0.0
 40
3.75
  0
CIRCLE
  5
B3
100
AcDbEntity
  8
0
  6
CONTINUOUS
 62
     7
100
AcDbCircle
 10
309.405891
 20
-242.043574
 30
0.0
 40
4.25
  0
CIRCLE
  5
B4
100
AcDbEntity
  8
0
  6
CONTINUOUS
 62
     7
100
AcDbCircle
 10
336.035473
 20
-250.69605
 30
0.0
 40
17.5
  0
CIRCLE
  5
B5
100
AcDbEntity
  8
0
  6
CONTINUOUS
 62
     7
100
AcDbCircle
 10
336.035473
 20
-222.69605
 30
0.0
 40
3.75
  0
CIRCLE
  5
B6
100
AcDbEntity
  8
0
  6
CONTINUOUS
 62
     7
100
AcDbCircle
 10
336.035473
 20
-222.69605
 30
0.0
 40
4.25
  0
CIRCLE
  5
B7
100
AcDbEntity
  8
0
  6
CONTINUOUS
 62
     7
100
AcDbCircle
 10
327.382997
 20
-224.066468
 30
0.0
 40
2.1
  0
CIRCLE
  5
B8
100
AcDbEntity
  8
0
  6
CONTINUOUS
 62
     7
100
AcDbCircle
 10
313.382997
 20
-234.238063
 30
0.0
 40
2.1
  0
CIRCLE
  5
B9
100
AcDbEntity
  8
0
  6
CONTINUOUS
 62
     7
100
AcDbCircle
 10
308.035473
 20
-250.69605
 30
0.0
 40
2.1
  0
CIRCLE
  5
BA
100
AcDbEntity
  8
0
  6
CONTINUOUS
 62
     7
100
AcDbCircle
 10
313.382997
 20
-267.154037
 30
0.0
 40
2.1
  0
CIRCLE
  5
BB
100
AcDbEntity
  8
0
  6
CONTINUOUS
 62
     7
100
AcDbCircle
 10
327.382997
 20
-277.325632
 30
0.0
 40
2.1
  0
CIRCLE
  5
BC
100
AcDbEntity
  8
0
  6
CONTINUOUS
 62
     7
100
AcDbCircle
 10
344.687949
 20
-277.325632
 30
0.0
 40
2.1
  0
CIRCLE
  5
BD
100
AcDbEntity
  8
0
  6
CONTINUOUS
 62
     7
100
AcDbCircle
 10
358.687949
 20
-267.154037
 30
0.0
 40
2.1
  0
CIRCLE
  5
BE
100
AcDbEntity
  8
0
  6
CONTINUOUS
 62
     7
100
AcDbCircle
 10
364.035473
 20
-250.69605
 30
0.0
 40
2.1
  0
CIRCLE
  5
BF
100
AcDbEntity
  8
0
  6
CONTINUOUS
 62
     7
100
AcDbCircle
 10
358.687949
 20
-234.238063
 30
0.0
 40
2.1
  0
CIRCLE
  5
C0
100
AcDbEntity
  8
0
  6
CONTINUOUS
 62
     7
100
AcDbCircle
 10
344.687949
 20
-224.066468
 30
0.0
 40
2.1
  0
CIRCLE
  5
C1
100
AcDbEntity
  8
0
  6
CONTINUOUS
 62
     7
100
AcDbCircle
 10
319.577486
 20
-273.348526
 30
0.0
 40
2.7
  0
CIRCLE
  5
C2
100
AcDbEntity
  8
0
  6
CONTINUOUS
 62
     7
100
AcDbCircle
 10
352.49346
 20
-273.348526
 30
0.0
 40
2.7
  0
CIRCLE
  5
C3
100
AcDbEntity
  8
0
  6
CONTINUOUS
 62
     7
100
AcDbCircle
 10
352.49346
 20
-228.043574
 30
0.0
 40
2.7
  0
CIRCLE
  5
C4
100
AcDbEntity
  8
0
  6
CONTINUOUS
 62
     7
100
AcDbCircle
 10
336.035473
 20
-250.69605
 30
0.0
 40
33.0
  0
ARC
  5
C5
100
AcDbEntity
  8
0
  6
CONTINUOUS
 62
     7
100
AcDbCircle
 10
388.535473
 20
-271.94605
 30
0.0
 40
1.25
100
AcDbArc
 50
180.0
 51
0.0
  0
ARC
  5
C6
100
AcDbEntity
  8
0
  6
CONTINUOUS
 62
     7
100
AcDbCircle
 10
388.535473
 20
-229.44605
 30
0.0
 40
1.25
100
AcDbArc
 50
0.0
 51
180.0
  0
LINE
  5
C7
100
AcDbEntity
  8
0
  6
CONTINUOUS
 62
     7
100
AcDbLine
 10
411.26573
 20
-352.757887
 30
0.0
 11
411.26573
 21
-415.157887
 31
0.0
  0
LINE
  5
C8
100
AcDbEntity
  8
0
  6
CONTINUOUS
 62
     7
100
AcDbLine
 10
415.66573
 20
-352.757887
 30
0.0
 11
415.66573
 21
-357.057887
 31
0.0
  0
LINE
  5
C9
100
AcDbEntity
  8
0
  6
CONTINUOUS
 62
     7
100
AcDbLine
 10
416.06573
 20
-357.457887
 30
0.0
 11
428.76573
 21
-357.457887
 31
0.0
  0
LINE
  5
CA
100
AcDbEntity
  8
0
  6
CONTINUOUS
 62
     7
100
AcDbLine
 10
431.26573
 20
-359.957887
 30
0.0
 11
431.26573
 21
-407.957887
 31
0.0
  0
LINE
  5
CB
100
AcDbEntity
  8
0
  6
CONTINUOUS
 62
     7
100
AcDbLine
 10
411.26573
 20
-377.607887
 30
0.0
 11
431.26573
 21
-377.607887
 31
0.0
  0
LINE
  5
CC
100
AcDbEntity
  8
0
  6
CONTINUOUS
 62
     7
100
AcDbLine
 10
412.479223
 20
-347.957887
 30
0.0
 11
414.452237
 21
-347.957887
 31
0.0
  0
LINE
  5
CD
100
AcDbEntity
  8
0
  6
CONTINUOUS
 62
     7
100
AcDbLine
 10
411.26573
 20
-353.037887
 30
0.0
 11
415.66573
 21
-353.037887
 31
0.0
  0
LINE
  5
CE
100
AcDbEntity
  8
0
  6
CONTINUOUS
 62
     7
100
AcDbLine
 10
415.66573
 20
-415.157887
 30
0.0
 11
415.66573
 21
-410.857887
 31
0.0
  0
LINE
  5
CF
100
AcDbEntity
  8
0
  6
CONTINUOUS
 62
     7
100
AcDbLine
 10
416.06573
 20
-410.457887
 30
0.0
 11
428.76573
 21
-410.457887
 31
0.0
  0
LINE
  5
D0
100
AcDbEntity
  8
0
  6
CONTINUOUS
 62
     7
100
AcDbLine
 10
411.26573
 20
-390.307887
 30
0.0
 11
431.26573
 21
-390.307887
 31
0.0
  0
LINE
  5
D1
100
AcDbEntity
  8
0
  6
CONTINUOUS
 62
     7
100
AcDbLine
 10
411.26573
 20
-414.877887
 30
0.0
 11
415.66573
 21
-414.877887
 31
0.0
  0
LINE
  5
D2
100
AcDbEntity
  8
0
  6
CONTINUOUS
 62
     7
100
AcDbLine
 10
412.479223
 20
-419.957887
 30
0.0
 11
414.452237
 21
-419.957887
 31
0.0
  0
LINE
  5
D3
100
AcDbEntity
  8
0
  6
CONTINUOUS
 62
     7
100
AcDbLine
 10
431.26573
 20
-407.957887
 30
0.0
 11
428.76573
 21
-410.457887
 31
0.0
  0
LINE
  5
D4
100
AcDbEntity
  8
0
  6
CONTINUOUS
 62
     7
100
AcDbLine
 10
428.76573
 20
-357.457887
 30
0.0
 11
431.26573
 21
-359.957887
 31
0.0
  0
LINE
  5
D5
100
AcDbEntity
  8
0
  6
CONTINUOUS
 62
     7
100
AcDbLine
 10
410.035473
 20
-273.39605
 30
0.0
 11
417.687072
 21
-273.39605
 31
0.0
  0
LINE
  5
D6
100
AcDbEntity
  8
0
  6
CONTINUOUS
 62
     7
100
AcDbLine
 10
410.035473
 20
-227.99605
 30
0.0
 11
416.705495
 21
-227.99605
 31
0.0
  0
LINE
  5
D7
100
AcDbEntity
  8
0
  6
CONTINUOUS
 62
     7
100
AcDbLine
 10
391.035473
 20
-225.19605
 30
0.0
 11
391.035473
 21
-226.29605
 31
0.0
  0
LINE
  5
D8
100
AcDbEntity
  8
0
  6
CONTINUOUS
 62
     7
100
AcDbLine
 10
391.035473
 20
-281.19605
 30
0.0
 11
391.035473
 21
-287.37345
 31
0.0
  0
LINE
  5
D9
100
AcDbEntity
  8
0
  6
CONTINUOUS
 62
     7
100
AcDbLine
 10
391.035473
 20
-275.09605
 30
0.0
 11
391.035473
 21
-276.19605
 31
0.0
  0
LINE
  5
DA
100
AcDbEntity
  8
0
  6
CONTINUOUS
 62
     7
100
AcDbLine
 10
391.035473
 20
-250.19605
 30
0.0
 11
391.035473
 21
-251.19605
 31
0.0
  0
LINE
  5
DB
100
AcDbEntity
  8
0
  6
CONTINUOUS
 62
     7
100
AcDbLine
 10
391.035473
 20
-216.181639
 30
0.0
 11
391.035473
 21
-220.19605
 31
0.0
  0
LINE
  5
DC
100
AcDbEntity
  8
0
  6
CONTINUOUS
 62
     7
100
AcDbLine
 10
360.468685
 20
-242.757218
 30
0.0
 11
362.184904
 21
-244.302509
 31
0.0
  0
LINE
  5
DD
100
AcDbEntity
  8
0
  6
CONTINUOUS
 62
     7
100
AcDbLine
 10
360.948836
 20
-240.498283
 30
0.0
 11
360.468685
 21
-242.757218
 31
0.0
  0
LINE
  5
DE
100
AcDbEntity
  8
0
  6
CONTINUOUS
 62
     7
100
AcDbLine
 10
363.145207
 20
-239.784639
 30
0.0
 11
360.948836
 21
-240.498283
 31
0.0
  0
LINE
  5
DF
100
AcDbEntity
  8
0
  6
CONTINUOUS
 62
     7
100
AcDbLine
 10
364.381275
 20
-243.588865
 30
0.0
 11
362.184904
 21
-244.302509
 31
0.0
  0
LINE
  5
E0
100
AcDbEntity
  8
0
  6
CONTINUOUS
 62
     7
100
AcDbLine
 10
364.861427
 20
-241.32993
 30
0.0
 11
364.381275
 21
-243.588865
 31
0.0
  0
LINE
  5
E1
100
AcDbEntity
  8
0
  6
CONTINUOUS
 62
     7
100
AcDbLine
 10
363.145207
 20
-239.784639
 30
0.0
 11
364.861427
 21
-241.32993
 31
0.0
  0
LINE
  5
E2
100
AcDbEntity
  8
0
  6
CONTINUOUS
 62
     7
100
AcDbLine
 10
360.468685
 20
-258.634882
 30
0.0
 11
360.948836
 21
-260.893817
 31
0.0
  0
LINE
  5
E3
100
AcDbEntity
  8
0
  6
CONTINUOUS
 62
     7
100
AcDbLine
 10
362.184904
 20
-257.089591
 30
0.0
 11
360.468685
 21
-258.634882
 31
0.0
  0
LINE
  5
E4
100
AcDbEntity
  8
0
  6
CONTINUOUS
 62
     7
100
AcDbLine
 10
364.381275
 20
-257.803235
 30
0.0
 11
362.184904
 21
-257.089591
 31
0.0
  0
LINE
  5
E5
100
AcDbEntity
  8
0
  6
CONTINUOUS
 62
     7
100
AcDbLine
 10
363.145207
 20
-261.607461
 30
0.0
 11
360.948836
 21
-260.893817
 31
0.0
  0
LINE
  5
E6
100
AcDbEntity
  8
0
  6
CONTINUOUS
 62
     7
100
AcDbLine
 10
364.861427
 20
-260.06217
 30
0.0
 11
363.145207
 21
-261.607461
 31
0.0
  0
LINE
  5
E7
100
AcDbEntity
  8
0
  6
CONTINUOUS
 62
     7
100
AcDbLine
 10
364.381275
 20
-257.803235
 30
0.0
 11
364.861427
 21
-260.06217
 31
0.0
  0
LINE
  5
E8
100
AcDbEntity
  8
0
  6
CONTINUOUS
 62
     7
100
AcDbLine
 10
336.035473
 20
-276.386649
 30
0.0
 11
334.035473
 21
-277.541349
 31
0.0
  0
LINE
  5
E9
100
AcDbEntity
  8
0
  6
CONTINUOUS
 62
     7
100
AcDbLine
 10
338.035473
 20
-277.541349
 30
0.0
 11
336.035473
 21
-276.386649
 31
0.0
  0
LINE
  5
EA
100
AcDbEntity
  8
0
  6
CONTINUOUS
 62
     7
100
AcDbLine
 10
338.035473
 20
-279.850751
 30
0.0
 11
338.035473
 21
-277.541349
 31
0.0
  0
LINE
  5
EB
100
AcDbEntity
  8
0
  6
CONTINUOUS
 62
     7
100
AcDbLine
 10
334.035473
 20
-279.850751
 30
0.0
 11
334.035473
 21
-277.541349
 31
0.0
  0
LINE
  5
EC
100
AcDbEntity
  8
0
  6
CONTINUOUS
 62
     7
100
AcDbLine
 10
336.035473
 20
-281.005451
 30
0.0
 11
334.035473
 21
-279.850751
 31
0.0
  0
LINE
  5
ED
100
AcDbEntity
  8
0
  6
CONTINUOUS
 62
     7
100
AcDbLine
 10
338.035473
 20
-279.850751
 30
0.0
 11
336.035473
 21
-281.005451
 31
0.0
  0
LINE
  5
EE
100
AcDbEntity
  8
0
  6
CONTINUOUS
 62
     7
100
AcDbLine
 10
311.602262
 20
-258.634882
 30
0.0
 11
309.886042
 21
-257.089591
 31
0.0
  0
LINE
  5
EF
100
AcDbEntity
  8
0
  6
CONTINUOUS
 62
     7
100
AcDbLine
 10
311.12211
 20
-260.893817
 30
0.0
 11
311.602262
 21
-258.634882
 31
0.0
  0
LINE
  5
F0
100
AcDbEntity
  8
0
  6
CONTINUOUS
 62
     7
100
AcDbLine
 10
308.925739
 20
-261.607461
 30
0.0
 11
311.12211
 21
-260.893817
 31
0.0
  0
LINE
  5
F1
100
AcDbEntity
  8
0
  6
CONTINUOUS
 62
     7
100
AcDbLine
 10
307.689671
 20
-257.803235
 30
0.0
 11
309.886042
 21
-257.089591
 31
0.0
  0
LINE
  5
F2
100
AcDbEntity
  8
0
  6
CONTINUOUS
 62
     7
100
AcDbLine
 10
307.20952
 20
-260.06217
 30
0.0
 11
307.689671
 21
-257.803235
 31
0.0
  0
LINE
  5
F3
100
AcDbEntity
  8
0
  6
CONTINUOUS
 62
     7
100
AcDbLine
 10
308.925739
 20
-261.607461
 30
0.0
 11
307.20952
 21
-260.06217
 31
0.0
  0
LINE
  5
F4
100
AcDbEntity
  8
0
  6
CONTINUOUS
 62
     7
100
AcDbLine
 10
311.602262
 20
-242.757218
 30
0.0
 11
311.12211
 21
-240.498283
 31
0.0
  0
LINE
  5
F5
100
AcDbEntity
  8
0
  6
CONTINUOUS
 62
     7
100
AcDbLine
 10
309.886042
 20
-244.302509
 30
0.0
 11
311.602262
 21
-242.757218
 31
0.0
  0
LINE
  5
F6
100
AcDbEntity
  8
0
  6
CONTINUOUS
 62
     7
100
AcDbLine
 10
307.689671
 20
-243.588865
 30
0.0
 11
309.886042
 21
-244.302509
 31
0.0
  0
LINE
  5
F7
100
AcDbEntity
  8
0
  6
CONTINUOUS
 62
     7
100
AcDbLine
 10
308.925739
 20
-239.784639
 30
0.0
 11
311.12211
 21
-240.498283
 31
0.0
  0
LINE
  5
F8
100
AcDbEntity
  8
0
  6
CONTINUOUS
 62
     7
100
AcDbLine
 10
307.20952
 20
-241.32993
 30
0.0
 11
308.925739
 21
-239.784639
 31
0.0
  0
LINE
  5
F9
100
AcDbEntity
  8
0
  6
CONTINUOUS
 62
     7
100
AcDbLine
 10
307.689671
 20
-243.588865
 30
0.0
 11
307.20952
 21
-241.32993
 31
0.0
  0
LINE
  5
FA
100
AcDbEntity
  8
0
  6
CONTINUOUS
 62
     7
100
AcDbLine
 10
410.035473
 20
-227.958335
 30
0.0
 11
410.035473
 21
-273.433765
 31
0.0
  0
LINE
  5
FB
100
AcDbEntity
  8
0
  6
CONTINUOUS
 62
     7
100
AcDbLine
 10
389.785473
 20
-268.19605
 30
0.0
 11
407.535473
 21
-268.19605
 31
0.0
  0
LINE
  5
FC
100
AcDbEntity
  8
0
  6
CONTINUOUS
 62
     7
100
AcDbLine
 10
389.785473
 20
-233.19605
 30
0.0
 11
407.535473
 21
-233.19605
 31
0.0
  0
LINE
  5
FD
100
AcDbEntity
  8
0
  6
CONTINUOUS
 62
     7
100
AcDbLine
 10
378.535473
 20
-268.19605
 30
0.0
 11
387.285473
 21
-268.19605
 31
0.0
  0
LINE
  5
FE
100
AcDbEntity
  8
0
  6
CONTINUOUS
 62
     7
100
AcDbLine
 10
378.535473
 20
-233.19605
 30
0.0
 11
387.285473
 21
-233.19605
 31
0.0
  0
LINE
  5
FF
100
AcDbEntity
  8
0
  6
CONTINUOUS
 62
     7
100
AcDbLine
 10
403.035473
 20
-281.19605
 30
0.0
 11
403.035473
 21
-276.19605
 31
0.0
  0
LINE
  5
100
100
AcDbEntity
  8
0
  6
CONTINUOUS
 62
     7
100
AcDbLine
 10
400.535473
 20
-280.79605
 30
0.0
 11
406.035473
 21
-280.79605
 31
0.0
  0
LINE
  5
101
100
AcDbEntity
  8
0
  6
CONTINUOUS
 62
     7
100
AcDbLine
 10
406.035473
 20
-280.79605
 30
0.0
 11
407.247909
 21
-278.69605
 31
0.0
  0
LINE
  5
102
100
AcDbEntity
  8
0
  6
CONTINUOUS
 62
     7
100
AcDbLine
 10
406.035473
 20
-276.59605
 30
0.0
 11
407.247909
 21
-278.69605
 31
0.0
  0
LINE
  5
103
100
AcDbEntity
  8
0
  6
CONTINUOUS
 62
     7
100
AcDbLine
 10
400.535473
 20
-276.59605
 30
0.0
 11
406.035473
 21
-276.59605
 31
0.0
  0
LINE
  5
104
100
AcDbEntity
  8
0
  6
CONTINUOUS
 62
     7
100
AcDbLine
 10
406.035473
 20
-280.79605
 30
0.0
 11
406.035473
 21
-276.59605
 31
0.0
  0
LINE
  5
105
100
AcDbEntity
  8
0
  6
CONTINUOUS
 62
     7
100
AcDbLine
 10
406.035473
 20
-220.59605
 30
0.0
 11
407.247909
 21
-222.69605
 31
0.0
  0
LINE
  5
106
100
AcDbEntity
  8
0
  6
CONTINUOUS
 62
     7
100
AcDbLine
 10
406.035473
 20
-224.79605
 30
0.0
 11
407.247909
 21
-222.69605
 31
0.0
  0
LINE
  5
107
100
AcDbEntity
  8
0
  6
CONTINUOUS
 62
     7
100
AcDbLine
 10
406.035473
 20
-220.59605
 30
0.0
 11
406.035473
 21
-224.79605
 31
0.0
  0
LINE
  5
108
100
AcDbEntity
  8
0
  6
CONTINUOUS
 62
     7
100
AcDbLine
 10
400.535473
 20
-224.79605
 30
0.0
 11
406.035473
 21
-224.79605
 31
0.0
  0
LINE
  5
109
100
AcDbEntity
  8
0
  6
CONTINUOUS
 62
     7
100
AcDbLine
 10
400.535473
 20
-220.59605
 30
0.0
 11
406.035473
 21
-220.59605
 31
0.0
  0
LINE
  5
10A
100
AcDbEntity
  8
0
  6
CONTINUOUS
 62
     7
100
AcDbLine
 10
403.035473
 20
-220.19605
 30
0.0
 11
403.035473
 21
-225.19605
 31
0.0
  0
LINE
  5
10B
100
AcDbEntity
  8
0
  6
CONTINUOUS
 62
     7
100
AcDbLine
 10
389.785473
 20
-251.19605
 30
0.0
 11
389.785473
 21
-271.94605
 31
0.0
  0
LINE
  5
10C
100
AcDbEntity
  8
0
  6
CONTINUOUS
 62
     7
100
AcDbLine
 10
389.785473
 20
-229.69605
 30
0.0
 11
389.785473
 21
-250.19605
 31
0.0
  0
LINE
  5
10D
100
AcDbEntity
  8
0
  6
CONTINUOUS
 62
     7
100
AcDbLine
 10
387.285473
 20
-229.57105
 30
0.0
 11
387.285473
 21
-271.69605
 31
0.0
  0
LINE
  5
10E
100
AcDbEntity
  8
0
  6
CONTINUOUS
 62
     7
100
AcDbLine
 10
388.535473
 20
-225.19605
 30
0.0
 11
388.535473
 21
-226.29605
 31
0.0
  0
LINE
  5
10F
100
AcDbEntity
  8
0
  6
CONTINUOUS
 62
     7
100
AcDbLine
 10
373.535473
 20
-226.44605
 30
0.0
 11
374.035473
 21
-226.94605
 31
0.0
  0
LINE
  5
110
100
AcDbEntity
  8
0
  6
CONTINUOUS
 62
     7
100
AcDbLine
 10
373.535473
 20
-218.94605
 30
0.0
 11
374.035473
 21
-218.44605
 31
0.0
  0
LINE
  5
111
100
AcDbEntity
  8
0
  6
CONTINUOUS
 62
     7
100
AcDbLine
 10
374.035473
 20
-226.94605
 30
0.0
 11
374.035473
 21
-218.44605
 31
0.0
  0
LINE
  5
112
100
AcDbEntity
  8
0
  6
CONTINUOUS
 62
     7
100
AcDbLine
 10
400.135473
 20
-225.19605
 30
0.0
 11
400.135473
 21
-220.19605
 31
0.0
  0
LINE
  5
113
100
AcDbEntity
  8
0
  6
CONTINUOUS
 62
     7
100
AcDbLine
 10
400.135473
 20
-220.19605
 30
0.0
 11
400.535473
 21
-220.59605
 31
0.0
  0
LINE
  5
114
100
AcDbEntity
  8
0
  6
CONTINUOUS
 62
     7
100
AcDbLine
 10
400.135473
 20
-225.19605
 30
0.0
 11
400.535473
 21
-224.79605
 31
0.0
  0
LINE
  5
115
100
AcDbEntity
  8
0
  6
CONTINUOUS
 62
     7
100
AcDbLine
 10
384.410473
 20
-225.19605
 30
0.0
 11
384.410473
 21
-220.19605
 31
0.0
  0
LINE
  5
116
100
AcDbEntity
  8
0
  6
CONTINUOUS
 62
     7
100
AcDbLine
 10
374.035473
 20
-218.44605
 30
0.0
 11
378.535473
 21
-218.44605
 31
0.0
  0
LINE
  5
117
100
AcDbEntity
  8
0
  6
CONTINUOUS
 62
     7
100
AcDbLine
 10
374.035473
 20
-226.94605
 30
0.0
 11
378.535473
 21
-226.94605
 31
0.0
  0
LINE
  5
118
100
AcDbEntity
  8
0
  6
CONTINUOUS
 62
     7
100
AcDbLine
 10
373.535473
 20
-226.44605
 30
0.0
 11
373.535473
 21
-218.94605
 31
0.0
  0
LINE
  5
119
100
AcDbEntity
  8
0
  6
CONTINUOUS
 62
     7
100
AcDbLine
 10
400.535473
 20
-224.79605
 30
0.0
 11
400.535473
 21
-220.59605
 31
0.0
  0
LINE
  5
11A
100
AcDbEntity
  8
0
  6
CONTINUOUS
 62
     7
100
AcDbLine
 10
378.535473
 20
-225.19605
 30
0.0
 11
400.135473
 21
-225.19605
 31
0.0
  0
LINE
  5
11B
100
AcDbEntity
  8
0
  6
CONTINUOUS
 62
     7
100
AcDbLine
 10
378.535473
 20
-220.19605
 30
0.0
 11
400.135473
 21
-220.19605
 31
0.0
  0
LINE
  5
11C
100
AcDbEntity
  8
0
  6
CONTINUOUS
 62
     7
100
AcDbLine
 10
378.535473
 20
-219.99605
 30
0.0
 11
388.535473
 21
-219.99605
 31
0.0
  0
LINE
  5
11D
100
AcDbEntity
  8
0
  6
CONTINUOUS
 62
     7
100
AcDbLine
 10
378.535473
 20
-225.39605
 30
0.0
 11
388.535473
 21
-225.39605
 31
0.0
  0
LINE
  5
11E
100
AcDbEntity
  8
0
  6
CONTINUOUS
 62
     7
100
AcDbLine
 10
388.535473
 20
-281.19605
 30
0.0
 11
388.535473
 21
-283.69605
 31
0.0
  0
LINE
  5
11F
100
AcDbEntity
  8
0
  6
CONTINUOUS
 62
     7
100
AcDbLine
 10
336.035473
 20
-225.005451
 30
0.0
 11
338.035473
 21
-223.850751
 31
0.0
  0
LINE
  5
120
100
AcDbEntity
  8
0
  6
CONTINUOUS
 62
     7
100
AcDbLine
 10
334.035473
 20
-221.541349
 30
0.0
 11
336.035473
 21
-220.386649
 31
0.0
  0
LINE
  5
121
100
AcDbEntity
  8
0
  6
CONTINUOUS
 62
     7
100
AcDbLine
 10
336.035473
 20
-220.386649
 30
0.0
 11
338.035473
 21
-221.541349
 31
0.0
  0
LINE
  5
122
100
AcDbEntity
  8
0
  6
CONTINUOUS
 62
     7
100
AcDbLine
 10
334.035473
 20
-223.850751
 30
0.0
 11
336.035473
 21
-225.005451
 31
0.0
  0
LINE
  5
123
100
AcDbEntity
  8
0
  6
CONTINUOUS
 62
     7
100
AcDbLine
 10
334.035473
 20
-221.541349
 30
0.0
 11
334.035473
 21
-223.850751
 31
0.0
  0
LINE
  5
124
100
AcDbEntity
  8
0
  6
CONTINUOUS
 62
     7
100
AcDbLine
 10
338.035473
 20
-221.541349
 30
0.0
 11
338.035473
 21
-223.850751
 31
0.0
  0
LINE
  5
125
100
AcDbEntity
  8
0
  6
CONTINUOUS
 62
     7
100
AcDbLine
 10
373.535473
 20
-274.94605
 30
0.0
 11
374.035473
 21
-274.44605
 31
0.0
  0
LINE
  5
126
100
AcDbEntity
  8
0
  6
CONTINUOUS
 62
     7
100
AcDbLine
 10
373.535473
 20
-282.44605
 30
0.0
 11
374.035473
 21
-282.94605
 31
0.0
  0
LINE
  5
127
100
AcDbEntity
  8
0
  6
CONTINUOUS
 62
     7
100
AcDbLine
 10
374.035473
 20
-274.44605
 30
0.0
 11
374.035473
 21
-282.94605
 31
0.0
  0
LINE
  5
128
100
AcDbEntity
  8
0
  6
CONTINUOUS
 62
     7
100
AcDbLine
 10
400.135473
 20
-276.19605
 30
0.0
 11
400.135473
 21
-281.19605
 31
0.0
  0
LINE
  5
129
100
AcDbEntity
  8
0
  6
CONTINUOUS
 62
     7
100
AcDbLine
 10
400.135473
 20
-281.19605
 30
0.0
 11
400.535473
 21
-280.79605
 31
0.0
  0
LINE
  5
12A
100
AcDbEntity
  8
0
  6
CONTINUOUS
 62
     7
100
AcDbLine
 10
400.135473
 20
-276.19605
 30
0.0
 11
400.535473
 21
-276.59605
 31
0.0
  0
LINE
  5
12B
100
AcDbEntity
  8
0
  6
CONTINUOUS
 62
     7
100
AcDbLine
 10
384.410473
 20
-276.19605
 30
0.0
 11
384.410473
 21
-281.19605
 31
0.0
  0
LINE
  5
12C
100
AcDbEntity
  8
0
  6
CONTINUOUS
 62
     7
100
AcDbLine
 10
374.035473
 20
-282.94605
 30
0.0
 11
378.535473
 21
-282.94605
 31
0.0
  0
LINE
  5
12D
100
AcDbEntity
  8
0
  6
CONTINUOUS
 62
     7
100
AcDbLine
 10
374.035473
 20
-274.44605
 30
0.0
 11
378.535473
 21
-274.44605
 31
0.0
  0
LINE
  5
12E
100
AcDbEntity
  8
0
  6
CONTINUOUS
 62
     7
100
AcDbLine
 10
378.535473
 20
-281.19605
 30
0.0
 11
400.135473
 21
-281.19605
 31
0.0
  0
LINE
  5
12F
100
AcDbEntity
  8
0
  6
CONTINUOUS
 62
     7
100
AcDbLine
 10
378.535473
 20
-276.19605
 30
0.0
 11
400.135473
 21
-276.19605
 31
0.0
  0
LINE
  5
130
100
AcDbEntity
  8
0
  6
CONTINUOUS
 62
     7
100
AcDbLine
 10
400.535473
 20
-276.59605
 30
0.0
 11
400.535473
 21
-280.79605
 31
0.0
  0
LINE
  5
131
100
AcDbEntity
  8
0
  6
CONTINUOUS
 62
     7
100
AcDbLine
 10
373.535473
 20
-274.94605
 30
0.0
 11
373.535473
 21
-282.44605
 31
0.0
  0
LINE
  5
132
100
AcDbEntity
  8
0
  6
CONTINUOUS
 62
     7
100
AcDbLine
 10
407.535473
 20
-251.19605
 30
0.0
 11
407.535473
 21
-273.652487
 31
0.0
  0
LINE
  5
133
100
AcDbEntity
  8
0
  6
CONTINUOUS
 62
     7
100
AcDbLine
 10
378.535473
 20
-281.39605
 30
0.0
 11
388.535473
 21
-281.39605
 31
0.0
  0
LINE
  5
134
100
AcDbEntity
  8
0
  6
CONTINUOUS
 62
     7
100
AcDbLine
 10
378.535473
 20
-275.99605
 30
0.0
 11
388.535473
 21
-275.99605
 31
0.0
  0
LINE
  5
135
100
AcDbEntity
  8
0
  6
CONTINUOUS
 62
     7
100
AcDbLine
 10
389.535473
 20
-250.19605
 30
0.0
 11
407.535473
 21
-250.19605
 31
0.0
  0
LINE
  5
136
100
AcDbEntity
  8
0
  6
CONTINUOUS
 62
     7
100
AcDbLine
 10
389.535473
 20
-251.19605
 30
0.0
 11
407.535473
 21
-251.19605
 31
0.0
  0
LINE
  5
137
100
AcDbEntity
  8
0
  6
CONTINUOUS
 62
     7
100
AcDbLine
 10
389.785473
 20
-271.94605
 30
0.0
 11
389.785473
 21
-271.69605
 31
0.0
  0
LINE
  5
138
100
AcDbEntity
  8
0
  6
CONTINUOUS
 62
     7
100
AcDbLine
 10
387.285473
 20
-271.94605
 30
0.0
 11
387.285473
 21
-271.69605
 31
0.0
  0
LINE
  5
139
100
AcDbEntity
  8
0
  6
CONTINUOUS
 62
     7
100
AcDbLine
 10
389.785473
 20
-229.44605
 30
0.0
 11
389.785473
 21
-229.69605
 31
0.0
  0
LINE
  5
13A
100
AcDbEntity
  8
0
  6
CONTINUOUS
 62
     7
100
AcDbLine
 10
387.285473
 20
-229.44605
 30
0.0
 11
387.285473
 21
-229.69605
 31
0.0
  0
LINE
  5
13B
100
AcDbEntity
  8
0
  6
CONTINUOUS
 62
     7
100
AcDbLine
 10
389.535473
 20
-250.19605
 30
0.0
 11
389.535473
 21
-251.19605
 31
0.0
  0
LINE
  5
13C
100
AcDbEntity
  8
0
  6
CONTINUOUS
 62
     7
100
AcDbLine
 10
388.535473
 20
-275.09605
 30
0.0
 11
388.535473
 21
-276.19605
 31
0.0
  0
LINE
  5
13D
100
AcDbEntity
  8
0
  6
CONTINUOUS
 62
     7
100
AcDbLine
 10
391.035473
 20
-275.09605
 30
0.0
 11
410.035473
 21
-273.433765
 31
0.0
  0
LINE
  5
13E
100
AcDbEntity
  8
0
  6
CONTINUOUS
 62
     7
100
AcDbLine
 10
391.035473
 20
-226.29605
 30
0.0
 11
410.035473
 21
-227.958335
 31
0.0
  0
LINE
  5
13F
100
AcDbEntity
  8
0
  6
CONTINUOUS
 62
     7
100
AcDbLine
 10
388.535473
 20
-275.09605
 30
0.0
 11
391.035473
 21
-275.09605
 31
0.0
  0
LINE
  5
140
100
AcDbEntity
  8
0
  6
CONTINUOUS
 62
     7
100
AcDbLine
 10
388.535473
 20
-226.29605
 30
0.0
 11
391.035473
 21
-226.29605
 31
0.0
  0
LINE
  5
141
100
AcDbEntity
  8
0
  6
CONTINUOUS
 62
     7
100
AcDbLine
 10
378.535473
 20
-217.69605
 30
0.0
 11
388.535473
 21
-217.69605
 31
0.0
  0
LINE
  5
142
100
AcDbEntity
  8
0
  6
CONTINUOUS
 62
     7
100
AcDbLine
 10
378.535473
 20
-283.69605
 30
0.0
 11
388.535473
 21
-283.69605
 31
0.0
  0
LINE
  5
143
100
AcDbEntity
  8
0
  6
CONTINUOUS
 62
     7
100
AcDbLine
 10
407.535473
 20
-227.739613
 30
0.0
 11
407.535473
 21
-250.19605
 31
0.0
  0
LINE
  5
144
100
AcDbEntity
  8
0
  6
CONTINUOUS
 62
     7
100
AcDbLine
 10
388.535473
 20
-217.69605
 30
0.0
 11
388.535473
 21
-220.19605
 31
0.0
  0
LINE
  5
145
100
AcDbEntity
  8
0
  6
CONTINUOUS
 62
     7
100
AcDbLine
 10
378.535473
 20
-217.69605
 30
0.0
 11
378.535473
 21
-283.69605
 31
0.0
  0
LINE
  5
146
100
AcDbEntity
  8
0
  6
CONTINUOUS
 62
     7
100
AcDbLine
 10
346.581435
 20
-306.002073
 30
0.0
 11
393.830093
 21
-306.002073
 31
0.0
  0
LINE
  5
147
100
AcDbEntity
  8
0
  6
CONTINUOUS
 62
     7
100
AcDbLine
 10
340.418021
 20
-299.402687
 30
0.0
 11
443.343185
 21
-299.402687
 31
0.0
  0
ENDSEC
  0
SECTION
  2
OBJECTS
  0
DICTIONARY
  5
19
100
AcDbDictionary
  3
ACAD_GROUP
350
1A
  3
ACAD_MLINESTYLE
350
1B
  0
DICTIONARY
  5
1A
102
{ACAD_REACTORS
330
19
102
}
100
AcDbDictionary
  0
DICTIONARY
  5
1B
102
{ACAD_REACTORS
330
19
102
}
100
AcDbDictionary
  3
STANDARD
350
1C
  0
MLINESTYLE
  5
1C
102
{ACAD_REACTORS
330
1B
102
}
100
AcDbMlineStyle
  2
Standard
 70
     0
  3

 62
     0
 51
90.0
 52
90.0
 71
     2
 49
0.5
 62
   256
  6
ByLayer
 49
-0.5
 62
   256
  6
ByLayer
  0
ENDSEC
  0
EOF
