  0
SECTION
  2
HEADER
  9
$ACADVER
  1
AC1014
  9
$ACADMAINTVER
 70
     0
  9
$DWGCODEPAGE
  3
ANSI_932
  9
$INSBASE
 10
0.0
 20
0.0
 30
0.0
  9
$EXTMIN
 10
318.141183
 20
-421.422887
 30
0.0
  9
$EXTMAX
 10
502.281699
 20
-220.322558
 30
0.0
  9
$LIMMIN
 10
318.141183
 20
-421.422887
  9
$LIMMAX
 10
502.281699
 20
-220.322558
  9
$ORTHOMODE
 70
     0
  9
$REGENMODE
 70
     1
  9
$FILLMODE
 70
     1
  9
$QTEXTMODE
 70
     0
  9
$MIRRTEXT
 70
     1
  9
$DRAGMODE
 70
     2
  9
$LTSCALE
 40
1.0
  9
$OSMODE
 70
     0
  9
$ATTMODE
 70
     1
  9
$TEXTSIZE
 40
3.2
  9
$TRACEWID
 40
0.05
  9
$TEXTSTYLE
  7
MX_NOTE_STANDARD
  9
$CLAYER
  8
0
  9
$CELTYPE
  6
CONTINUOUS
  9
$CECOLOR
 62
   256
  9
$CELTSCALE
 40
1.0
  9
$DELOBJ
 70
     1
  9
$DISPSILH
 70
     0
  9
$DIMSCALE
 40
1.0
  9
$DIMASZ
 40
2.5
  9
$DIMEXO
 40
0.0
  9
$DIMDLI
 40
3.75
  9
$DIMRND
 40
0.0
  9
$DIMDLE
 40
0.0
  9
$DIMEXE
 40
1.0
  9
$DIMTP
 40
0.0
  9
$DIMTM
 40
0.0
  9
$DIMTXT
 40
3.2
  9
$DIMCEN
 40
2.5
  9
$DIMTSZ
 40
0.0
  9
$DIMTOL
 70
     0
  9
$DIMLIM
 70
     0
  9
$DIMTIH
 70
     0
  9
$DIMTOH
 70
     0
  9
$DIMSE1
 70
     0
  9
$DIMSE2
 70
     0
  9
$DIMTAD
 70
     1
  9
$DIMZIN
 70
     8
  9
$DIMBLK
  1

  9
$DIMASO
 70
     1
  9
$DIMSHO
 70
     1
  9
$DIMPOST
  1

  9
$DIMAPOST
  1

  9
$DIMALT
 70
     0
  9
$DIMALTD
 70
     4
  9
$DIMALTF
 40
0.03937
  9
$DIMLFAC
 40
1.0
  9
$DIMTOFL
 70
     1
  9
$DIMTVP
 40
0.0
  9
$DIMTIX
 70
     0
  9
$DIMSOXD
 70
     0
  9
$DIMSAH
 70
     0
  9
$DIMBLK1
  1

  9
$DIMBLK2
  1

  9
$DIMSTYLE
  2
MXDIMSTYLE
  9
$DIMCLRD
 70
     0
  9
$DIMCLRE
 70
     0
  9
$DIMCLRT
 70
     0
  9
$DIMTFAC
 40
1.0
  9
$DIMGAP
 40
1.0
  9
$DIMJUST
 70
     0
  9
$DIMSD1
 70
     0
  9
$DIMSD2
 70
     0
  9
$DIMTOLJ
 70
     1
  9
$DIMTZIN
 70
     0
  9
$DIMALTZ
 70
     0
  9
$DIMALTTZ
 70
     0
  9
$DIMFIT
 70
     3
  9
$DIMUPT
 70
     1
  9
$DIMUNIT
 70
     2
  9
$DIMDEC
 70
     4
  9
$DIMTDEC
 70
     4
  9
$DIMALTU
 70
     2
  9
$DIMALTTD
 70
     4
  9
$DIMTXSTY
  7
MX_NOTE_STANDARD
  9
$DIMAUNIT
 70
     0
  9
$LUNITS
 70
     2
  9
$LUPREC
 70
     4
  9
$SKETCHINC
 40
0.1
  9
$FILLETRAD
 40
0.0
  9
$AUNITS
 70
     0
  9
$AUPREC
 70
     0
  9
$MENU
  1
acad
  9
$ELEVATION
 40
0.0
  9
$PELEVATION
 40
0.0
  9
$THICKNESS
 40
0.0
  9
$LIMCHECK
 70
     0
  9
$BLIPMODE
 70
     1
  9
$CHAMFERA
 40
0.0
  9
$CHAMFERB
 40
0.0
  9
$CHAMFERC
 40
0.0
  9
$CHAMFERD
 40
0.0
  9
$SKPOLY
 70
     0
  9
$TDCREATE
 40
2454063.682731481
  9
$TDUPDATE
 40
2454063.682731481
  9
$TDINDWG
 40
0.0000000000
  9
$TDUSRTIMER
 40
0.0000000000
  9
$USRTIMER
 70
     1
  9
$ANGBASE
 50
0.0
  9
$ANGDIR
 70
     0
  9
$PDMODE
 70
     0
  9
$PDSIZE
 40
0.0
  9
$PLINEWID
 40
0.0
  9
$COORDS
 70
     1
  9
$SPLFRAME
 70
     0
  9
$SPLINETYPE
 70
     6
  9
$SPLINESEGS
 70
     8
  9
$ATTDIA
 70
     0
  9
$ATTREQ
 70
     1
  9
$HANDLING
 70
     1
  9
$HANDSEED
  5
12D
  9
$SURFTAB1
 70
     6
  9
$SURFTAB2
 70
     6
  9
$SURFTYPE
 70
     6
  9
$SURFU
 70
     6
  9
$SURFV
 70
     6
  9
$UCSNAME
  2

  9
$UCSORG
 10
0.0
 20
0.0
 30
0.0
  9
$UCSXDIR
 10
1.0
 20
0.0
 30
0.0
  9
$UCSYDIR
 10
0.0
 20
1.0
 30
0.0
  9
$PUCSNAME
  2

  9
$PUCSORG
 10
0.0
 20
0.0
 30
0.0
  9
$PUCSXDIR
 10
1.0
 20
0.0
 30
0.0
  9
$PUCSYDIR
 10
0.0
 20
1.0
 30
0.0
  9
$USERI1
 70
     0
  9
$USERI2
 70
     0
  9
$USERI3
 70
     0
  9
$USERI4
 70
     0
  9
$USERI5
 70
     0
  9
$USERR1
 40
0.0
  9
$USERR2
 40
0.0
  9
$USERR3
 40
0.0
  9
$USERR4
 40
0.0
  9
$USERR5
 40
0.0
  9
$WORLDVIEW
 70
     1
  9
$SHADEDGE
 70
     3
  9
$SHADEDIF
 70
    70
  9
$TILEMODE
 70
     1
  9
$MAXACTVP
 70
    16
  9
$PINSBASE
 10
0.0
 20
0.0
 30
0.0
  9
$PLIMCHECK
 70
     0
  9
$PEXTMIN
 10
1.000000E+20
 20
1.000000E+20
 30
1.000000E+20
  9
$PEXTMAX
 10
-1.000000E+20
 20
-1.000000E+20
 30
-1.000000E+20
  9
$PLIMMIN
 10
0.0
 20
0.0
  9
$PLIMMAX
 10
12.0
 20
9.0
  9
$UNITMODE
 70
     0
  9
$VISRETAIN
 70
     0
  9
$PLINEGEN
 70
     1
  9
$PSLTSCALE
 70
     0
  9
$TREEDEPTH
 70
  3020
  9
$PICKSTYLE
 70
     1
  9
$CMLSTYLE
  2
Standard
  9
$CMLJUST
 70
     0
  9
$CMLSCALE
 40
1.0
  9
$PROXYGRAPHICS
 70
     0
  9
$MEASUREMENT
 70
     1
  0
ENDSEC
  0
SECTION
  2
CLASSES
  0
CLASS
  1
LWPOLYLINE
  2
AcDbPolyline
  3
"AutoCAD"
 90
        0
280
     0
281
     1
  0
CLASS
  1
IMAGE
  2
AcDbRasterImage
  3
ISM
 90
      127
280
     0
281
     1
  0
CLASS
  1
OLE2FRAME
  2
AcDbOle2Frame
  3
""
 90
        0
280
     0
281
     1
  0
CLASS
  1
HATCH
  2
AcDbHatch
  3
"ACAD_SEDONA"
 90
        0
280
     0
281
     1
  0
CLASS
  1
DICTIONARYVAR
  2
AcDbDictionaryVar
  3
"AutoCAD"
 90
        0
280
     0
281
     0
  0
CLASS
  1
RASTERVARIABLES
  2
AcDbRasterVariables
  3
ISM
 90
        0
280
     0
281
     0
  0
CLASS
  1
IMAGEDEF
  2
AcDbRasterImageDef
  3
ISM
 90
        0
280
     0
281
     0
  0
CLASS
  1
IMAGEDEF_REACTOR
  2
AcDbRasterImageDefReactor
  3
ISM
 90
        1
280
     0
281
     0
  0
CLASS
  1
IDBUFFER
  2
AcDbIdBuffer
  3
"Acad"
 90
        0
280
     0
281
     0
  0
CLASS
  1
SPATIAL_FILTER
  2
AcDbSpatialFilter
  3
"Acad"
 90
        0
280
     0
281
     0
  0
CLASS
  1
XRECORD
  2
AcDbXrecord
  3
"<Built In>"
 90
        0
280
     0
281
     0
  0
CLASS
  1
SORTENTSTABLE
  2
AcDbSortentsTable
  3
"AutoCAD"
 90
        0
280
     0
281
     0
  0
CLASS
  1
LAYER_INDEX
  2
AcDbLayerIndex
  3
"Acad"
 90
        0
280
     0
281
     0
  0
CLASS
  1
SPATIAL_INDEX
  2
AcDbSpatialIndex
  3
"Acad"
 90
        0
280
     0
281
     0
  0
CLASS
  1
OBJECT_PTR
  2
CAseDLPNTableRecord
  3
"ASE-LPNTableRecord"
 90
        1
280
     0
281
     0
  0
CLASS
  1
LAYOUT
  2
AcDbLayout
  3
"AutoCAD 2000"
 90
        1
280
     0
281
     0
  0
CLASS
  1
PLOTSETTINGS
  2
AcDbPlotSettings
  3
"AutoCAD 2000"
 90
        1
280
     0
281
     0
  0
CLASS
  1
ACDBDICTIONARYWDFLT
  2
AcDbDictionaryWithDefault
  3
"AutoCAD 2000"
 90
        1
280
     0
281
     0
  0
CLASS
  1
ACDBPLACEHOLDER
  2
AcDbPlaceHolder
  3
"AutoCAD 2000"
 90
        1
280
     0
281
     0
  0
CLASS
  1
VBA_PROJECT
  2
AcDbVbaProject
  3
"acadvba"
 90
        1
280
     0
281
     0
  0
CLASS
  1
WIPEOUT
  2
AcDbWipeout
  3
WipeOut|AutoCAD Express Tool|expresstools@autodesk.com
 90
      127
280
     0
281
     1
  0
CLASS
  1
WIPEOUTVARIABLES
  2
AcDbWipeoutVariables
  3
WipeOut|AutoCAD Express Tool|expresstools@autodesk.com
 90
        0
280
     0
281
     0
  0
CLASS
  1
RTEXT
  2
RText
  3
RText|AutoCAD Express Tool|expresstools@autodesk.com
 90
        0
280
     0
281
     1
  0
CLASS
  1
ARCALIGNEDTEXT
  2
AcDbArcAlignedText
  3
ATEXT|AutoCAD Express Tool|expresstools@autodesk.com
 90
        0
280
     0
281
     1
  0
ENDSEC
  0
SECTION
  2
TABLES
  0
TABLE
  2
VPORT
  5
7
100
AcDbSymbolTable
 70
     1
  0
VPORT
  5
15
100
AcDbSymbolTableRecord
100
AcDbViewportTableRecord
  2
*ACTIVE
 70
     0
 10
0.0
 20
0.0
 11
1.0
 21
1.0
 12
410.211441
 22
-320.872722
 13
0.0
 23
0.0
 14
1.0
 24
1.0
 15
0.0
 25
0.0
 16
0.0
 26
0.0
 36
1.0
 17
0.0
 27
0.0
 37
0.0
 40
203.111332
 41
1.732051
 42
50.0
 43
0.0
 44
0.0
 50
0.0
 51
0.0
 71
     0
 72
   100
 73
     1
 74
     1
 75
     0
 76
     0
 77
     0
 78
     0
  0
ENDTAB
  0
TABLE
  2
LTYPE
  5
4
100
AcDbSymbolTable
 70
     5
  0
LTYPE
  5
11
100
AcDbSymbolTableRecord
100
AcDbLinetypeTableRecord
  2
BYBLOCK
 70
    64
  3

 72
    65
 73
     0
 40
0.0
  0
LTYPE
  5
12
100
AcDbSymbolTableRecord
100
AcDbLinetypeTableRecord
  2
BYLAYER
 70
    64
  3

 72
    65
 73
     0
 40
0.0
  0
LTYPE
  5
13
100
AcDbSymbolTableRecord
100
AcDbLinetypeTableRecord
  2
CONTINUOUS
 70
    64
  3
Solid line
 72
    65
 73
     0
 40
0.0
  0
LTYPE
  5
59
100
AcDbSymbolTableRecord
100
AcDbLinetypeTableRecord
  2
DASHED
 70
    64
  3
Dashed __ __ __ __ __ __ __ __ __ __ __ __ __ _
 72
    65
 73
     2
 40
19.05
 49
12.7
 74
     0
 49
-6.35
 74
     0
  0
LTYPE
  5
80
100
AcDbSymbolTableRecord
100
AcDbLinetypeTableRecord
  2
CENTER
 70
    64
  3
Center ____ _ ____ _ ____ _ ____ _ ____ _ ____
 72
    65
 73
     4
 40
50.8
 49
31.75
 74
     0
 49
-6.35
 74
     0
 49
6.35
 74
     0
 49
-6.35
 74
     0
  0
ENDTAB
  0
TABLE
  2
LAYER
  5
2
100
AcDbSymbolTable
 70
     2
  0
LAYER
  5
14
100
AcDbSymbolTableRecord
100
AcDbLayerTableRecord
  2
0
 70
     0
 62
     7
  6
CONTINUOUS
  0
LAYER
  5
1D
100
AcDbSymbolTableRecord
100
AcDbLayerTableRecord
  2
DEFPOINTS
 70
     0
 62
     7
  6
CONTINUOUS
  0
ENDTAB
  0
TABLE
  2
STYLE
  5
3
100
AcDbSymbolTable
 70
     1
  0
STYLE
  5
17
100
AcDbSymbolTableRecord
100
AcDbTextStyleTableRecord
  2
MX_NOTE_STANDARD
 70
     0
 40
0.0
 41
1.0
 50
0.0
 71
     0
 42
3.2
  3
txt.sh
  4
extfont
  0
ENDTAB
  0
TABLE
  2
VIEW
  5
5
100
AcDbSymbolTable
 70
     0
  0
ENDTAB
  0
TABLE
  2
UCS
  5
6
100
AcDbSymbolTable
 70
     0
  0
ENDTAB
  0
TABLE
  2
APPID
  5
8
100
AcDbSymbolTable
 70
     1
  0
APPID
  5
16
100
AcDbSymbolTableRecord
100
AcDbRegAppTableRecord
  2
ACAD
 70
     0
  0
ENDTAB
  0
TABLE
  2
DIMSTYLE
  5
9
100
AcDbSymbolTable
 70
     1
  0
DIMSTYLE
105
18
100
AcDbSymbolTableRecord
100
AcDbDimStyleTableRecord
  2
MXDIMSTYLE
 70
     0
  3

  4

  5

  6

  7

 40
1.0
 41
2.5
 42
0.0
 43
3.75
 44
1.0
 45
0.0
 46
0.0
 47
0.0
 48
0.0
 71
     0
 72
     0
 73
     0
 74
     0
 75
     0
 76
     0
 77
     1
 78
     8
140
3.2
141
2.5
142
0.0
143
0.03937
144
1.0
145
0.0
146
1.0
147
1.0
170
     0
171
     4
172
     1
173
     0
174
     0
175
     0
176
     0
177
     0
178
     0
270
     2
271
     4
272
     4
273
     2
274
     4
275
     0
280
     0
281
     0
282
     0
283
     1
284
     0
285
     0
286
     0
287
     3
288
     1
340
17
  0
ENDTAB
  0
TABLE
  2
BLOCK_RECORD
  5
1
100
AcDbSymbolTable
 70
     5
  0
BLOCK_RECORD
  5
A
100
AcDbSymbolTableRecord
100
AcDbBlockTableRecord
  2
*MODEL_SPACE
  0
BLOCK_RECORD
  5
B
100
AcDbSymbolTableRecord
100
AcDbBlockTableRecord
  2
*PAPER_SPACE
  0
BLOCK_RECORD
  5
1E
100
AcDbSymbolTableRecord
100
AcDbBlockTableRecord
  2
DC_GROUP_1
  0
BLOCK_RECORD
  5
1F
100
AcDbSymbolTableRecord
100
AcDbBlockTableRecord
  2
DC_GROUP_2
  0
BLOCK_RECORD
  5
20
100
AcDbSymbolTableRecord
100
AcDbBlockTableRecord
  2
DC_GROUP_3
  0
BLOCK_RECORD
  5
21
100
AcDbSymbolTableRecord
100
AcDbBlockTableRecord
  2
DC_GROUP_4
  0
BLOCK_RECORD
  5
22
100
AcDbSymbolTableRecord
100
AcDbBlockTableRecord
  2
*U4
  0
ENDTAB
  0
ENDSEC
  0
SECTION
  2
BLOCKS
  0
BLOCK
  5
D
100
AcDbEntity
  8
0
100
AcDbBlockBegin
  2
*MODEL_SPACE
 70
     0
 10
0.0
 20
0.0
 30
0.0
  3
*MODEL_SPACE
  1

  0
ENDBLK
  5
E
100
AcDbEntity
  8
0
100
AcDbBlockEnd
  0
BLOCK
  5
F
100
AcDbEntity
 67
     1
  8
0
100
AcDbBlockBegin
  2
*PAPER_SPACE
 70
     0
 10
0.0
 20
0.0
 30
0.0
  3
*PAPER_SPACE
  1

  0
ENDBLK
  5
10
100
AcDbEntity
 67
     1
  8
0
100
AcDbBlockEnd
  0
BLOCK
  5
23
100
AcDbEntity
  8
0
100
AcDbBlockBegin
  2
DC_GROUP_1
 70
     0
 10
0.0
 20
0.0
 30
0.0
  3
DC_GROUP_1
  1

  0
INSERT
  5
24
100
AcDbEntity
  8
0
  6
ByBlock
100
AcDbBlockReference
  2
*U4
 10
385.141183
 20
-257.478516
 30
0.0
 41
7.764572
 42
7.764572
 43
7.764572
 50
240.0
  0
MTEXT
  5
25
100
AcDbEntity
  8
0
  6
CONTINUOUS
 62
     7
100
AcDbMText
 10
406.650664
 20
-225.555779
 30
0.0
 40
3.2
 41
0.0
 71
     2
 72
     1
  1
\W0.754;\A1;基準点
  7
MX_NOTE_STANDARD
  0
LINE
  5
26
100
AcDbEntity
  8
0
  6
CONTINUOUS
 62
     2
100
AcDbLine
 10
401.262383
 20
-229.555779
 30
0.0
 11
411.907664
 21
-229.555779
 31
0.0
  0
LINE
  5
27
100
AcDbEntity
  8
0
  6
CONTINUOUS
 62
     2
100
AcDbLine
 10
385.141183
 20
-257.478516
 30
0.0
 11
401.262383
 21
-229.555779
 31
0.0
  0
ENDBLK
  5
28
100
AcDbEntity
  8
0
100
AcDbBlockEnd
  0
BLOCK
  5
29
100
AcDbEntity
  8
0
100
AcDbBlockBegin
  2
DC_GROUP_2
 70
     0
 10
0.0
 20
0.0
 30
0.0
  3
DC_GROUP_2
  1

  0
INSERT
  5
2A
100
AcDbEntity
  8
0
  6
ByBlock
100
AcDbBlockReference
  2
*U4
 10
382.641183
 20
-246.61249
 30
0.0
 41
7.764572
 42
7.764572
 43
7.764572
 50
300.0
  0
MTEXT
  5
2B
100
AcDbEntity
  8
0
  6
CONTINUOUS
 62
     7
100
AcDbMText
 10
354.265878
 20
-221.389225
 30
0.0
 40
3.2
 41
0.0
 71
     2
 72
     1
  1
\W0.813;\A1;\U+2205２２のみヌスミ無し
  7
MX_NOTE_STANDARD
  0
LINE
  5
2C
100
AcDbEntity
  8
0
  6
CONTINUOUS
 62
     2
100
AcDbLine
 10
370.387925
 20
-225.389225
 30
0.0
 11
338.386825
 21
-225.389225
 31
0.0
  0
LINE
  5
2D
100
AcDbEntity
  8
0
  6
CONTINUOUS
 62
     2
100
AcDbLine
 10
382.641183
 20
-246.61249
 30
0.0
 11
370.387925
 21
-225.389225
 31
0.0
  0
ENDBLK
  5
2E
100
AcDbEntity
  8
0
100
AcDbBlockEnd
  0
BLOCK
  5
2F
100
AcDbEntity
  8
0
100
AcDbBlockBegin
  2
DC_GROUP_3
 70
     0
 10
0.0
 20
0.0
 30
0.0
  3
DC_GROUP_3
  1

  0
INSERT
  5
30
100
AcDbEntity
  8
0
  6
ByBlock
100
AcDbBlockReference
  2
*U4
 10
431.26573
 20
-383.957887
 30
0.0
 41
7.764572
 42
7.764572
 43
7.764572
 50
240.0
  0
MTEXT
  5
31
100
AcDbEntity
  8
0
  6
CONTINUOUS
 62
     7
100
AcDbMText
 10
465.302715
 20
-370.451294
 30
0.0
 40
3.2
 41
0.0
 71
     2
 72
     1
  1
\W0.819;\A1;（上図を反転させてここに張り付け）
  7
MX_NOTE_STANDARD
  0
MTEXT
  5
32
100
AcDbEntity
  8
0
  6
CONTINUOUS
 62
     7
100
AcDbMText
 10
449.302715
 20
-365.651294
 30
0.0
 40
3.2
 41
0.0
 71
     2
 72
     1
  1
\W0.799;\A1;形式Ａの基準点
  7
MX_NOTE_STANDARD
  0
LINE
  5
33
100
AcDbEntity
  8
0
  6
CONTINUOUS
 62
     2
100
AcDbLine
 10
436.754364
 20
-374.451294
 30
0.0
 11
493.416715
 21
-374.451294
 31
0.0
  0
LINE
  5
34
100
AcDbEntity
  8
0
  6
CONTINUOUS
 62
     2
100
AcDbLine
 10
431.26573
 20
-383.957887
 30
0.0
 11
436.754364
 21
-374.451294
 31
0.0
  0
ENDBLK
  5
35
100
AcDbEntity
  8
0
100
AcDbBlockEnd
  0
BLOCK
  5
36
100
AcDbEntity
  8
0
100
AcDbBlockBegin
  2
DC_GROUP_4
 70
     0
 10
0.0
 20
0.0
 30
0.0
  3
DC_GROUP_4
  1

  0
INSERT
  5
37
100
AcDbEntity
  8
0
  6
ByBlock
100
AcDbBlockReference
  2
*U4
 10
411.26573
 20
-383.957887
 30
0.0
 41
7.764572
 42
7.764572
 43
7.764572
 50
300.0
  0
MTEXT
  5
38
100
AcDbEntity
  8
0
  6
CONTINUOUS
 62
     7
100
AcDbMText
 10
380.862975
 20
-371.458779
 30
0.0
 40
3.2
 41
0.0
 71
     2
 72
     1
  1
\W0.818;\A1;（上図をそのままここに張り付け）
  7
MX_NOTE_STANDARD
  0
MTEXT
  5
39
100
AcDbEntity
  8
0
  6
CONTINUOUS
 62
     7
100
AcDbMText
 10
366.462975
 20
-366.658779
 30
0.0
 40
3.2
 41
0.0
 71
     2
 72
     1
  1
\W0.799;\A1;形式Ｂの基準点
  7
MX_NOTE_STANDARD
  0
LINE
  5
3A
100
AcDbEntity
  8
0
  6
CONTINUOUS
 62
     2
100
AcDbLine
 10
406.358768
 20
-375.45878
 30
0.0
 11
354.700668
 21
-375.45878
 31
0.0
  0
LINE
  5
3B
100
AcDbEntity
  8
0
  6
CONTINUOUS
 62
     2
100
AcDbLine
 10
411.26573
 20
-383.957887
 30
0.0
 11
406.358768
 21
-375.45878
 31
0.0
  0
ENDBLK
  5
3C
100
AcDbEntity
  8
0
100
AcDbBlockEnd
  0
BLOCK
  5
3D
100
AcDbEntity
  8
0
100
AcDbBlockBegin
  2
*U4
 70
     1
 10
0.0
 20
0.0
 30
0.0
  3
*U4
  1

  0
LINE
  5
3E
100
AcDbEntity
  8
0
  6
CONTINUOUS
 62
     7
100
AcDbLine
 10
-1.0
 20
0.267949
 30
0.0
 11
0.0
 21
0.0
 31
0.0
  0
LINE
  5
3F
100
AcDbEntity
  8
0
  6
CONTINUOUS
 62
     7
100
AcDbLine
 10
0.0
 20
0.0
 30
0.0
 11
-1.0
 21
-0.267949
 31
0.0
  0
LINE
  5
40
100
AcDbEntity
  8
0
  6
CONTINUOUS
 62
     7
100
AcDbLine
 10
0.0
 20
0.0
 30
0.0
 11
-1.0
 21
0.0
 31
0.0
  0
ENDBLK
  5
41
100
AcDbEntity
  8
0
100
AcDbBlockEnd
  0
ENDSEC
  0
SECTION
  2
ENTITIES
  0
VIEWPORT
  5
12C
100
AcDbEntity
 67
     1
  8
0
 62
     7
100
AcDbViewport
 10
410.211441
 20
-18.7325
 30
0.0
 40
552.421548
 41
2416.142321
 68
     1
 69
     1
1001
ACAD
1000
MVIEW
1002
{
1070
    16
1010
0.0
1020
0.0
1030
0.0
1010
0.0
1020
0.0
1030
1.0
1040
0.0
1040
2416.142321
1040
410.211441
1040
-18.7325
1040
50.0
1040
0.0
1040
0.0
1070
     0
1070
   100
1070
     0
1070
     1
1070
     0
1070
     0
1070
     0
1070
     0
1040
0.0
1040
0.0
1040
0.0
1040
0.5
1040
0.5
1040
0.0
1040
0.0
1070
     0
1002
{
1002
}
1002
}
  0
INSERT
  5
42
100
AcDbEntity
  8
0
  6
ByBlock
100
AcDbBlockReference
  2
DC_GROUP_4
 10
0.0
 20
0.0
 30
0.0
  0
INSERT
  5
43
100
AcDbEntity
  8
0
  6
ByBlock
100
AcDbBlockReference
  2
DC_GROUP_3
 10
0.0
 20
0.0
 30
0.0
  0
INSERT
  5
44
100
AcDbEntity
  8
0
  6
ByBlock
100
AcDbBlockReference
  2
DC_GROUP_2
 10
0.0
 20
0.0
 30
0.0
  0
INSERT
  5
45
100
AcDbEntity
  8
0
  6
ByBlock
100
AcDbBlockReference
  2
DC_GROUP_1
 10
0.0
 20
0.0
 30
0.0
  0
MTEXT
  5
46
100
AcDbEntity
  8
0
  6
CONTINUOUS
 62
     7
100
AcDbMText
 10
371.961021
 20
-333.053297
 30
0.0
 40
3.2
 41
0.0
 71
     2
 72
     1
  1
\W0.821;\A1;５．張り付け方法をの例を下図に示します。
  7
MX_NOTE_STANDARD
  0
MTEXT
  5
47
100
AcDbEntity
  8
0
  6
CONTINUOUS
 62
     7
100
AcDbMText
 10
483.512404
 20
-275.713267
 30
0.0
 40
2.5
 41
0.0
 71
     2
 72
     1
  1
\W0.819;\A1;\U+2205４６（材質Ｓ４５Ｃの場合）
  7
MX_NOTE_STANDARD
  0
MTEXT
  5
48
100
AcDbEntity
  8
0
  6
CONTINUOUS
 62
     7
100
AcDbMText
 10
448.188013
 20
-275.363267
 30
0.0
 40
3.2
 41
0.0
 71
     2
 72
     1
  1
\W0.799;\A1;最低必要ハブ径
  7
MX_NOTE_STANDARD
  0
MTEXT
  5
49
100
AcDbEntity
  8
0
  6
CONTINUOUS
 62
     7
100
AcDbMText
 10
483.612373
 20
-267.863267
 30
0.0
 40
3.2
 41
0.0
 71
     2
 72
     1
  1
\W0.816;\A1;８．３Ｎ・m
  7
MX_NOTE_STANDARD
  0
MTEXT
  5
4A
100
AcDbEntity
  8
0
  6
CONTINUOUS
 62
     7
100
AcDbMText
 10
448.188013
 20
-267.863267
 30
0.0
 40
3.2
 41
0.0
 71
     2
 72
     1
  1
\W0.807;\A1;ボルト締付けトルク
  7
MX_NOTE_STANDARD
  0
MTEXT
  5
4B
100
AcDbEntity
  8
0
  6
CONTINUOUS
 62
     7
100
AcDbMText
 10
483.612373
 20
-260.363267
 30
0.0
 40
3.2
 41
0.0
 71
     2
 72
     1
  1
\W0.807;\A1;Ｍ５×１８（５本）
  7
MX_NOTE_STANDARD
  0
MTEXT
  5
4C
100
AcDbEntity
  8
0
  6
CONTINUOUS
 62
     7
100
AcDbMText
 10
448.188013
 20
-260.363267
 30
0.0
 40
3.2
 41
0.0
 71
     2
 72
     1
  1
\W0.786;\A1;使用ボルト
  7
MX_NOTE_STANDARD
  0
MTEXT
  5
4D
100
AcDbEntity
  8
0
  6
CONTINUOUS
 62
     7
100
AcDbMText
 10
483.512404
 20
-255.088267
 30
0.0
 40
2.5
 41
0.0
 71
     2
 72
     1
  1
\W0.815;\A1;弊社カタログ参照願います。
  7
MX_NOTE_STANDARD
  0
MTEXT
  5
4E
100
AcDbEntity
  8
0
  6
CONTINUOUS
 62
     7
100
AcDbMText
 10
479.762405
 20
-251.338267
 30
0.0
 40
2.5
 41
0.0
 71
     2
 72
     1
  1
\W0.810;\A1;１７４～２５６Ｎ・ｍ
  7
MX_NOTE_STANDARD
  0
MTEXT
  5
4F
100
AcDbEntity
  8
0
  6
CONTINUOUS
 62
     7
100
AcDbMText
 10
448.188013
 20
-252.863267
 30
0.0
 40
3.2
 41
0.0
 71
     2
 72
     1
  1
\W0.807;\A1;最大許容伝達トルク
  7
MX_NOTE_STANDARD
  0
MTEXT
  5
50
100
AcDbEntity
  8
0
  6
CONTINUOUS
 62
     7
100
AcDbMText
 10
483.612373
 20
-245.363267
 30
0.0
 40
3.2
 41
0.0
 71
     2
 72
     1
  1
\W0.800;\A1;\U+2205１５～２２
  7
MX_NOTE_STANDARD
  0
MTEXT
  5
51
100
AcDbEntity
  8
0
  6
CONTINUOUS
 62
     7
100
AcDbMText
 10
448.188013
 20
-245.363267
 30
0.0
 40
3.2
 41
0.0
 71
     2
 72
     1
  1
\W0.774;\A1;適用穴径
  7
MX_NOTE_STANDARD
  0
MTEXT
  5
52
100
AcDbEntity
  8
0
  6
CONTINUOUS
 62
     7
100
AcDbMText
 10
467.314339
 20
-237.863267
 30
0.0
 40
3.2
 41
0.0
 71
     2
 72
     1
  1
\W0.821;\A1;ロックスプロケットＳ２５ＸＸスリーブ諸元
  7
MX_NOTE_STANDARD
  0
MTEXT
  5
53
100
AcDbEntity
  8
0
  6
CONTINUOUS
 62
     7
100
AcDbMText
 10
408.76102
 20
-326.053297
 30
0.0
 40
3.2
 41
0.0
 71
     2
 72
     1
  1
\W0.829;\A1;４．ＲＳ標準ロックスプロケットＳタイプの、Ｓ２５ＸＸのガイド穴径は全て\U+2205２２．５です。
  7
MX_NOTE_STANDARD
  0
MTEXT
  5
54
100
AcDbEntity
  8
0
  6
CONTINUOUS
 62
     7
100
AcDbMText
 10
416.76102
 20
-319.053297
 30
0.0
 40
3.2
 41
0.0
 71
     2
 72
     1
  1
\W0.828;\A1;３．基準点をスプロケット端面に合わせて、スプロケットのＣＡＤデータに本データを張り付けて下さい。
  7
MX_NOTE_STANDARD
  0
MTEXT
  5
55
100
AcDbEntity
  8
0
  6
CONTINUOUS
 62
     7
100
AcDbMText
 10
405.56102
 20
-312.053297
 30
0.0
 40
3.2
 41
0.0
 71
     2
 72
     1
  1
\W0.828;\A1;２．選定後、弊社ホームページよりスプロケットのＣＡＤデータをダウンロード願います。
  7
MX_NOTE_STANDARD
  0
MTEXT
  5
56
100
AcDbEntity
  8
0
  6
CONTINUOUS
 62
     7
100
AcDbMText
 10
357.561021
 20
-306.853297
 30
0.0
 40
3.2
 41
0.0
 71
     2
 72
     1
  1
\W0.893;\A1;  選定してください。
  7
MX_NOTE_STANDARD
  0
MTEXT
  5
57
100
AcDbEntity
  8
0
  6
CONTINUOUS
 62
     7
100
AcDbMText
 10
402.36102
 20
-302.053297
 30
0.0
 40
3.2
 41
0.0
 71
     2
 72
     1
  1
\W0.827;\A1;１．必ず弊社カタログをご確認の上、Ｓ２５ＸＸスリーブが適用可能なスプロケットを
  7
MX_NOTE_STANDARD
  0
MTEXT
  5
58
100
AcDbEntity
  8
0
  6
CONTINUOUS
 62
     7
100
AcDbMText
 10
391.16102
 20
-295.053297
 30
0.0
 40
3.2
 41
0.0
 71
     2
 72
     1
  1
\W0.853;\A1;※ロックスプロケット Ｓ２５ＸＸスリーブ ＣＡＤデータ使用方法※
  7
MX_NOTE_STANDARD
  0
LINE
  5
5A
100
AcDbEntity
  8
0
  6
DASHED
 62
     2
100
AcDbLine
 10
373.641183
 20
-275.787917
 30
0.0
 11
374.974516
 21
-273.478516
 31
0.0
  0
LINE
  5
5B
100
AcDbEntity
  8
0
  6
DASHED
 62
     2
100
AcDbLine
 10
373.641183
 20
-271.169115
 30
0.0
 11
374.974516
 21
-273.478516
 31
0.0
  0
LINE
  5
5C
100
AcDbEntity
  8
0
  6
DASHED
 62
     2
100
AcDbLine
 10
371.141183
 20
-272.323815
 30
0.0
 11
373.641183
 21
-272.323815
 31
0.0
  0
LINE
  5
5D
100
AcDbEntity
  8
0
  6
DASHED
 62
     2
100
AcDbLine
 10
371.141183
 20
-274.633216
 30
0.0
 11
373.641183
 21
-274.633216
 31
0.0
  0
LINE
  5
5E
100
AcDbEntity
  8
0
  6
DASHED
 62
     2
100
AcDbLine
 10
371.141183
 20
-271.169115
 30
0.0
 11
373.641183
 21
-271.169115
 31
0.0
  0
LINE
  5
5F
100
AcDbEntity
  8
0
  6
DASHED
 62
     2
100
AcDbLine
 10
371.141183
 20
-275.787917
 30
0.0
 11
373.641183
 21
-275.787917
 31
0.0
  0
LINE
  5
60
100
AcDbEntity
  8
0
  6
DASHED
 62
     2
100
AcDbLine
 10
373.974516
 20
-275.210566
 30
0.0
 11
373.641183
 21
-274.633216
 31
0.0
  0
LINE
  5
61
100
AcDbEntity
  8
0
  6
DASHED
 62
     2
100
AcDbLine
 10
373.974516
 20
-273.478516
 30
0.0
 11
373.641183
 21
-272.323815
 31
0.0
  0
LINE
  5
62
100
AcDbEntity
  8
0
  6
DASHED
 62
     2
100
AcDbLine
 10
373.641183
 20
-272.323815
 30
0.0
 11
373.974516
 21
-271.746465
 31
0.0
  0
LINE
  5
63
100
AcDbEntity
  8
0
  6
DASHED
 62
     2
100
AcDbLine
 10
373.974516
 20
-273.478516
 30
0.0
 11
373.641183
 21
-274.633216
 31
0.0
  0
LINE
  5
64
100
AcDbEntity
  8
0
  6
DASHED
 62
     2
100
AcDbLine
 10
373.641183
 20
-242.633216
 30
0.0
 11
373.974516
 21
-243.210566
 31
0.0
  0
LINE
  5
65
100
AcDbEntity
  8
0
  6
DASHED
 62
     2
100
AcDbLine
 10
373.974516
 20
-241.478516
 30
0.0
 11
373.641183
 21
-242.633216
 31
0.0
  0
LINE
  5
66
100
AcDbEntity
  8
0
  6
DASHED
 62
     2
100
AcDbLine
 10
373.974516
 20
-241.478516
 30
0.0
 11
373.641183
 21
-240.323815
 31
0.0
  0
LINE
  5
67
100
AcDbEntity
  8
0
  6
DASHED
 62
     2
100
AcDbLine
 10
373.974516
 20
-239.746465
 30
0.0
 11
373.641183
 21
-240.323815
 31
0.0
  0
LINE
  5
68
100
AcDbEntity
  8
0
  6
DASHED
 62
     2
100
AcDbLine
 10
373.641183
 20
-239.169115
 30
0.0
 11
374.974516
 21
-241.478516
 31
0.0
  0
LINE
  5
69
100
AcDbEntity
  8
0
  6
DASHED
 62
     2
100
AcDbLine
 10
373.641183
 20
-243.787917
 30
0.0
 11
374.974516
 21
-241.478516
 31
0.0
  0
LINE
  5
6A
100
AcDbEntity
  8
0
  6
DASHED
 62
     2
100
AcDbLine
 10
371.141183
 20
-242.633216
 30
0.0
 11
373.641183
 21
-242.633216
 31
0.0
  0
LINE
  5
6B
100
AcDbEntity
  8
0
  6
DASHED
 62
     2
100
AcDbLine
 10
371.141183
 20
-239.169115
 30
0.0
 11
373.641183
 21
-239.169115
 31
0.0
  0
LINE
  5
6C
100
AcDbEntity
  8
0
  6
DASHED
 62
     2
100
AcDbLine
 10
371.141183
 20
-240.323815
 30
0.0
 11
373.641183
 21
-240.323815
 31
0.0
  0
LINE
  5
6D
100
AcDbEntity
  8
0
  6
DASHED
 62
     2
100
AcDbLine
 10
371.141183
 20
-243.787917
 30
0.0
 11
373.641183
 21
-243.787917
 31
0.0
  0
CIRCLE
  5
6E
100
AcDbEntity
  8
0
  6
CONTINUOUS
 62
     4
100
AcDbCircle
 10
348.141183
 20
-243.622109
 30
0.0
 40
2.5
  0
CIRCLE
  5
6F
100
AcDbEntity
  8
0
  6
CONTINUOUS
 62
     4
100
AcDbCircle
 10
356.141183
 20
-257.478516
 30
0.0
 40
2.5
  0
CIRCLE
  5
70
100
AcDbEntity
  8
0
  6
CONTINUOUS
 62
     4
100
AcDbCircle
 10
324.141183
 20
-257.478516
 30
0.0
 40
2.5
  0
CIRCLE
  5
71
100
AcDbEntity
  8
0
  6
CONTINUOUS
 62
     4
100
AcDbCircle
 10
332.141183
 20
-271.334922
 30
0.0
 40
2.5
  0
CIRCLE
  5
72
100
AcDbEntity
  8
0
  6
CONTINUOUS
 62
     4
100
AcDbCircle
 10
332.141183
 20
-243.622109
 30
0.0
 40
2.5
  0
CIRCLE
  5
73
100
AcDbEntity
  8
0
  6
CONTINUOUS
 62
     4
100
AcDbCircle
 10
348.141183
 20
-271.334922
 30
0.0
 40
2.5
  0
LINE
  5
74
100
AcDbEntity
  8
0
  6
CONTINUOUS
 62
     4
100
AcDbLine
 10
377.323363
 20
-275.978516
 30
0.0
 11
378.016183
 21
-275.578516
 31
0.0
  0
LINE
  5
75
100
AcDbEntity
  8
0
  6
CONTINUOUS
 62
     4
100
AcDbLine
 10
377.323363
 20
-270.978516
 30
0.0
 11
378.016183
 21
-271.378516
 31
0.0
  0
LINE
  5
76
100
AcDbEntity
  8
0
  6
CONTINUOUS
 62
     4
100
AcDbLine
 10
393.741183
 20
-275.978516
 30
0.0
 11
397.141183
 21
-275.978516
 31
0.0
  0
LINE
  5
77
100
AcDbEntity
  8
0
  6
CONTINUOUS
 62
     4
100
AcDbLine
 10
393.741183
 20
-270.978516
 30
0.0
 11
397.141183
 21
-270.978516
 31
0.0
  0
LINE
  5
78
100
AcDbEntity
  8
0
  6
CONTINUOUS
 62
     4
100
AcDbLine
 10
378.016183
 20
-275.578516
 30
0.0
 11
394.141183
 21
-275.578516
 31
0.0
  0
LINE
  5
79
100
AcDbEntity
  8
0
  6
CONTINUOUS
 62
     4
100
AcDbLine
 10
378.016183
 20
-271.378516
 30
0.0
 11
394.141183
 21
-271.378516
 31
0.0
  0
LINE
  5
7A
100
AcDbEntity
  8
0
  6
CONTINUOUS
 62
     4
100
AcDbLine
 10
393.741183
 20
-243.978516
 30
0.0
 11
397.141183
 21
-243.978516
 31
0.0
  0
LINE
  5
7B
100
AcDbEntity
  8
0
  6
CONTINUOUS
 62
     4
100
AcDbLine
 10
393.741183
 20
-238.978516
 30
0.0
 11
397.141183
 21
-238.978516
 31
0.0
  0
LINE
  5
7C
100
AcDbEntity
  8
0
  6
CONTINUOUS
 62
     4
100
AcDbLine
 10
377.323363
 20
-243.978516
 30
0.0
 11
378.016183
 21
-243.578516
 31
0.0
  0
LINE
  5
7D
100
AcDbEntity
  8
0
  6
CONTINUOUS
 62
     4
100
AcDbLine
 10
377.323363
 20
-238.978516
 30
0.0
 11
378.016183
 21
-239.378516
 31
0.0
  0
LINE
  5
7E
100
AcDbEntity
  8
0
  6
CONTINUOUS
 62
     4
100
AcDbLine
 10
378.016183
 20
-243.578516
 30
0.0
 11
394.141183
 21
-243.578516
 31
0.0
  0
LINE
  5
7F
100
AcDbEntity
  8
0
  6
CONTINUOUS
 62
     4
100
AcDbLine
 10
378.016183
 20
-239.378516
 30
0.0
 11
394.141183
 21
-239.378516
 31
0.0
  0
CIRCLE
  5
81
100
AcDbEntity
  8
0
  6
CENTER
 62
     7
100
AcDbCircle
 10
340.141183
 20
-257.478516
 30
0.0
 40
16.0
  0
LINE
  5
82
100
AcDbEntity
  8
0
  6
CENTER
 62
     7
100
AcDbLine
 10
409.301201
 20
-383.957887
 30
0.0
 11
433.76573
 21
-383.957887
 31
0.0
  0
LINE
  5
83
100
AcDbEntity
  8
0
  6
CENTER
 62
     7
100
AcDbLine
 10
413.46573
 20
-346.492887
 30
0.0
 11
413.46573
 21
-354.492887
 31
0.0
  0
LINE
  5
84
100
AcDbEntity
  8
0
  6
CENTER
 62
     7
100
AcDbLine
 10
409.46573
 20
-350.492887
 30
0.0
 11
417.46573
 21
-350.492887
 31
0.0
  0
LINE
  5
85
100
AcDbEntity
  8
0
  6
CENTER
 62
     7
100
AcDbLine
 10
413.46573
 20
-421.422887
 30
0.0
 11
413.46573
 21
-413.422887
 31
0.0
  0
LINE
  5
86
100
AcDbEntity
  8
0
  6
CENTER
 62
     7
100
AcDbLine
 10
409.46573
 20
-417.422887
 30
0.0
 11
417.46573
 21
-417.422887
 31
0.0
  0
LINE
  5
87
100
AcDbEntity
  8
0
  6
CENTER
 62
     7
100
AcDbLine
 10
370.395175
 20
-273.478516
 30
0.0
 11
401.820137
 21
-273.478516
 31
0.0
  0
LINE
  5
88
100
AcDbEntity
  8
0
  6
CENTER
 62
     7
100
AcDbLine
 10
329.141183
 20
-276.531075
 30
0.0
 11
351.141183
 21
-238.425957
 31
0.0
  0
LINE
  5
89
100
AcDbEntity
  8
0
  6
CENTER
 62
     7
100
AcDbLine
 10
321.088624
 20
-268.478516
 30
0.0
 11
359.193742
 21
-246.478516
 31
0.0
  0
LINE
  5
8A
100
AcDbEntity
  8
0
  6
CENTER
 62
     7
100
AcDbLine
 10
321.088624
 20
-246.478516
 30
0.0
 11
359.193742
 21
-268.478516
 31
0.0
  0
LINE
  5
8B
100
AcDbEntity
  8
0
  6
CENTER
 62
     7
100
AcDbLine
 10
329.141183
 20
-238.425957
 30
0.0
 11
351.141183
 21
-276.531075
 31
0.0
  0
LINE
  5
8C
100
AcDbEntity
  8
0
  6
CENTER
 62
     7
100
AcDbLine
 10
318.141183
 20
-257.478516
 30
0.0
 11
362.141183
 21
-257.478516
 31
0.0
  0
LINE
  5
8D
100
AcDbEntity
  8
0
  6
CENTER
 62
     7
100
AcDbLine
 10
340.141183
 20
-235.478516
 30
0.0
 11
340.141183
 21
-279.478516
 31
0.0
  0
LINE
  5
8E
100
AcDbEntity
  8
0
  6
CENTER
 62
     7
100
AcDbLine
 10
370.395175
 20
-241.478516
 30
0.0
 11
401.820137
 21
-241.478516
 31
0.0
  0
LINE
  5
8F
100
AcDbEntity
  8
0
  6
CENTER
 62
     7
100
AcDbLine
 10
374.141183
 20
-257.478516
 30
0.0
 11
410.233515
 21
-257.478516
 31
0.0
  0
LINE
  5
90
100
AcDbEntity
  8
0
  6
CONTINUOUS
 62
     4
100
AcDbLine
 10
502.281699
 20
-235.713267
 30
0.0
 11
502.281699
 21
-280.713267
 31
0.0
  0
LINE
  5
91
100
AcDbEntity
  8
0
  6
CONTINUOUS
 62
     4
100
AcDbLine
 10
464.029047
 20
-243.213267
 30
0.0
 11
464.029047
 21
-280.713267
 31
0.0
  0
LINE
  5
92
100
AcDbEntity
  8
0
  6
CONTINUOUS
 62
     4
100
AcDbLine
 10
431.432979
 20
-235.713267
 30
0.0
 11
502.281699
 21
-235.713267
 31
0.0
  0
LINE
  5
93
100
AcDbEntity
  8
0
  6
CONTINUOUS
 62
     4
100
AcDbLine
 10
431.432979
 20
-243.213267
 30
0.0
 11
502.281699
 21
-243.213267
 31
0.0
  0
LINE
  5
94
100
AcDbEntity
  8
0
  6
CONTINUOUS
 62
     4
100
AcDbLine
 10
431.432979
 20
-250.713267
 30
0.0
 11
502.281699
 21
-250.713267
 31
0.0
  0
LINE
  5
95
100
AcDbEntity
  8
0
  6
CONTINUOUS
 62
     4
100
AcDbLine
 10
431.432979
 20
-258.213267
 30
0.0
 11
502.281699
 21
-258.213267
 31
0.0
  0
LINE
  5
96
100
AcDbEntity
  8
0
  6
CONTINUOUS
 62
     4
100
AcDbLine
 10
431.432979
 20
-235.713267
 30
0.0
 11
431.432979
 21
-280.713267
 31
0.0
  0
LINE
  5
97
100
AcDbEntity
  8
0
  6
CONTINUOUS
 62
     4
100
AcDbLine
 10
431.432979
 20
-265.713267
 30
0.0
 11
502.281699
 21
-265.713267
 31
0.0
  0
LINE
  5
98
100
AcDbEntity
  8
0
  6
CONTINUOUS
 62
     4
100
AcDbLine
 10
431.432979
 20
-280.713267
 30
0.0
 11
502.281699
 21
-280.713267
 31
0.0
  0
LINE
  5
99
100
AcDbEntity
  8
0
  6
CONTINUOUS
 62
     4
100
AcDbLine
 10
431.432979
 20
-273.213267
 30
0.0
 11
502.281699
 21
-273.213267
 31
0.0
  0
SPLINE
  5
9A
100
AcDbEntity
  8
0
  6
CONTINUOUS
 62
     7
100
AcDbSpline
210
0.0
220
0.0
230
1.0
 70
     0
 71
     3
 72
     0
 73
     0
 74
    81
 44
0.000001
 12
0.8497811830560993
 22
0.5271356001293939
 32
0.0
 13
-0.8835893746984848
 23
0.4682625512679192
 33
0.0
 11
385.14118303571428
 21
-232.8517325649874
 31
0.0
 11
386.14401514299612
 21
-232.28210451469494
 31
0.0
 11
387.196961640084
 21
-231.78806574477011
 31
0.0
 11
388.28961609080812
 21
-231.38156355310934
 31
0.0
 11
389.41157205899873
 21
-231.07454523760902
 31
0.0
 11
390.55242310848598
 21
-230.8789580961656
 31
0.0
 11
391.70176336398282
 21
-230.80674461212993
 31
0.0
 11
392.85000051876563
 21
-230.86286369973834
 31
0.0
 11
393.98998241218379
 21
-231.03132836955814
 31
0.0
 11
395.11501244971419
 21
-231.29224111043999
 31
0.0
 11
396.2183940368335
 21
-231.62570441123441
 31
0.0
 11
397.29398570685669
 21
-232.01241296699453
 31
0.0
 11
398.34345502432484
 21
-232.44139208855353
 31
0.0
 11
399.37423634405769
 21
-232.90781905524156
 31
0.0
 11
400.39389889622896
 21
-233.40701503040142
 31
0.0
 11
401.41001191101168
 21
-233.93430117737583
 31
0.0
 11
402.43014461857894
 21
-234.48499865950726
 31
0.0
 11
403.46186624910428
 21
-235.05442864013858
 31
0.0
 11
404.50868404606808
 21
-235.63997083822986
 31
0.0
 11
405.54969164394265
 21
-236.25137743374785
 31
0.0
 11
406.55490449377578
 21
-236.90300129762616
 31
0.0
 11
407.49432287002463
 21
-237.60920299207328
 31
0.0
 11
408.3379470471462
 21
-238.38434307929759
 31
0.0
 11
409.05577729959748
 21
-239.24278212150759
 31
0.0
 11
409.61781399849372
 21
-240.19888059165086
 31
0.0
 11
410.00395003616683
 21
-241.25786350262248
 31
0.0
 11
410.23113963669374
 21
-242.39073078877388
 31
0.0
 11
410.32501445924572
 21
-243.56046902164215
 31
0.0
 11
410.31107276424899
 21
-244.73050879778179
 31
0.0
 11
410.20972798634835
 21
-245.88120583446243
 31
0.0
 11
410.03484606349832
 21
-247.01470954978535
 31
0.0
 11
409.79986112666086
 21
-248.13460665504283
 31
0.0
 11
409.51820730679805
 21
-249.24448386152704
 31
0.0
 11
409.20343095058485
 21
-250.34792500103305
 31
0.0
 11
408.87154373458623
 21
-251.44845064406971
 31
0.0
 11
408.54096008689277
 21
-252.54951970564392
 31
0.0
 11
408.23019413304183
 21
-253.6545885424888
 31
0.0
 11
407.95775999857068
 21
-254.76711351133753
 31
0.0
 11
407.74217180901678
 21
-255.89055096892326
 31
0.0
 11
407.60095810896087
 21
-257.02789132539516
 31
0.0
 11
407.54004317103437
 21
-258.17663891607714
 31
0.0
 11
407.55779429469419
 21
-259.33072541611477
 31
0.0
 11
407.65244963131624
 21
-260.48402144417042
 31
0.0
 11
407.82224733227611
 21
-261.63039761890656
 31
0.0
 11
408.06542554895026
 21
-262.76372455898564
 31
0.0
 11
408.38022243271422
 21
-263.8778728830701
 31
0.0
 11
408.76106257523026
 21
-264.96882584902949
 31
0.0
 11
409.18331701125834
 21
-266.04312202115904
 31
0.0
 11
409.61641823242144
 21
-267.11058980317034
 31
0.0
 11
410.02979679269373
 21
-268.181058672196
 31
0.0
 11
410.392883246049
 21
-269.2643581053681
 31
0.0
 11
410.67510814646147
 21
-270.37031757981936
 31
0.0
 11
410.84602907859846
 21
-271.5086127455146
 31
0.0
 11
410.88523199295338
 21
-272.67677545422487
 31
0.0
 11
410.78941569146599
 21
-273.85161483797748
 31
0.0
 11
410.55695102948005
 21
-275.00791526429947
 31
0.0
 11
410.1862088623401
 21
-276.12046110071816
 31
0.0
 11
409.67556004539045
 21
-277.16403671476087
 31
0.0
 11
409.02390189550806
 21
-278.11402886483575
 31
0.0
 11
408.24224698679814
 21
-278.9596868995327
 31
0.0
 11
407.35372684172671
 21
-279.70412698111306
 31
0.0
 11
406.38200018251962
 21
-280.35106850741721
 31
0.0
 11
405.35072573140258
 21
-280.90423087628574
 31
0.0
 11
404.28349871874957
 21
-281.36735253206166
 31
0.0
 11
403.19691104612974
 21
-281.74627280158774
 31
0.0
 11
402.09430391728955
 21
-282.05080600130566
 31
0.0
 11
400.97754395881014
 21
-282.29120879635275
 31
0.0
 11
399.84849779727313
 21
-282.47773785186627
 31
0.0
 11
398.70903205925941
 21
-282.62064983298359
 31
0.0
 11
397.5610133713505
 21
-282.73020140484192
 31
0.0
 11
396.40630836012747
 21
-282.81664923257858
 31
0.0
 11
395.24678365217176
 21
-282.8902499813309
 31
0.0
 11
394.08432040246601
 21
-282.96105019411073
 31
0.0
 11
392.9216654133607
 21
-283.02657668390975
 31
0.0
 11
391.76290376954876
 21
-283.06500088386196
 31
0.0
 11
390.61223527204947
 21
-283.05283510182079
 31
0.0
 11
389.47385972188175
 21
-282.96659164563954
 31
0.0
 11
388.35197692006489
 21
-282.78278282317154
 31
0.0
 11
387.25100692630309
 21
-282.48043707003166
 31
0.0
 11
386.17789188585147
 21
-282.06739389675027
 31
0.0
 11
385.14118303571439
 21
-281.56987429298562
 31
0.0
  0
ARC
  5
9B
100
AcDbEntity
  8
0
  6
CONTINUOUS
 62
     7
100
AcDbCircle
 10
416.06573
 20
-357.057887
 30
0.0
 40
0.4
100
AcDbArc
 50
180.0
 51
270.0
  0
ARC
  5
9C
100
AcDbEntity
  8
0
  6
CONTINUOUS
 62
     7
100
AcDbCircle
 10
405.56573
 20
-352.757887
 30
0.0
 40
10.1
100
AcDbArc
 50
0.0
 51
28.375468
  0
ARC
  5
9D
100
AcDbEntity
  8
0
  6
CONTINUOUS
 62
     7
100
AcDbCircle
 10
421.36573
 20
-352.757887
 30
0.0
 40
10.1
100
AcDbArc
 50
151.624532
 51
180.0
  0
ARC
  5
9E
100
AcDbEntity
  8
0
  6
CONTINUOUS
 62
     7
100
AcDbCircle
 10
421.36573
 20
-415.157887
 30
0.0
 40
10.1
100
AcDbArc
 50
180.0
 51
208.375468
  0
ARC
  5
9F
100
AcDbEntity
  8
0
  6
CONTINUOUS
 62
     7
100
AcDbCircle
 10
416.06573
 20
-410.857887
 30
0.0
 40
0.4
100
AcDbArc
 50
90.0
 51
180.0
  0
ARC
  5
A0
100
AcDbEntity
  8
0
  6
CONTINUOUS
 62
     7
100
AcDbCircle
 10
405.56573
 20
-415.157887
 30
0.0
 40
10.1
100
AcDbArc
 50
331.624532
 51
0.0
  0
CIRCLE
  5
A1
100
AcDbEntity
  8
0
  6
CONTINUOUS
 62
     7
100
AcDbCircle
 10
326.284777
 20
-265.478516
 30
0.0
 40
4.25
  0
CIRCLE
  5
A2
100
AcDbEntity
  8
0
  6
CONTINUOUS
 62
     7
100
AcDbCircle
 10
326.284777
 20
-265.478516
 30
0.0
 40
3.75
  0
CIRCLE
  5
A3
100
AcDbEntity
  8
0
  6
CONTINUOUS
 62
     7
100
AcDbCircle
 10
353.997589
 20
-265.478516
 30
0.0
 40
4.25
  0
CIRCLE
  5
A4
100
AcDbEntity
  8
0
  6
CONTINUOUS
 62
     7
100
AcDbCircle
 10
353.997589
 20
-265.478516
 30
0.0
 40
3.75
  0
CIRCLE
  5
A5
100
AcDbEntity
  8
0
  6
CONTINUOUS
 62
     7
100
AcDbCircle
 10
340.141183
 20
-273.478516
 30
0.0
 40
3.75
  0
CIRCLE
  5
A6
100
AcDbEntity
  8
0
  6
CONTINUOUS
 62
     7
100
AcDbCircle
 10
340.141183
 20
-273.478516
 30
0.0
 40
4.25
  0
CIRCLE
  5
A7
100
AcDbEntity
  8
0
  6
CONTINUOUS
 62
     7
100
AcDbCircle
 10
353.997589
 20
-249.478516
 30
0.0
 40
2.7
  0
CIRCLE
  5
A8
100
AcDbEntity
  8
0
  6
CONTINUOUS
 62
     7
100
AcDbCircle
 10
326.284777
 20
-249.478516
 30
0.0
 40
4.25
  0
CIRCLE
  5
A9
100
AcDbEntity
  8
0
  6
CONTINUOUS
 62
     7
100
AcDbCircle
 10
326.284777
 20
-249.478516
 30
0.0
 40
3.75
  0
CIRCLE
  5
AA
100
AcDbEntity
  8
0
  6
CONTINUOUS
 62
     7
100
AcDbCircle
 10
340.141183
 20
-241.478516
 30
0.0
 40
4.25
  0
CIRCLE
  5
AB
100
AcDbEntity
  8
0
  6
CONTINUOUS
 62
     7
100
AcDbCircle
 10
340.141183
 20
-241.478516
 30
0.0
 40
3.75
  0
CIRCLE
  5
AC
100
AcDbEntity
  8
0
  6
CONTINUOUS
 62
     7
100
AcDbCircle
 10
348.141183
 20
-243.622109
 30
0.0
 40
2.1
  0
CIRCLE
  5
AD
100
AcDbEntity
  8
0
  6
CONTINUOUS
 62
     7
100
AcDbCircle
 10
356.141183
 20
-257.478516
 30
0.0
 40
2.1
  0
ARC
  5
AE
100
AcDbEntity
  8
0
  6
CONTINUOUS
 62
     7
100
AcDbCircle
 10
383.141183
 20
-267.478516
 30
0.0
 40
1.0
100
AcDbArc
 50
180.0
 51
0.0
  0
ARC
  5
AF
100
AcDbEntity
  8
0
  6
CONTINUOUS
 62
     7
100
AcDbCircle
 10
383.141183
 20
-247.478516
 30
0.0
 40
1.0
100
AcDbArc
 50
0.0
 51
180.0
  0
CIRCLE
  5
B0
100
AcDbEntity
  8
0
  6
CONTINUOUS
 62
     7
100
AcDbCircle
 10
324.141183
 20
-257.478516
 30
0.0
 40
2.1
  0
CIRCLE
  5
B1
100
AcDbEntity
  8
0
  6
CONTINUOUS
 62
     7
100
AcDbCircle
 10
348.141183
 20
-271.334922
 30
0.0
 40
2.1
  0
CIRCLE
  5
B2
100
AcDbEntity
  8
0
  6
CONTINUOUS
 62
     7
100
AcDbCircle
 10
332.141183
 20
-243.622109
 30
0.0
 40
2.1
  0
CIRCLE
  5
B3
100
AcDbEntity
  8
0
  6
CONTINUOUS
 62
     7
100
AcDbCircle
 10
332.141183
 20
-271.334922
 30
0.0
 40
2.1
  0
CIRCLE
  5
B4
100
AcDbEntity
  8
0
  6
CONTINUOUS
 62
     7
100
AcDbCircle
 10
340.141183
 20
-257.478516
 30
0.0
 40
21.0
  0
CIRCLE
  5
B5
100
AcDbEntity
  8
0
  6
CONTINUOUS
 62
     7
100
AcDbCircle
 10
340.141183
 20
-257.478516
 30
0.0
 40
7.5
  0
LINE
  5
B6
100
AcDbEntity
  8
0
  6
CONTINUOUS
 62
     7
100
AcDbLine
 10
411.26573
 20
-352.757887
 30
0.0
 11
411.26573
 21
-415.157887
 31
0.0
  0
LINE
  5
B7
100
AcDbEntity
  8
0
  6
CONTINUOUS
 62
     7
100
AcDbLine
 10
415.66573
 20
-352.757887
 30
0.0
 11
415.66573
 21
-357.057887
 31
0.0
  0
LINE
  5
B8
100
AcDbEntity
  8
0
  6
CONTINUOUS
 62
     7
100
AcDbLine
 10
416.06573
 20
-357.457887
 30
0.0
 11
428.76573
 21
-357.457887
 31
0.0
  0
LINE
  5
B9
100
AcDbEntity
  8
0
  6
CONTINUOUS
 62
     7
100
AcDbLine
 10
431.26573
 20
-359.957887
 30
0.0
 11
431.26573
 21
-407.957887
 31
0.0
  0
LINE
  5
BA
100
AcDbEntity
  8
0
  6
CONTINUOUS
 62
     7
100
AcDbLine
 10
411.26573
 20
-377.607887
 30
0.0
 11
431.26573
 21
-377.607887
 31
0.0
  0
LINE
  5
BB
100
AcDbEntity
  8
0
  6
CONTINUOUS
 62
     7
100
AcDbLine
 10
412.479223
 20
-347.957887
 30
0.0
 11
414.452237
 21
-347.957887
 31
0.0
  0
LINE
  5
BC
100
AcDbEntity
  8
0
  6
CONTINUOUS
 62
     7
100
AcDbLine
 10
411.26573
 20
-353.037887
 30
0.0
 11
415.66573
 21
-353.037887
 31
0.0
  0
LINE
  5
BD
100
AcDbEntity
  8
0
  6
CONTINUOUS
 62
     7
100
AcDbLine
 10
415.66573
 20
-415.157887
 30
0.0
 11
415.66573
 21
-410.857887
 31
0.0
  0
LINE
  5
BE
100
AcDbEntity
  8
0
  6
CONTINUOUS
 62
     7
100
AcDbLine
 10
416.06573
 20
-410.457887
 30
0.0
 11
428.76573
 21
-410.457887
 31
0.0
  0
LINE
  5
BF
100
AcDbEntity
  8
0
  6
CONTINUOUS
 62
     7
100
AcDbLine
 10
411.26573
 20
-390.307887
 30
0.0
 11
431.26573
 21
-390.307887
 31
0.0
  0
LINE
  5
C0
100
AcDbEntity
  8
0
  6
CONTINUOUS
 62
     7
100
AcDbLine
 10
411.26573
 20
-414.877887
 30
0.0
 11
415.66573
 21
-414.877887
 31
0.0
  0
LINE
  5
C1
100
AcDbEntity
  8
0
  6
CONTINUOUS
 62
     7
100
AcDbLine
 10
412.479223
 20
-419.957887
 30
0.0
 11
414.452237
 21
-419.957887
 31
0.0
  0
LINE
  5
C2
100
AcDbEntity
  8
0
  6
CONTINUOUS
 62
     7
100
AcDbLine
 10
431.26573
 20
-407.957887
 30
0.0
 11
428.76573
 21
-410.457887
 31
0.0
  0
LINE
  5
C3
100
AcDbEntity
  8
0
  6
CONTINUOUS
 62
     7
100
AcDbLine
 10
428.76573
 20
-357.457887
 30
0.0
 11
431.26573
 21
-359.957887
 31
0.0
  0
LINE
  5
C4
100
AcDbEntity
  8
0
  6
CONTINUOUS
 62
     7
100
AcDbLine
 10
326.284777
 20
-263.169115
 30
0.0
 11
328.284777
 21
-264.323815
 31
0.0
  0
LINE
  5
C5
100
AcDbEntity
  8
0
  6
CONTINUOUS
 62
     7
100
AcDbLine
 10
324.284777
 20
-264.323815
 30
0.0
 11
326.284777
 21
-263.169115
 31
0.0
  0
LINE
  5
C6
100
AcDbEntity
  8
0
  6
CONTINUOUS
 62
     7
100
AcDbLine
 10
326.284777
 20
-267.787917
 30
0.0
 11
328.284777
 21
-266.633216
 31
0.0
  0
LINE
  5
C7
100
AcDbEntity
  8
0
  6
CONTINUOUS
 62
     7
100
AcDbLine
 10
324.284777
 20
-266.633216
 30
0.0
 11
326.284777
 21
-267.787917
 31
0.0
  0
LINE
  5
C8
100
AcDbEntity
  8
0
  6
CONTINUOUS
 62
     7
100
AcDbLine
 10
324.284777
 20
-264.323815
 30
0.0
 11
324.284777
 21
-266.633216
 31
0.0
  0
LINE
  5
C9
100
AcDbEntity
  8
0
  6
CONTINUOUS
 62
     7
100
AcDbLine
 10
328.284777
 20
-264.323815
 30
0.0
 11
328.284777
 21
-266.633216
 31
0.0
  0
LINE
  5
CA
100
AcDbEntity
  8
0
  6
CONTINUOUS
 62
     7
100
AcDbLine
 10
342.141183
 20
-272.323815
 30
0.0
 11
340.141183
 21
-271.169115
 31
0.0
  0
LINE
  5
CB
100
AcDbEntity
  8
0
  6
CONTINUOUS
 62
     7
100
AcDbLine
 10
342.141183
 20
-274.633216
 30
0.0
 11
342.141183
 21
-272.323815
 31
0.0
  0
LINE
  5
CC
100
AcDbEntity
  8
0
  6
CONTINUOUS
 62
     7
100
AcDbLine
 10
338.141183
 20
-274.633216
 30
0.0
 11
338.141183
 21
-272.323815
 31
0.0
  0
LINE
  5
CD
100
AcDbEntity
  8
0
  6
CONTINUOUS
 62
     7
100
AcDbLine
 10
340.141183
 20
-275.787917
 30
0.0
 11
338.141183
 21
-274.633216
 31
0.0
  0
LINE
  5
CE
100
AcDbEntity
  8
0
  6
CONTINUOUS
 62
     7
100
AcDbLine
 10
351.997589
 20
-264.323815
 30
0.0
 11
353.997589
 21
-263.169115
 31
0.0
  0
LINE
  5
CF
100
AcDbEntity
  8
0
  6
CONTINUOUS
 62
     7
100
AcDbLine
 10
353.997589
 20
-267.787917
 30
0.0
 11
355.997589
 21
-266.633216
 31
0.0
  0
LINE
  5
D0
100
AcDbEntity
  8
0
  6
CONTINUOUS
 62
     7
100
AcDbLine
 10
351.997589
 20
-266.633216
 30
0.0
 11
351.997589
 21
-264.323815
 31
0.0
  0
LINE
  5
D1
100
AcDbEntity
  8
0
  6
CONTINUOUS
 62
     7
100
AcDbLine
 10
355.997589
 20
-266.633216
 30
0.0
 11
355.997589
 21
-264.323815
 31
0.0
  0
LINE
  5
D2
100
AcDbEntity
  8
0
  6
CONTINUOUS
 62
     7
100
AcDbLine
 10
353.997589
 20
-267.787917
 30
0.0
 11
351.997589
 21
-266.633216
 31
0.0
  0
LINE
  5
D3
100
AcDbEntity
  8
0
  6
CONTINUOUS
 62
     7
100
AcDbLine
 10
355.997589
 20
-264.323815
 30
0.0
 11
353.997589
 21
-263.169115
 31
0.0
  0
LINE
  5
D4
100
AcDbEntity
  8
0
  6
CONTINUOUS
 62
     7
100
AcDbLine
 10
340.141183
 20
-271.169115
 30
0.0
 11
338.141183
 21
-272.323815
 31
0.0
  0
LINE
  5
D5
100
AcDbEntity
  8
0
  6
CONTINUOUS
 62
     7
100
AcDbLine
 10
342.141183
 20
-274.633216
 30
0.0
 11
340.141183
 21
-275.787917
 31
0.0
  0
LINE
  5
D6
100
AcDbEntity
  8
0
  6
CONTINUOUS
 62
     7
100
AcDbLine
 10
328.284777
 20
-250.633216
 30
0.0
 11
326.284777
 21
-251.787917
 31
0.0
  0
LINE
  5
D7
100
AcDbEntity
  8
0
  6
CONTINUOUS
 62
     7
100
AcDbLine
 10
326.284777
 20
-247.169115
 30
0.0
 11
324.284777
 21
-248.323815
 31
0.0
  0
LINE
  5
D8
100
AcDbEntity
  8
0
  6
CONTINUOUS
 62
     7
100
AcDbLine
 10
328.284777
 20
-248.323815
 30
0.0
 11
328.284777
 21
-250.633216
 31
0.0
  0
LINE
  5
D9
100
AcDbEntity
  8
0
  6
CONTINUOUS
 62
     7
100
AcDbLine
 10
324.284777
 20
-248.323815
 30
0.0
 11
324.284777
 21
-250.633216
 31
0.0
  0
LINE
  5
DA
100
AcDbEntity
  8
0
  6
CONTINUOUS
 62
     7
100
AcDbLine
 10
326.284777
 20
-247.169115
 30
0.0
 11
328.284777
 21
-248.323815
 31
0.0
  0
LINE
  5
DB
100
AcDbEntity
  8
0
  6
CONTINUOUS
 62
     7
100
AcDbLine
 10
324.284777
 20
-250.633216
 30
0.0
 11
326.284777
 21
-251.787917
 31
0.0
  0
LINE
  5
DC
100
AcDbEntity
  8
0
  6
CONTINUOUS
 62
     7
100
AcDbLine
 10
385.141183
 20
-275.978516
 30
0.0
 11
385.141183
 21
-281.569874
 31
0.0
  0
LINE
  5
DD
100
AcDbEntity
  8
0
  6
CONTINUOUS
 62
     7
100
AcDbLine
 10
385.141183
 20
-270.078516
 30
0.0
 11
385.141183
 21
-270.978516
 31
0.0
  0
LINE
  5
DE
100
AcDbEntity
  8
0
  6
CONTINUOUS
 62
     7
100
AcDbLine
 10
385.141183
 20
-256.978516
 30
0.0
 11
385.141183
 21
-257.978516
 31
0.0
  0
LINE
  5
DF
100
AcDbEntity
  8
0
  6
CONTINUOUS
 62
     7
100
AcDbLine
 10
385.141183
 20
-243.978516
 30
0.0
 11
385.141183
 21
-244.878516
 31
0.0
  0
LINE
  5
E0
100
AcDbEntity
  8
0
  6
CONTINUOUS
 62
     7
100
AcDbLine
 10
385.141183
 20
-232.851733
 30
0.0
 11
385.141183
 21
-238.978516
 31
0.0
  0
LINE
  5
E1
100
AcDbEntity
  8
0
  6
CONTINUOUS
 62
     7
100
AcDbLine
 10
400.141183
 20
-268.728516
 30
0.0
 11
410.222235
 21
-268.728516
 31
0.0
  0
LINE
  5
E2
100
AcDbEntity
  8
0
  6
CONTINUOUS
 62
     7
100
AcDbLine
 10
400.141183
 20
-246.228516
 30
0.0
 11
410.163573
 21
-246.228516
 31
0.0
  0
LINE
  5
E3
100
AcDbEntity
  8
0
  6
CONTINUOUS
 62
     7
100
AcDbLine
 10
400.141183
 20
-246.190846
 30
0.0
 11
400.141183
 21
-268.766186
 31
0.0
  0
LINE
  5
E4
100
AcDbEntity
  8
0
  6
CONTINUOUS
 62
     7
100
AcDbLine
 10
383.141183
 20
-275.978516
 30
0.0
 11
383.141183
 21
-278.478516
 31
0.0
  0
LINE
  5
E5
100
AcDbEntity
  8
0
  6
CONTINUOUS
 62
     7
100
AcDbLine
 10
371.141183
 20
-269.728516
 30
0.0
 11
371.641183
 21
-269.228516
 31
0.0
  0
LINE
  5
E6
100
AcDbEntity
  8
0
  6
CONTINUOUS
 62
     7
100
AcDbLine
 10
393.741183
 20
-270.978516
 30
0.0
 11
394.141183
 21
-271.378516
 31
0.0
  0
LINE
  5
E7
100
AcDbEntity
  8
0
  6
CONTINUOUS
 62
     7
100
AcDbLine
 10
371.141183
 20
-277.228516
 30
0.0
 11
371.641183
 21
-277.728516
 31
0.0
  0
LINE
  5
E8
100
AcDbEntity
  8
0
  6
CONTINUOUS
 62
     7
100
AcDbLine
 10
371.641183
 20
-269.228516
 30
0.0
 11
371.641183
 21
-277.728516
 31
0.0
  0
LINE
  5
E9
100
AcDbEntity
  8
0
  6
CONTINUOUS
 62
     7
100
AcDbLine
 10
393.741183
 20
-275.978516
 30
0.0
 11
393.741183
 21
-270.978516
 31
0.0
  0
LINE
  5
EA
100
AcDbEntity
  8
0
  6
CONTINUOUS
 62
     7
100
AcDbLine
 10
393.741183
 20
-275.978516
 30
0.0
 11
394.141183
 21
-275.578516
 31
0.0
  0
LINE
  5
EB
100
AcDbEntity
  8
0
  6
CONTINUOUS
 62
     7
100
AcDbLine
 10
397.141183
 20
-275.978516
 30
0.0
 11
397.141183
 21
-270.978516
 31
0.0
  0
LINE
  5
EC
100
AcDbEntity
  8
0
  6
CONTINUOUS
 62
     7
100
AcDbLine
 10
400.141183
 20
-275.578516
 30
0.0
 11
400.141183
 21
-271.378516
 31
0.0
  0
LINE
  5
ED
100
AcDbEntity
  8
0
  6
CONTINUOUS
 62
     7
100
AcDbLine
 10
400.141183
 20
-271.378516
 30
0.0
 11
401.353619
 21
-273.478516
 31
0.0
  0
LINE
  5
EE
100
AcDbEntity
  8
0
  6
CONTINUOUS
 62
     7
100
AcDbLine
 10
400.141183
 20
-275.578516
 30
0.0
 11
401.353619
 21
-273.478516
 31
0.0
  0
LINE
  5
EF
100
AcDbEntity
  8
0
  6
CONTINUOUS
 62
     7
100
AcDbLine
 10
394.141183
 20
-275.578516
 30
0.0
 11
400.141183
 21
-275.578516
 31
0.0
  0
LINE
  5
F0
100
AcDbEntity
  8
0
  6
CONTINUOUS
 62
     7
100
AcDbLine
 10
394.141183
 20
-271.378516
 30
0.0
 11
400.141183
 21
-271.378516
 31
0.0
  0
LINE
  5
F1
100
AcDbEntity
  8
0
  6
CONTINUOUS
 62
     7
100
AcDbLine
 10
371.141183
 20
-269.728516
 30
0.0
 11
371.141183
 21
-277.228516
 31
0.0
  0
LINE
  5
F2
100
AcDbEntity
  8
0
  6
CONTINUOUS
 62
     7
100
AcDbLine
 10
394.141183
 20
-271.378516
 30
0.0
 11
394.141183
 21
-275.578516
 31
0.0
  0
LINE
  5
F3
100
AcDbEntity
  8
0
  6
CONTINUOUS
 62
     7
100
AcDbLine
 10
371.641183
 20
-277.728516
 30
0.0
 11
376.141183
 21
-277.728516
 31
0.0
  0
LINE
  5
F4
100
AcDbEntity
  8
0
  6
CONTINUOUS
 62
     7
100
AcDbLine
 10
371.641183
 20
-269.228516
 30
0.0
 11
376.141183
 21
-269.228516
 31
0.0
  0
LINE
  5
F5
100
AcDbEntity
  8
0
  6
CONTINUOUS
 62
     7
100
AcDbLine
 10
376.141183
 20
-275.978516
 30
0.0
 11
393.741183
 21
-275.978516
 31
0.0
  0
LINE
  5
F6
100
AcDbEntity
  8
0
  6
CONTINUOUS
 62
     7
100
AcDbLine
 10
376.141183
 20
-270.978516
 30
0.0
 11
393.741183
 21
-270.978516
 31
0.0
  0
LINE
  5
F7
100
AcDbEntity
  8
0
  6
CONTINUOUS
 62
     7
100
AcDbLine
 10
378.016183
 20
-270.978516
 30
0.0
 11
378.016183
 21
-275.978516
 31
0.0
  0
LINE
  5
F8
100
AcDbEntity
  8
0
  6
CONTINUOUS
 62
     7
100
AcDbLine
 10
400.141183
 20
-239.378516
 30
0.0
 11
401.353619
 21
-241.478516
 31
0.0
  0
LINE
  5
F9
100
AcDbEntity
  8
0
  6
CONTINUOUS
 62
     7
100
AcDbLine
 10
400.141183
 20
-243.578516
 30
0.0
 11
401.353619
 21
-241.478516
 31
0.0
  0
LINE
  5
FA
100
AcDbEntity
  8
0
  6
CONTINUOUS
 62
     7
100
AcDbLine
 10
394.141183
 20
-243.578516
 30
0.0
 11
400.141183
 21
-243.578516
 31
0.0
  0
LINE
  5
FB
100
AcDbEntity
  8
0
  6
CONTINUOUS
 62
     7
100
AcDbLine
 10
394.141183
 20
-239.378516
 30
0.0
 11
400.141183
 21
-239.378516
 31
0.0
  0
LINE
  5
FC
100
AcDbEntity
  8
0
  6
CONTINUOUS
 62
     7
100
AcDbLine
 10
400.141183
 20
-239.378516
 30
0.0
 11
400.141183
 21
-243.578516
 31
0.0
  0
LINE
  5
FD
100
AcDbEntity
  8
0
  6
CONTINUOUS
 62
     7
100
AcDbLine
 10
397.141183
 20
-238.978516
 30
0.0
 11
397.141183
 21
-243.978516
 31
0.0
  0
LINE
  5
FE
100
AcDbEntity
  8
0
  6
CONTINUOUS
 62
     7
100
AcDbLine
 10
383.141183
 20
-243.978516
 30
0.0
 11
383.141183
 21
-244.878516
 31
0.0
  0
LINE
  5
FF
100
AcDbEntity
  8
0
  6
CONTINUOUS
 62
     7
100
AcDbLine
 10
340.141183
 20
-243.787917
 30
0.0
 11
342.141183
 21
-242.633216
 31
0.0
  0
LINE
  5
100
100
AcDbEntity
  8
0
  6
CONTINUOUS
 62
     7
100
AcDbLine
 10
338.141183
 20
-240.323815
 30
0.0
 11
340.141183
 21
-239.169115
 31
0.0
  0
LINE
  5
101
100
AcDbEntity
  8
0
  6
CONTINUOUS
 62
     7
100
AcDbLine
 10
338.141183
 20
-242.633216
 30
0.0
 11
340.141183
 21
-243.787917
 31
0.0
  0
LINE
  5
102
100
AcDbEntity
  8
0
  6
CONTINUOUS
 62
     7
100
AcDbLine
 10
340.141183
 20
-239.169115
 30
0.0
 11
342.141183
 21
-240.323815
 31
0.0
  0
LINE
  5
103
100
AcDbEntity
  8
0
  6
CONTINUOUS
 62
     7
100
AcDbLine
 10
338.141183
 20
-240.323815
 30
0.0
 11
338.141183
 21
-242.633216
 31
0.0
  0
LINE
  5
104
100
AcDbEntity
  8
0
  6
CONTINUOUS
 62
     7
100
AcDbLine
 10
342.141183
 20
-240.323815
 30
0.0
 11
342.141183
 21
-242.633216
 31
0.0
  0
LINE
  5
105
100
AcDbEntity
  8
0
  6
CONTINUOUS
 62
     7
100
AcDbLine
 10
371.141183
 20
-245.228516
 30
0.0
 11
371.641183
 21
-245.728516
 31
0.0
  0
LINE
  5
106
100
AcDbEntity
  8
0
  6
CONTINUOUS
 62
     7
100
AcDbLine
 10
371.141183
 20
-237.728516
 30
0.0
 11
371.641183
 21
-237.228516
 31
0.0
  0
LINE
  5
107
100
AcDbEntity
  8
0
  6
CONTINUOUS
 62
     7
100
AcDbLine
 10
371.641183
 20
-245.728516
 30
0.0
 11
371.641183
 21
-237.228516
 31
0.0
  0
LINE
  5
108
100
AcDbEntity
  8
0
  6
CONTINUOUS
 62
     7
100
AcDbLine
 10
393.741183
 20
-238.978516
 30
0.0
 11
393.741183
 21
-243.978516
 31
0.0
  0
LINE
  5
109
100
AcDbEntity
  8
0
  6
CONTINUOUS
 62
     7
100
AcDbLine
 10
393.741183
 20
-243.978516
 30
0.0
 11
394.141183
 21
-243.578516
 31
0.0
  0
LINE
  5
10A
100
AcDbEntity
  8
0
  6
CONTINUOUS
 62
     7
100
AcDbLine
 10
393.741183
 20
-238.978516
 30
0.0
 11
394.141183
 21
-239.378516
 31
0.0
  0
LINE
  5
10B
100
AcDbEntity
  8
0
  6
CONTINUOUS
 62
     7
100
AcDbLine
 10
378.016183
 20
-243.978516
 30
0.0
 11
378.016183
 21
-238.978516
 31
0.0
  0
LINE
  5
10C
100
AcDbEntity
  8
0
  6
CONTINUOUS
 62
     7
100
AcDbLine
 10
376.141183
 20
-243.978516
 30
0.0
 11
393.741183
 21
-243.978516
 31
0.0
  0
LINE
  5
10D
100
AcDbEntity
  8
0
  6
CONTINUOUS
 62
     7
100
AcDbLine
 10
376.141183
 20
-238.978516
 30
0.0
 11
393.741183
 21
-238.978516
 31
0.0
  0
LINE
  5
10E
100
AcDbEntity
  8
0
  6
CONTINUOUS
 62
     7
100
AcDbLine
 10
371.641183
 20
-245.728516
 30
0.0
 11
376.141183
 21
-245.728516
 31
0.0
  0
LINE
  5
10F
100
AcDbEntity
  8
0
  6
CONTINUOUS
 62
     7
100
AcDbLine
 10
371.641183
 20
-237.228516
 30
0.0
 11
376.141183
 21
-237.228516
 31
0.0
  0
LINE
  5
110
100
AcDbEntity
  8
0
  6
CONTINUOUS
 62
     7
100
AcDbLine
 10
394.141183
 20
-243.578516
 30
0.0
 11
394.141183
 21
-239.378516
 31
0.0
  0
LINE
  5
111
100
AcDbEntity
  8
0
  6
CONTINUOUS
 62
     7
100
AcDbLine
 10
371.141183
 20
-245.228516
 30
0.0
 11
371.141183
 21
-237.728516
 31
0.0
  0
LINE
  5
112
100
AcDbEntity
  8
0
  6
CONTINUOUS
 62
     7
100
AcDbLine
 10
382.141183
 20
-267.478516
 30
0.0
 11
382.141183
 21
-247.478516
 31
0.0
  0
LINE
  5
113
100
AcDbEntity
  8
0
  6
CONTINUOUS
 62
     7
100
AcDbLine
 10
384.141183
 20
-247.478516
 30
0.0
 11
384.141183
 21
-267.478516
 31
0.0
  0
LINE
  5
114
100
AcDbEntity
  8
0
  6
CONTINUOUS
 62
     7
100
AcDbLine
 10
398.141183
 20
-257.978516
 30
0.0
 11
398.141183
 21
-268.941163
 31
0.0
  0
LINE
  5
115
100
AcDbEntity
  8
0
  6
CONTINUOUS
 62
     7
100
AcDbLine
 10
384.141183
 20
-256.978516
 30
0.0
 11
384.141183
 21
-257.978516
 31
0.0
  0
LINE
  5
116
100
AcDbEntity
  8
0
  6
CONTINUOUS
 62
     7
100
AcDbLine
 10
384.141183
 20
-256.978516
 30
0.0
 11
398.141183
 21
-256.978516
 31
0.0
  0
LINE
  5
117
100
AcDbEntity
  8
0
  6
CONTINUOUS
 62
     7
100
AcDbLine
 10
384.141183
 20
-257.978516
 30
0.0
 11
398.141183
 21
-257.978516
 31
0.0
  0
LINE
  5
118
100
AcDbEntity
  8
0
  6
CONTINUOUS
 62
     7
100
AcDbLine
 10
376.141183
 20
-270.778516
 30
0.0
 11
383.141183
 21
-270.778516
 31
0.0
  0
LINE
  5
119
100
AcDbEntity
  8
0
  6
CONTINUOUS
 62
     7
100
AcDbLine
 10
376.141183
 20
-276.178516
 30
0.0
 11
383.141183
 21
-276.178516
 31
0.0
  0
LINE
  5
11A
100
AcDbEntity
  8
0
  6
CONTINUOUS
 62
     7
100
AcDbLine
 10
376.141183
 20
-238.778516
 30
0.0
 11
383.141183
 21
-238.778516
 31
0.0
  0
LINE
  5
11B
100
AcDbEntity
  8
0
  6
CONTINUOUS
 62
     7
100
AcDbLine
 10
376.141183
 20
-244.178516
 30
0.0
 11
383.141183
 21
-244.178516
 31
0.0
  0
LINE
  5
11C
100
AcDbEntity
  8
0
  6
CONTINUOUS
 62
     7
100
AcDbLine
 10
384.141183
 20
-264.978516
 30
0.0
 11
398.141183
 21
-264.978516
 31
0.0
  0
LINE
  5
11D
100
AcDbEntity
  8
0
  6
CONTINUOUS
 62
     7
100
AcDbLine
 10
384.141183
 20
-249.978516
 30
0.0
 11
398.141183
 21
-249.978516
 31
0.0
  0
LINE
  5
11E
100
AcDbEntity
  8
0
  6
CONTINUOUS
 62
     7
100
AcDbLine
 10
376.141183
 20
-249.978516
 30
0.0
 11
382.141183
 21
-249.978516
 31
0.0
  0
LINE
  5
11F
100
AcDbEntity
  8
0
  6
CONTINUOUS
 62
     7
100
AcDbLine
 10
376.141183
 20
-264.978516
 30
0.0
 11
382.141183
 21
-264.978516
 31
0.0
  0
LINE
  5
120
100
AcDbEntity
  8
0
  6
CONTINUOUS
 62
     7
100
AcDbLine
 10
383.141183
 20
-270.078516
 30
0.0
 11
383.141183
 21
-270.978516
 31
0.0
  0
LINE
  5
121
100
AcDbEntity
  8
0
  6
CONTINUOUS
 62
     7
100
AcDbLine
 10
385.141183
 20
-270.078516
 30
0.0
 11
400.141183
 21
-268.766186
 31
0.0
  0
LINE
  5
122
100
AcDbEntity
  8
0
  6
CONTINUOUS
 62
     7
100
AcDbLine
 10
385.141183
 20
-244.878516
 30
0.0
 11
400.141183
 21
-246.190846
 31
0.0
  0
LINE
  5
123
100
AcDbEntity
  8
0
  6
CONTINUOUS
 62
     7
100
AcDbLine
 10
383.141183
 20
-270.078516
 30
0.0
 11
385.141183
 21
-270.078516
 31
0.0
  0
LINE
  5
124
100
AcDbEntity
  8
0
  6
CONTINUOUS
 62
     7
100
AcDbLine
 10
383.141183
 20
-244.878516
 30
0.0
 11
385.141183
 21
-244.878516
 31
0.0
  0
LINE
  5
125
100
AcDbEntity
  8
0
  6
CONTINUOUS
 62
     7
100
AcDbLine
 10
376.141183
 20
-278.478516
 30
0.0
 11
383.141183
 21
-278.478516
 31
0.0
  0
LINE
  5
126
100
AcDbEntity
  8
0
  6
CONTINUOUS
 62
     7
100
AcDbLine
 10
376.141183
 20
-236.478516
 30
0.0
 11
383.141183
 21
-236.478516
 31
0.0
  0
LINE
  5
127
100
AcDbEntity
  8
0
  6
CONTINUOUS
 62
     7
100
AcDbLine
 10
398.141183
 20
-246.015868
 30
0.0
 11
398.141183
 21
-256.978516
 31
0.0
  0
LINE
  5
128
100
AcDbEntity
  8
0
  6
CONTINUOUS
 62
     7
100
AcDbLine
 10
383.141183
 20
-236.478516
 30
0.0
 11
383.141183
 21
-238.978516
 31
0.0
  0
LINE
  5
129
100
AcDbEntity
  8
0
  6
CONTINUOUS
 62
     7
100
AcDbLine
 10
376.141183
 20
-236.478516
 30
0.0
 11
376.141183
 21
-278.478516
 31
0.0
  0
LINE
  5
12A
100
AcDbEntity
  8
0
  6
CONTINUOUS
 62
     7
100
AcDbLine
 10
346.581435
 20
-306.002073
 30
0.0
 11
393.830093
 21
-306.002073
 31
0.0
  0
LINE
  5
12B
100
AcDbEntity
  8
0
  6
CONTINUOUS
 62
     7
100
AcDbLine
 10
340.418021
 20
-299.402687
 30
0.0
 11
443.343185
 21
-299.402687
 31
0.0
  0
ENDSEC
  0
SECTION
  2
OBJECTS
  0
DICTIONARY
  5
19
100
AcDbDictionary
  3
ACAD_GROUP
350
1A
  3
ACAD_MLINESTYLE
350
1B
  0
DICTIONARY
  5
1A
102
{ACAD_REACTORS
330
19
102
}
100
AcDbDictionary
  0
DICTIONARY
  5
1B
102
{ACAD_REACTORS
330
19
102
}
100
AcDbDictionary
  3
STANDARD
350
1C
  0
MLINESTYLE
  5
1C
102
{ACAD_REACTORS
330
1B
102
}
100
AcDbMlineStyle
  2
Standard
 70
     0
  3

 62
     0
 51
90.0
 52
90.0
 71
     2
 49
0.5
 62
   256
  6
ByLayer
 49
-0.5
 62
   256
  6
ByLayer
  0
ENDSEC
  0
EOF
