  0
SECTION
  2
HEADER
  9
$ACADVER
  1
AC1014
  9
$ACADMAINTVER
 70
     9
  9
$DWGCODEPAGE
  3
ANSI_932
  9
$INSBASE
 10
0.0
 20
0.0
 30
0.0
  9
$EXTMIN
 10
-357.9517299107143
 20
-343.9500000476837
 30
0.0
  9
$EXTMAX
 10
519.4252232142858
 20
337.0499999523163
 30
0.0
  9
$LIMMIN
 10
-95.5
 20
-141.0
  9
$LIMMAX
 10
95.5
 20
141.0
  9
$ORTHOMODE
 70
     0
  9
$REGENMODE
 70
     1
  9
$FILLMODE
 70
     1
  9
$QTEXTMODE
 70
     0
  9
$MIRRTEXT
 70
     1
  9
$DRAGMODE
 70
     2
  9
$LTSCALE
 40
1.0
  9
$OSMODE
 70
    37
  9
$ATTMODE
 70
     1
  9
$TEXTSIZE
 40
0.2
  9
$TRACEWID
 40
0.05
  9
$TEXTSTYLE
  7
STANDARD
  9
$CLAYER
  8
0
  9
$CELTYPE
  6
BYLAYER
  9
$CECOLOR
 62
   256
  9
$CELTSCALE
 40
1.0
  9
$DELOBJ
 70
     1
  9
$DISPSILH
 70
     0
  9
$DIMSCALE
 40
1.0
  9
$DIMASZ
 40
2.5
  9
$DIMEXO
 40
0.0625
  9
$DIMDLI
 40
0.38
  9
$DIMRND
 40
0.0
  9
$DIMDLE
 40
0.0
  9
$DIMEXE
 40
0.18
  9
$DIMTP
 40
0.0
  9
$DIMTM
 40
0.0
  9
$DIMTXT
 40
0.18
  9
$DIMCEN
 40
0.09
  9
$DIMTSZ
 40
0.0
  9
$DIMTOL
 70
     0
  9
$DIMLIM
 70
     0
  9
$DIMTIH
 70
     1
  9
$DIMTOH
 70
     1
  9
$DIMSE1
 70
     0
  9
$DIMSE2
 70
     0
  9
$DIMTAD
 70
     3
  9
$DIMZIN
 70
     0
  9
$DIMBLK
  1

  9
$DIMASO
 70
     1
  9
$DIMSHO
 70
     1
  9
$DIMPOST
  1

  9
$DIMAPOST
  1

  9
$DIMALT
 70
     0
  9
$DIMALTD
 70
     2
  9
$DIMALTF
 40
25.4
  9
$DIMLFAC
 40
1.0
  9
$DIMTOFL
 70
     0
  9
$DIMTVP
 40
0.0
  9
$DIMTIX
 70
     0
  9
$DIMSOXD
 70
     0
  9
$DIMSAH
 70
     0
  9
$DIMBLK1
  1

  9
$DIMBLK2
  1

  9
$DIMSTYLE
  2
STANDARD
  9
$DIMCLRD
 70
     0
  9
$DIMCLRE
 70
     0
  9
$DIMCLRT
 70
     0
  9
$DIMTFAC
 40
1.0
  9
$DIMGAP
 40
0.09
  9
$DIMJUST
 70
     0
  9
$DIMSD1
 70
     0
  9
$DIMSD2
 70
     0
  9
$DIMTOLJ
 70
     1
  9
$DIMTZIN
 70
     0
  9
$DIMALTZ
 70
     0
  9
$DIMALTTZ
 70
     0
  9
$DIMFIT
 70
     3
  9
$DIMUPT
 70
     0
  9
$DIMUNIT
 70
     2
  9
$DIMDEC
 70
     4
  9
$DIMTDEC
 70
     4
  9
$DIMALTU
 70
     2
  9
$DIMALTTD
 70
     2
  9
$DIMTXSTY
  7
STANDARD
  9
$DIMAUNIT
 70
     0
  9
$LUNITS
 70
     2
  9
$LUPREC
 70
     4
  9
$SKETCHINC
 40
0.1
  9
$FILLETRAD
 40
0.5
  9
$AUNITS
 70
     0
  9
$AUPREC
 70
     0
  9
$MENU
  1
.
  9
$ELEVATION
 40
0.0
  9
$PELEVATION
 40
0.0
  9
$THICKNESS
 40
0.0
  9
$LIMCHECK
 70
     0
  9
$CHAMFERA
 40
0.5
  9
$CHAMFERB
 40
0.5
  9
$CHAMFERC
 40
1.0
  9
$CHAMFERD
 40
0.0
  9
$SKPOLY
 70
     0
  9
$TDCREATE
 40
2454063.661898218
  9
$TDUPDATE
 40
2454063.661898229
  9
$TDINDWG
 40
0.0000000116
  9
$TDUSRTIMER
 40
0.0000000116
  9
$USRTIMER
 70
     1
  9
$ANGBASE
 50
0.0
  9
$ANGDIR
 70
     0
  9
$PDMODE
 70
     0
  9
$PDSIZE
 40
1.0
  9
$PLINEWID
 40
0.0
  9
$COORDS
 70
     1
  9
$SPLFRAME
 70
     0
  9
$SPLINETYPE
 70
     6
  9
$SPLINESEGS
 70
     8
  9
$ATTDIA
 70
     0
  9
$ATTREQ
 70
     1
  9
$HANDLING
 70
     1
  9
$HANDSEED
  5
AE
  9
$SURFTAB1
 70
     6
  9
$SURFTAB2
 70
     6
  9
$SURFTYPE
 70
     6
  9
$SURFU
 70
     6
  9
$SURFV
 70
     6
  9
$UCSNAME
  2

  9
$UCSORG
 10
0.0
 20
0.0
 30
0.0
  9
$UCSXDIR
 10
1.0
 20
0.0
 30
0.0
  9
$UCSYDIR
 10
0.0
 20
1.0
 30
0.0
  9
$PUCSNAME
  2

  9
$PUCSORG
 10
0.0
 20
0.0
 30
0.0
  9
$PUCSXDIR
 10
1.0
 20
0.0
 30
0.0
  9
$PUCSYDIR
 10
0.0
 20
1.0
 30
0.0
  9
$USERI1
 70
     0
  9
$USERI2
 70
     0
  9
$USERI3
 70
     0
  9
$USERI4
 70
     0
  9
$USERI5
 70
     0
  9
$USERR1
 40
0.0
  9
$USERR2
 40
0.0
  9
$USERR3
 40
0.0
  9
$USERR4
 40
0.0
  9
$USERR5
 40
0.0
  9
$WORLDVIEW
 70
     1
  9
$SHADEDGE
 70
     3
  9
$SHADEDIF
 70
    70
  9
$TILEMODE
 70
     1
  9
$MAXACTVP
 70
    64
  9
$PINSBASE
 10
0.0
 20
0.0
 30
0.0
  9
$PLIMCHECK
 70
     0
  9
$PEXTMIN
 10
1.000000000000000E+20
 20
1.000000000000000E+20
 30
1.000000000000000E+20
  9
$PEXTMAX
 10
-1.000000000000000E+20
 20
-1.000000000000000E+20
 30
-1.000000000000000E+20
  9
$PLIMMIN
 10
0.0
 20
0.0
  9
$PLIMMAX
 10
12.0
 20
9.0
  9
$UNITMODE
 70
     0
  9
$VISRETAIN
 70
     0
  9
$PLINEGEN
 70
     1
  9
$PSLTSCALE
 70
     0
  9
$TREEDEPTH
 70
  3020
  9
$PICKSTYLE
 70
     1
  9
$CMLSTYLE
  2
STANDARD
  9
$CMLJUST
 70
     0
  9
$CMLSCALE
 40
1.0
  9
$PROXYGRAPHICS
 70
     0
  9
$MEASUREMENT
 70
     1
  0
ENDSEC
  0
SECTION
  2
CLASSES
  0
CLASS
  1
ACDBDICTIONARYWDFLT
  2
AcDbDictionaryWithDefault
  3
ObjectDBX Classes
 90
        0
280
     0
281
     0
  0
CLASS
  1
XRECORD
  2
AcDbXrecord
  3
AutoCAD 2000
 90
        0
280
     0
281
     0
  0
CLASS
  1
LWPOLYLINE
  2
AcDbPolyline
  3
AutoCAD 2000
 90
        0
280
     0
281
     1
  0
CLASS
  1
HATCH
  2
AcDbHatch
  3
AutoCAD 2000
 90
        0
280
     0
281
     1
  0
CLASS
  1
ACDBPLACEHOLDER
  2
AcDbPlaceHolder
  3
ObjectDBX Classes
 90
        0
280
     0
281
     0
  0
CLASS
  1
LAYOUT
  2
AcDbLayout
  3
ObjectDBX Classes
 90
        0
280
     0
281
     0
  0
ENDSEC
  0
SECTION
  2
TABLES
  0
TABLE
  2
VPORT
  5
8
330
0
100
AcDbSymbolTable
 70
     1
  0
VPORT
  5
29
330
8
100
AcDbSymbolTableRecord
100
AcDbViewportTableRecord
  2
*ACTIVE
 70
     0
 10
0.0
 20
0.0
 11
1.0
 21
1.0
 12
0.0
 22
0.0
 13
0.0
 23
0.0
 14
0.5
 24
0.5
 15
0.5
 25
0.5
 16
0.0
 26
0.0
 36
1.0
 17
80.73674665178571
 27
-3.450000047683702
 37
0.0
 40
231.54
 41
1.288365569933921
 42
50.0
 43
0.0
 44
0.0
 50
0.0
 51
0.0
 71
     0
 72
  1000
 73
     1
 74
     1
 75
     0
 76
     0
 77
     0
 78
     0
  0
ENDTAB
  0
TABLE
  2
LTYPE
  5
5
330
0
100
AcDbSymbolTable
 70
    28
  0
LTYPE
  5
14
330
5
100
AcDbSymbolTableRecord
100
AcDbLinetypeTableRecord
  2
BYBLOCK
 70
     0
  3

 72
    65
 73
     0
 40
0.0
  0
LTYPE
  5
15
330
5
100
AcDbSymbolTableRecord
100
AcDbLinetypeTableRecord
  2
BYLAYER
 70
     0
  3

 72
    65
 73
     0
 40
0.0
  0
LTYPE
  5
16
330
5
100
AcDbSymbolTableRecord
100
AcDbLinetypeTableRecord
  2
CONTINUOUS
 70
     0
  3
Solid line
 72
    65
 73
     0
 40
0.0
  0
LTYPE
  5
2D
330
5
100
AcDbSymbolTableRecord
100
AcDbLinetypeTableRecord
  2
HIDDENX2
 70
     0
  3
CADPAC LINETYPE
 72
    65
 73
     2
 40
6.190998902305125
 49
4.643249176728844
 74
     0
 49
-1.547749725576281
 74
     0
  0
LTYPE
  5
2E
330
5
100
AcDbSymbolTableRecord
100
AcDbLinetypeTableRecord
  2
HIDDEN
 70
     0
  3
CADPAC LINETYPE
 72
    65
 73
     2
 40
4.643249176728844
 49
3.095499451152563
 74
     0
 49
-1.547749725576281
 74
     0
  0
LTYPE
  5
2F
330
5
100
AcDbSymbolTableRecord
100
AcDbLinetypeTableRecord
  2
HIDDEN2
 70
     0
  3
CADPAC LINETYPE
 72
    65
 73
     2
 40
3.869374313940703
 49
2.321624588364422
 74
     0
 49
-1.547749725576281
 74
     0
  0
LTYPE
  5
30
330
5
100
AcDbSymbolTableRecord
100
AcDbLinetypeTableRecord
  2
DASHED
 70
     0
  3
CADPAC LINETYPE
 72
    65
 73
     2
 40
3.714599341383064
 49
1.857299670691532
 74
     0
 49
-1.857299670691532
 74
     0
  0
LTYPE
  5
31
330
5
100
AcDbSymbolTableRecord
100
AcDbLinetypeTableRecord
  2
DASHED2
 70
     0
  3
CADPAC LINETYPE
 72
    65
 73
     2
 40
2.166849615806768
 49
1.857299670691532
 74
     0
 49
-0.3095499451152364
 74
     0
  0
LTYPE
  5
32
330
5
100
AcDbSymbolTableRecord
100
AcDbLinetypeTableRecord
  2
DASHEDX2
 70
     0
  3
CADPAC LINETYPE
 72
    65
 73
     2
 40
2.166849615806768
 49
1.857299670691532
 74
     0
 49
-0.3095499451152364
 74
     0
  0
LTYPE
  5
33
330
5
100
AcDbSymbolTableRecord
100
AcDbLinetypeTableRecord
  2
DOTX2
 70
     0
  3
CADPAC LINETYPE
 72
    65
 73
     2
 40
0.3869374313940455
 49
0.0
 74
     0
 49
-0.3869374313940455
 74
     0
  0
LTYPE
  5
34
330
5
100
AcDbSymbolTableRecord
100
AcDbLinetypeTableRecord
  2
DOT
 70
     0
  3
CADPAC LINETYPE
 72
    65
 73
     2
 40
0.3095499451152364
 49
0.0
 74
     0
 49
-0.3095499451152364
 74
     0
  0
LTYPE
  5
35
330
5
100
AcDbSymbolTableRecord
100
AcDbLinetypeTableRecord
  2
DOT2
 70
     0
  3
CADPAC LINETYPE
 72
    65
 73
     2
 40
0.2321624588364273
 49
0.0
 74
     0
 49
-0.2321624588364273
 74
     0
  0
LTYPE
  5
36
330
5
100
AcDbSymbolTableRecord
100
AcDbLinetypeTableRecord
  2
CENTERX2
 70
     0
  3
CADPAC LINETYPE
 72
    65
 73
     4
 40
9.286498353457688
 49
3.869374313940703
 74
     0
 49
-1.934687156970352
 74
     0
 49
1.547749725576281
 74
     0
 49
-1.934687156970352
 74
     0
  0
LTYPE
  5
37
330
5
100
AcDbSymbolTableRecord
100
AcDbLinetypeTableRecord
  2
CENTER
 70
     0
  3
CADPAC LINETYPE
 72
    65
 73
     4
 40
7.119648737650894
 49
3.095499451152563
 74
     0
 49
-1.547749725576281
 74
     0
 49
0.9286498353457687
 74
     0
 49
-1.547749725576281
 74
     0
  0
LTYPE
  5
38
330
5
100
AcDbSymbolTableRecord
100
AcDbLinetypeTableRecord
  2
CENTER2
 70
     0
  3
CADPAC LINETYPE
 72
    65
 73
     4
 40
4.9527991218441
 49
2.321624588364422
 74
     0
 49
-1.160812294182211
 74
     0
 49
0.3095499451152563
 74
     0
 49
-1.160812294182211
 74
     0
  0
LTYPE
  5
39
330
5
100
AcDbSymbolTableRecord
100
AcDbLinetypeTableRecord
  2
DASHDOTX2
 70
     0
  3
CADPAC LINETYPE
 72
    65
 73
     4
 40
4.333699231613565
 49
3.714599341383092
 74
     0
 49
-0.3095499451152364
 74
     0
 49
0.0
 74
     0
 49
-0.3095499451152364
 74
     0
  0
LTYPE
  5
3A
330
5
100
AcDbSymbolTableRecord
100
AcDbLinetypeTableRecord
  2
DASHDOT
 70
     0
  3
CADPAC LINETYPE
 72
    65
 73
     4
 40
5.262349066959331
 49
3.714599341383092
 74
     0
 49
-0.3095499451152364
 74
     0
 49
0.928649835345766
 74
     0
 49
-0.3095499451152364
 74
     0
  0
LTYPE
  5
3B
330
5
100
AcDbSymbolTableRecord
100
AcDbLinetypeTableRecord
  2
DASHDOT2
 70
     0
  3
CADPAC LINETYPE
 72
    65
 73
     4
 40
3.34313940724475
 49
2.785949506037319
 74
     0
 49
-0.2321624588364273
 74
     0
 49
0.0928649835345766
 74
     0
 49
-0.2321624588364273
 74
     0
  0
LTYPE
  5
3C
330
5
100
AcDbSymbolTableRecord
100
AcDbLinetypeTableRecord
  2
DIVIDEX2
 70
     0
  3
CADPAC LINETYPE
 72
    65
 73
     6
 40
4.643249176728801
 49
3.714599341383092
 74
     0
 49
-0.3095499451152364
 74
     0
 49
0.0
 74
     0
 49
-0.3095499451152364
 74
     0
 49
0.0
 74
     0
 49
-0.3095499451152364
 74
     0
  0
LTYPE
  5
3D
330
5
100
AcDbSymbolTableRecord
100
AcDbLinetypeTableRecord
  2
DIVIDE
 70
     0
  3
CADPAC LINETYPE
 72
    65
 73
     6
 40
6.500548847420333
 49
3.714599341383092
 74
     0
 49
-0.3095499451152364
 74
     0
 49
0.928649835345766
 74
     0
 49
-0.3095499451152364
 74
     0
 49
0.928649835345766
 74
     0
 49
-0.3095499451152364
 74
     0
  0
LTYPE
  5
3E
330
5
100
AcDbSymbolTableRecord
100
AcDbLinetypeTableRecord
  2
DIVIDE2
 70
     0
  3
CADPAC LINETYPE
 72
    65
 73
     6
 40
4.87541163556525
 49
2.785949506037319
 74
     0
 49
-0.2321624588364273
 74
     0
 49
0.6964873765093245
 74
     0
 49
-0.2321624588364273
 74
     0
 49
0.6964873765093245
 74
     0
 49
-0.2321624588364273
 74
     0
  0
LTYPE
  5
3F
330
5
100
AcDbSymbolTableRecord
100
AcDbLinetypeTableRecord
  2
BORDERX2
 70
     0
  3
CADPAC LINETYPE
 72
    65
 73
     6
 40
13.54281009879246
 49
3.869374313940703
 74
     0
 49
-1.934687156970352
 74
     0
 49
3.869374313940703
 74
     0
 49
-1.934687156970352
 74
     0
 49
0.0
 74
     0
 49
-1.934687156970352
 74
     0
  0
LTYPE
  5
40
330
5
100
AcDbSymbolTableRecord
100
AcDbLinetypeTableRecord
  2
BORDER
 70
     0
  3
CADPAC LINETYPE
 72
    65
 73
     6
 40
10.83424807903397
 49
3.095499451152563
 74
     0
 49
-1.547749725576281
 74
     0
 49
3.095499451152563
 74
     0
 49
-1.547749725576281
 74
     0
 49
0.0
 74
     0
 49
-1.547749725576281
 74
     0
  0
LTYPE
  5
41
330
5
100
AcDbSymbolTableRecord
100
AcDbLinetypeTableRecord
  2
BORDER2
 70
     0
  3
CADPAC LINETYPE
 72
    65
 73
     6
 40
4.024149286498286
 49
1.857299670691532
 74
     0
 49
-0.3095499451152364
 74
     0
 49
0.0
 74
     0
 49
-0.3095499451152364
 74
     0
 49
0.0
 74
     0
 49
-1.547749725576281
 74
     0
  0
LTYPE
  5
42
330
5
100
AcDbSymbolTableRecord
100
AcDbLinetypeTableRecord
  2
PHANTOMX2
 70
     0
  3
CADPAC LINETYPE
 72
    65
 73
     6
 40
11.60812294182211
 49
3.869374313940703
 74
     0
 49
-1.547749725576281
 74
     0
 49
1.547749725576281
 74
     0
 49
-1.547749725576281
 74
     0
 49
1.547749725576281
 74
     0
 49
-1.547749725576281
 74
     0
  0
LTYPE
  5
43
330
5
100
AcDbSymbolTableRecord
100
AcDbLinetypeTableRecord
  2
PHANTOM
 70
     0
  3
CADPAC LINETYPE
 72
    65
 73
     6
 40
9.596048298572944
 49
3.095499451152563
 74
     0
 49
-1.547749725576281
 74
     0
 49
0.9286498353457687
 74
     0
 49
-1.547749725576281
 74
     0
 49
0.9286498353457687
 74
     0
 49
-1.547749725576281
 74
     0
  0
LTYPE
  5
44
330
5
100
AcDbSymbolTableRecord
100
AcDbLinetypeTableRecord
  2
PHANTOM2
 70
     0
  3
CADPAC LINETYPE
 72
    65
 73
     6
 40
8.203073545554291
 49
2.321624588364422
 74
     0
 49
-1.547749725576281
 74
     0
 49
0.6190998902305126
 74
     0
 49
-1.547749725576281
 74
     0
 49
0.6190998902305126
 74
     0
 49
-1.547749725576281
 74
     0
  0
LTYPE
  5
45
330
5
100
AcDbSymbolTableRecord
100
AcDbLinetypeTableRecord
  2
ACAD_ISO06W100
 70
     0
  3
CADPAC LINETYPE
 72
    65
 73
     8
 40
4.952799121844038
 49
3.714599341383092
 74
     0
 49
-0.3095499451152364
 74
     0
 49
0.0
 74
     0
 49
-0.3095499451152364
 74
     0
 49
0.0
 74
     0
 49
-0.3095499451152364
 74
     0
 49
0.0
 74
     0
 49
-0.3095499451152364
 74
     0
  0
LTYPE
  5
46
330
5
100
AcDbSymbolTableRecord
100
AcDbLinetypeTableRecord
  2
ACAD_ISO13W100
 70
     0
  3
CADPAC LINETYPE
 72
    65
 73
     8
 40
12.38199780461025
 49
3.095499451152563
 74
     0
 49
-1.547749725576281
 74
     0
 49
3.095499451152563
 74
     0
 49
-1.547749725576281
 74
     0
 49
0.0
 74
     0
 49
-1.547749725576281
 74
     0
 49
0.0
 74
     0
 49
-1.547749725576281
 74
     0
  0
LTYPE
  5
47
330
5
100
AcDbSymbolTableRecord
100
AcDbLinetypeTableRecord
  2
ACAD_ISO14W100
 70
     0
  3
CADPAC LINETYPE
 72
    65
 73
     8
 40
9.286498353457688
 49
3.095499451152563
 74
     0
 49
-1.547749725576281
 74
     0
 49
0.0
 74
     0
 49
-1.547749725576281
 74
     0
 49
0.0
 74
     0
 49
-1.547749725576281
 74
     0
 49
0.0
 74
     0
 49
-1.547749725576281
 74
     0
  0
ENDTAB
  0
TABLE
  2
LAYER
  5
2
330
0
100
AcDbSymbolTable
 70
     2
  0
LAYER
  5
10
330
2
100
AcDbSymbolTableRecord
100
AcDbLayerTableRecord
  2
0
 70
     0
 62
     7
  6
CONTINUOUS
  0
LAYER
  5
2B
330
2
100
AcDbSymbolTableRecord
100
AcDbLayerTableRecord
  2
LAYER0016
 70
     0
 62
     7
  6
CONTINUOUS
  0
ENDTAB
  0
TABLE
  2
STYLE
  5
3
330
0
100
AcDbSymbolTable
 70
     2
  0
STYLE
  5
11
330
3
100
AcDbSymbolTableRecord
100
AcDbTextStyleTableRecord
  2
STANDARD
 70
     0
 40
0.0
 41
1.0
 50
0.0
 71
     0
 42
0.2
  3
txt
  4

  0
STYLE
  5
8B
330
3
100
AcDbSymbolTableRecord
100
AcDbTextStyleTableRecord
  2
FDASTYLE0
 70
     0
 40
3.200000047683716
 41
0.7824575154503604
 50
0.0
 71
     0
 42
0.2
  3
txt.shx
  4
bigfont
  0
ENDTAB
  0
TABLE
  2
VIEW
  5
6
330
0
100
AcDbSymbolTable
 70
     0
  0
ENDTAB
  0
TABLE
  2
UCS
  5
7
330
0
100
AcDbSymbolTable
 70
     0
  0
ENDTAB
  0
TABLE
  2
APPID
  5
9
330
0
100
AcDbSymbolTable
 70
     2
  0
APPID
  5
12
330
9
100
AcDbSymbolTableRecord
100
AcDbRegAppTableRecord
  2
ACAD
 70
     0
  0
APPID
  5
2A
330
9
100
AcDbSymbolTableRecord
100
AcDbRegAppTableRecord
  2
DAFUSIONOUT
 70
     0
  0
ENDTAB
  0
TABLE
  2
DIMSTYLE
  5
A
330
0
100
AcDbSymbolTable
 70
     1
  0
DIMSTYLE
105
27
330
A
100
AcDbSymbolTableRecord
100
AcDbDimStyleTableRecord
  2
STANDARD
 70
     0
  3

  4

  5

  6

  7

 40
1.0
 41
0.18
 42
0.0625
 43
0.38
 44
0.18
 45
0.0
 46
0.0
 47
0.0
 48
0.0
140
0.18
141
0.09
142
0.0
143
25.4
144
1.0
145
0.0
146
1.0
147
0.09
 71
     0
 72
     0
 73
     1
 74
     1
 75
     0
 76
     0
 77
     0
 78
     0
170
     0
171
     2
172
     0
173
     0
174
     0
175
     0
176
     0
177
     0
178
     0
270
     2
271
     4
272
     4
273
     2
274
     2
340
11
275
     0
280
     0
281
     0
282
     0
283
     1
284
     0
285
     0
286
     0
287
     3
288
     0
  0
ENDTAB
  0
TABLE
  2
BLOCK_RECORD
  5
1
330
0
100
AcDbSymbolTable
 70
     1
  0
BLOCK_RECORD
  5
1F
330
1
100
AcDbSymbolTableRecord
100
AcDbBlockTableRecord
  2
*MODEL_SPACE
  0
BLOCK_RECORD
  5
1B
330
1
100
AcDbSymbolTableRecord
100
AcDbBlockTableRecord
  2
*PAPER_SPACE
  0
ENDTAB
  0
ENDSEC
  0
SECTION
  2
BLOCKS
  0
BLOCK
  5
20
330
1F
100
AcDbEntity
  8
0
100
AcDbBlockBegin
  2
*MODEL_SPACE
 70
     0
 71
     0
 10
0.0
 20
0.0
 30
0.0
  3
*MODEL_SPACE
  1

  0
ENDBLK
  5
21
330
1F
100
AcDbEntity
  8
0
100
AcDbBlockEnd
  0
BLOCK
  5
1C
330
1B
100
AcDbEntity
 67
     1
  8
0
100
AcDbBlockBegin
  2
*PAPER_SPACE
 70
     0
 71
     0
 10
0.0
 20
0.0
 30
0.0
  3
*PAPER_SPACE
  1

  0
ENDBLK
  5
1D
330
1B
100
AcDbEntity
 67
     1
  8
0
100
AcDbBlockEnd
  0
ENDSEC
  0
SECTION
  2
ENTITIES
  0
LINE
  5
48
330
1F
100
AcDbEntity
  8
LAYER0016
 62
     7
100
AcDbLine
 10
-59.87499961853028
 20
5.549999952316284
 30
0.0
 11
25.12500038146973
 21
5.549999952316284
 31
0.0
  0
LINE
  5
49
330
1F
100
AcDbEntity
  8
LAYER0016
 62
     7
100
AcDbLine
 10
-59.87499961853028
 20
-12.45000004768372
 30
0.0
 11
25.12500038146973
 21
-12.45000004768372
 31
0.0
  0
LINE
  5
4A
330
1F
100
AcDbEntity
  8
LAYER0016
 62
     7
100
AcDbLine
 10
-34.62499961853028
 20
-3.450000047683716
 30
0.0
 11
-34.62499961853028
 21
96.85499995231629
 31
0.0
  0
LINE
  5
4B
330
1F
100
AcDbEntity
  8
LAYER0016
 62
     7
100
AcDbLine
 10
-22.92499961853027
 20
92.34999995231628
 30
0.0
 11
-22.92499961853027
 21
96.85499995231629
 31
0.0
  0
LINE
  5
4C
330
1F
100
AcDbEntity
  8
LAYER0016
 62
     7
100
AcDbLine
 10
-34.62499961853028
 20
-3.450000047683716
 30
0.0
 11
-34.62499961853028
 21
-103.7550000476837
 31
0.0
  0
LINE
  5
4D
330
1F
100
AcDbEntity
  8
LAYER0016
 62
     7
100
AcDbLine
 10
-22.92499961853027
 20
-99.25000004768371
 30
0.0
 11
-22.92499961853027
 21
-103.7550000476837
 31
0.0
  0
LINE
  5
4E
330
1F
100
AcDbEntity
  8
LAYER0016
 62
     7
100
AcDbLine
 10
-11.82499961853027
 20
92.34999995231628
 30
0.0
 11
-11.82499961853027
 21
96.85499995231629
 31
0.0
  0
LINE
  5
4F
330
1F
100
AcDbEntity
  8
LAYER0016
 62
     7
100
AcDbLine
 10
-0.1249996185302749
 20
-3.450000047683716
 30
0.0
 11
-0.1249996185302749
 21
96.85499995231629
 31
0.0
  0
LINE
  5
50
330
1F
100
AcDbEntity
  8
LAYER0016
 62
     7
100
AcDbLine
 10
-11.82499961853027
 20
-99.25000004768371
 30
0.0
 11
-11.82499961853027
 21
-103.7550000476837
 31
0.0
  0
LINE
  5
51
330
1F
100
AcDbEntity
  8
LAYER0016
 62
     7
100
AcDbLine
 10
-0.1249996185302749
 20
-3.450000047683716
 30
0.0
 11
-0.1249996185302749
 21
-103.7550000476837
 31
0.0
  0
LINE
  5
52
330
1F
100
AcDbEntity
  8
LAYER0016
 62
     7
100
AcDbLine
 10
-22.12499961853028
 20
91.54999995231628
 30
0.0
 11
-12.62499961853027
 21
91.54999995231628
 31
0.0
  0
LINE
  5
53
330
1F
100
AcDbEntity
  8
LAYER0016
 62
     7
100
AcDbLine
 10
-22.12499961853028
 20
-98.45000004768372
 30
0.0
 11
-12.62499961853027
 21
-98.45000004768372
 31
0.0
  0
LINE
  5
54
330
1F
100
AcDbEntity
  8
LAYER0016
 62
     7
100
AcDbLine
 10
-34.62499961853028
 20
98.54999995231628
 30
0.0
 11
-34.62499961853028
 21
96.85499995231629
 31
0.0
  0
LINE
  5
55
330
1F
100
AcDbEntity
  8
LAYER0016
 62
     7
100
AcDbLine
 10
-34.62499961853028
 20
96.85499995231629
 30
0.0
 11
-22.92499961853027
 21
96.85499995231629
 31
0.0
  0
LINE
  5
56
330
1F
100
AcDbEntity
  8
LAYER0016
 62
     7
100
AcDbLine
 10
-22.92499961853027
 20
96.85499995231629
 30
0.0
 11
-22.92499961853027
 21
98.54999995231628
 31
0.0
  0
LINE
  5
57
330
1F
100
AcDbEntity
  8
LAYER0016
 62
     7
100
AcDbLine
 10
-32.22499961853028
 20
108.0499999523163
 30
0.0
 11
-25.32499961853027
 21
108.0499999523163
 31
0.0
  0
LINE
  5
58
330
1F
100
AcDbEntity
  8
LAYER0016
 62
     7
100
AcDbLine
 10
-34.62499961853028
 20
-105.4500000476837
 30
0.0
 11
-34.62499961853028
 21
-103.7550000476837
 31
0.0
  0
LINE
  5
59
330
1F
100
AcDbEntity
  8
LAYER0016
 62
     7
100
AcDbLine
 10
-34.62499961853028
 20
-103.7550000476837
 30
0.0
 11
-22.92499961853027
 21
-103.7550000476837
 31
0.0
  0
LINE
  5
5A
330
1F
100
AcDbEntity
  8
LAYER0016
 62
     7
100
AcDbLine
 10
-22.92499961853027
 20
-103.7550000476837
 30
0.0
 11
-22.92499961853027
 21
-105.4500000476837
 31
0.0
  0
LINE
  5
5B
330
1F
100
AcDbEntity
  8
LAYER0016
 62
     7
100
AcDbLine
 10
-32.22499961853028
 20
-114.9500000476837
 30
0.0
 11
-25.32499961853027
 21
-114.9500000476837
 31
0.0
  0
LINE
  5
5C
330
1F
100
AcDbEntity
  8
LAYER0016
 62
     7
100
AcDbLine
 10
-11.82499961853027
 20
98.54999995231628
 30
0.0
 11
-11.82499961853027
 21
96.85499995231629
 31
0.0
  0
LINE
  5
5D
330
1F
100
AcDbEntity
  8
LAYER0016
 62
     7
100
AcDbLine
 10
-11.82499961853027
 20
96.85499995231629
 30
0.0
 11
-0.1249996185302749
 21
96.85499995231629
 31
0.0
  0
LINE
  5
5E
330
1F
100
AcDbEntity
  8
LAYER0016
 62
     7
100
AcDbLine
 10
-0.1249996185302749
 20
96.85499995231629
 30
0.0
 11
-0.1249996185302749
 21
98.54999995231628
 31
0.0
  0
LINE
  5
5F
330
1F
100
AcDbEntity
  8
LAYER0016
 62
     7
100
AcDbLine
 10
-9.424999618530272
 20
108.0499999523163
 30
0.0
 11
-2.524999618530273
 21
108.0499999523163
 31
0.0
  0
LINE
  5
60
330
1F
100
AcDbEntity
  8
LAYER0016
 62
     7
100
AcDbLine
 10
-11.82499961853027
 20
-105.4500000476837
 30
0.0
 11
-11.82499961853027
 21
-103.7550000476837
 31
0.0
  0
LINE
  5
61
330
1F
100
AcDbEntity
  8
LAYER0016
 62
     7
100
AcDbLine
 10
-11.82499961853027
 20
-103.7550000476837
 30
0.0
 11
-0.1249996185302749
 21
-103.7550000476837
 31
0.0
  0
LINE
  5
62
330
1F
100
AcDbEntity
  8
LAYER0016
 62
     7
100
AcDbLine
 10
-0.1249996185302749
 20
-103.7550000476837
 30
0.0
 11
-0.1249996185302749
 21
-105.4500000476837
 31
0.0
  0
LINE
  5
63
330
1F
100
AcDbEntity
  8
LAYER0016
 62
     7
100
AcDbLine
 10
-9.424999618530272
 20
-114.9500000476837
 30
0.0
 11
-2.524999618530273
 21
-114.9500000476837
 31
0.0
  0
LINE
  5
64
330
1F
100
AcDbEntity
  8
LAYER0016
 62
     7
100
AcDbLine
 10
22.12500038146973
 20
-56.95000004768372
 30
0.0
 11
-0.1249996185302749
 21
-56.95000004768372
 31
0.0
  0
LINE
  5
65
330
1F
100
AcDbEntity
  8
LAYER0016
 62
     7
100
AcDbLine
 10
22.12500038146973
 20
50.04999995231628
 30
0.0
 11
-0.1249996185302749
 21
50.04999995231628
 31
0.0
  0
LINE
  5
66
330
1F
100
AcDbEntity
  8
LAYER0016
 62
     7
100
AcDbLine
 10
25.12500038146973
 20
-53.95000004768372
 30
0.0
 11
25.12500038146973
 21
47.04999995231629
 31
0.0
  0
LINE
  5
67
330
1F
100
AcDbEntity
  8
LAYER0016
 62
     7
100
AcDbLine
 10
22.12500038146973
 20
50.04999995231628
 30
0.0
 11
25.12500038146973
 21
47.04999995231629
 31
0.0
  0
LINE
  5
68
330
1F
100
AcDbEntity
  8
LAYER0016
 62
     7
100
AcDbLine
 10
25.12500038146971
 20
-53.9500000476837
 30
0.0
 11
22.12500038146972
 21
-56.9500000476837
 31
0.0
  0
LINE
  5
69
330
1F
100
AcDbEntity
  8
LAYER0016
 62
     7
100
AcDbLine
 10
-0.1249996185302749
 20
-62.95000004768372
 30
0.0
 11
5.875000381469736
 21
-56.95000004768372
 31
0.0
  0
LINE
  5
6A
330
1F
100
AcDbEntity
  8
LAYER0016
 62
     7
100
AcDbLine
 10
5.875000381469725
 20
50.04999995231629
 30
0.0
 11
-0.1249996185302784
 21
56.0499999523163
 31
0.0
  0
LINE
  5
6B
330
1F
100
AcDbEntity
  8
LAYER0016
 62
     7
100
AcDbLine
 10
-56.87499961853028
 20
-56.95000004768372
 30
0.0
 11
-34.62499961853028
 21
-56.95000004768372
 31
0.0
  0
LINE
  5
6C
330
1F
100
AcDbEntity
  8
LAYER0016
 62
     7
100
AcDbLine
 10
-56.87499961853028
 20
50.04999995231628
 30
0.0
 11
-34.62499961853028
 21
50.04999995231628
 31
0.0
  0
LINE
  5
6D
330
1F
100
AcDbEntity
  8
LAYER0016
 62
     7
100
AcDbLine
 10
-34.6249996185303
 20
-62.95000004768373
 30
0.0
 11
-40.6249996185303
 21
-56.95000004768374
 31
0.0
  0
LINE
  5
6E
330
1F
100
AcDbEntity
  8
LAYER0016
 62
     7
100
AcDbLine
 10
-59.87499961853028
 20
-53.95000004768372
 30
0.0
 11
-59.87499961853028
 21
47.04999995231629
 31
0.0
  0
LINE
  5
6F
330
1F
100
AcDbEntity
  8
LAYER0016
 62
     7
100
AcDbLine
 10
-56.87499961853028
 20
50.04999995231628
 30
0.0
 11
-59.87499961853028
 21
47.04999995231629
 31
0.0
  0
LINE
  5
70
330
1F
100
AcDbEntity
  8
LAYER0016
 62
     7
100
AcDbLine
 10
-59.87499961853027
 20
-53.9500000476837
 30
0.0
 11
-56.87499961853028
 21
-56.9500000476837
 31
0.0
  0
LINE
  5
71
330
1F
100
AcDbEntity
  8
LAYER0016
 62
     7
100
AcDbLine
 10
-40.62499961853028
 20
50.0499999523163
 30
0.0
 11
-34.62499961853028
 21
56.0499999523163
 31
0.0
  0
CIRCLE
  5
72
330
1F
100
AcDbEntity
  8
LAYER0016
 62
     7
100
AcDbCircle
 10
167.1750003814697
 20
-3.450000047683716
 30
0.0
 40
9.0
  0
ARC
  5
73
330
1F
100
AcDbEntity
  8
LAYER0016
 62
     7
100
AcDbCircle
 10
-22.12499961853028
 20
92.34999995231628
 30
0.0
 40
0.7999999999999972
100
AcDbArc
 50
180.0
 51
270.0000000000006
  0
ARC
  5
74
330
1F
100
AcDbEntity
  8
LAYER0016
 62
     7
100
AcDbCircle
 10
-12.62499961853027
 20
92.34999995231628
 30
0.0
 40
0.7999999999999972
100
AcDbArc
 50
270.0000000000005
 51
360.0
  0
ARC
  5
75
330
1F
100
AcDbEntity
  8
LAYER0016
 62
     7
100
AcDbCircle
 10
-22.12499961853028
 20
-99.25000004768371
 30
0.0
 40
0.7999999999999972
100
AcDbArc
 50
90.00000000000028
 51
180.0
  0
ARC
  5
76
330
1F
100
AcDbEntity
  8
LAYER0016
 62
     7
100
AcDbCircle
 10
-12.62499961853027
 20
-99.25000004768371
 30
0.0
 40
0.7999999999999972
100
AcDbArc
 50
0.0
 51
90.00000000000016
  0
ARC
  5
77
330
1F
100
AcDbEntity
  8
LAYER0016
 62
     7
100
AcDbCircle
 10
-14.32499961853027
 20
98.54999995231628
 30
0.0
 40
20.3
100
AcDbArc
 50
152.0967036069236
 51
180.0000000000007
  0
ARC
  5
78
330
1F
100
AcDbEntity
  8
LAYER0016
 62
     7
100
AcDbCircle
 10
-43.22499961853028
 20
98.54999995231628
 30
0.0
 40
20.3
100
AcDbArc
 50
0.0
 51
27.90329639307652
  0
ARC
  5
79
330
1F
100
AcDbEntity
  8
LAYER0016
 62
     7
100
AcDbCircle
 10
-14.32499961853027
 20
-105.4500000476837
 30
0.0
 40
20.3
100
AcDbArc
 50
180.0000000000004
 51
207.9032963930773
  0
ARC
  5
7A
330
1F
100
AcDbEntity
  8
LAYER0016
 62
     7
100
AcDbCircle
 10
-43.22499961853028
 20
-105.4500000476837
 30
0.0
 40
20.3
100
AcDbArc
 50
332.0967036069243
 51
360.0000000000007
  0
ARC
  5
7B
330
1F
100
AcDbEntity
  8
LAYER0016
 62
     7
100
AcDbCircle
 10
8.475000381469727
 20
98.54999995231628
 30
0.0
 40
20.3
100
AcDbArc
 50
152.0967036069236
 51
180.0000000000007
  0
ARC
  5
7C
330
1F
100
AcDbEntity
  8
LAYER0016
 62
     7
100
AcDbCircle
 10
-20.42499961853027
 20
98.54999995231628
 30
0.0
 40
20.3
100
AcDbArc
 50
0.0
 51
27.90329639307652
  0
ARC
  5
7D
330
1F
100
AcDbEntity
  8
LAYER0016
 62
     7
100
AcDbCircle
 10
8.475000381469727
 20
-105.4500000476837
 30
0.0
 40
20.3
100
AcDbArc
 50
180.0000000000004
 51
207.9032963930773
  0
ARC
  5
7E
330
1F
100
AcDbEntity
  8
LAYER0016
 62
     7
100
AcDbCircle
 10
-20.42499961853027
 20
-105.4500000476837
 30
0.0
 40
20.3
100
AcDbArc
 50
332.0967036069243
 51
360.0000000000007
  0
CIRCLE
  5
7F
330
1F
100
AcDbEntity
  8
LAYER0016
 62
     7
100
AcDbCircle
 10
167.1750003814697
 20
-3.450000047683716
 30
0.0
 40
53.5
  0
LINE
  5
80
330
1F
100
AcDbEntity
  8
LAYER0016
  6
CENTER
 62
     7
100
AcDbLine
 10
-36.62499961853027
 20
102.8099999523163
 30
0.0
 11
-20.92499961853027
 21
102.8099999523163
 31
0.0
  0
LINE
  5
81
330
1F
100
AcDbEntity
  8
LAYER0016
  6
CENTER
 62
     7
100
AcDbLine
 10
-28.77499961853027
 20
110.0499999523163
 30
0.0
 11
-28.77499961853027
 21
94.85499995231629
 31
0.0
  0
LINE
  5
82
330
1F
100
AcDbEntity
  8
LAYER0016
  6
CENTER
 62
     7
100
AcDbLine
 10
-36.62499961853027
 20
-109.7100000476837
 30
0.0
 11
-20.92499961853027
 21
-109.7100000476837
 31
0.0
  0
LINE
  5
83
330
1F
100
AcDbEntity
  8
LAYER0016
  6
CENTER
 62
     7
100
AcDbLine
 10
-28.77499961853027
 20
-116.9500000476837
 30
0.0
 11
-28.77499961853027
 21
-101.7550000476837
 31
0.0
  0
LINE
  5
84
330
1F
100
AcDbEntity
  8
LAYER0016
  6
CENTER
 62
     7
100
AcDbLine
 10
-13.82499961853027
 20
102.8099999523163
 30
0.0
 11
1.875000381469725
 21
102.8099999523163
 31
0.0
  0
LINE
  5
85
330
1F
100
AcDbEntity
  8
LAYER0016
  6
CENTER
 62
     7
100
AcDbLine
 10
-5.974999618530276
 20
110.0499999523163
 30
0.0
 11
-5.974999618530276
 21
94.85499995231629
 31
0.0
  0
LINE
  5
86
330
1F
100
AcDbEntity
  8
LAYER0016
  6
CENTER
 62
     7
100
AcDbLine
 10
-13.82499961853027
 20
-109.7100000476837
 30
0.0
 11
1.875000381469725
 21
-109.7100000476837
 31
0.0
  0
LINE
  5
87
330
1F
100
AcDbEntity
  8
LAYER0016
  6
CENTER
 62
     7
100
AcDbLine
 10
-5.974999618530276
 20
-116.9500000476837
 30
0.0
 11
-5.974999618530276
 21
-101.7550000476837
 31
0.0
  0
LINE
  5
88
330
1F
100
AcDbEntity
  8
LAYER0016
  6
CENTER
 62
     7
100
AcDbLine
 10
30.86439732142857
 20
-3.450000047683716
 30
0.0
 11
-65.49274553571431
 21
-3.450000047683716
 31
0.0
  0
LINE
  5
89
330
1F
100
AcDbEntity
  8
LAYER0016
  6
CENTER
 62
     7
100
AcDbLine
 10
226.9662388392857
 20
-3.450000047683716
 30
0.0
 11
105.0142299107143
 21
-3.450000047683716
 31
0.0
  0
LINE
  5
8A
330
1F
100
AcDbEntity
  8
LAYER0016
  6
CENTER
 62
     7
100
AcDbLine
 10
167.1750003814697
 20
56.83565848214288
 30
0.0
 11
167.1750003814697
 21
-63.23437499999999
 31
0.0
  0
TEXT
  5
8C
330
1F
100
AcDbEntity
  8
LAYER0016
 62
     7
100
AcDbText
 10
148.4553537559313
 20
-39.30677409454401
 30
0.0
 40
3.200000047683716
  1
RS60-2C35T
 41
0.7824575154503604
  7
FDASTYLE0
 72
     5
 11
180.0347553682131
 21
-39.30677409454401
 31
0.0
100
AcDbText
  0
TEXT
  5
8D
330
1F
100
AcDbEntity
  8
LAYER0016
 62
     7
100
AcDbText
 10
154.8383342725288
 20
-33.30677409454401
 30
0.0
 40
3.200000047683716
  1
TSUBAKI
 41
0.7916984532102623
  7
FDASTYLE0
 72
     5
 11
177.0652309161674
 21
-33.30677409454401
 31
0.0
100
AcDbText
  0
VIEWPORT
  5
2C
330
1B
100
AcDbEntity
 67
     1
  8
0
100
AcDbViewport
 10
80.73674665178572
 20
-3.450000047683716
 30
0.0
 40
877.3769531250001
 41
681.0
 68
     1
 69
     1
1001
ACAD
1000
MVIEW
1002
{
1070
    16
1010
0.0
1020
0.0
1030
0.0
1010
0.0
1020
0.0
1030
1.0
1040
0.0
1040
681.0
1040
80.73674665178572
1040
-3.450000047683716
1040
50.0
1040
0.0
1040
0.0
1070
     0
1070
   100
1070
     0
1070
     1
1070
     0
1070
     0
1070
     0
1070
     0
1040
0.0
1040
0.0
1040
0.0
1040
0.5
1040
0.5
1040
0.0
1040
0.0
1070
     0
1002
{
1002
}
1002
}
  0
ENDSEC
  0
SECTION
  2
OBJECTS
  0
DICTIONARY
  5
C
330
0
100
AcDbDictionary
  3
ACAD_GROUP
350
D
  3
ACAD_LAYOUT
350
1A
  3
ACAD_MLINESTYLE
350
17
  3
ACAD_PLOTSETTINGS
350
19
  3
ACDBHEADERROUNDTRIPXREC
350
8E
  0
DICTIONARY
  5
D
102
{ACAD_REACTORS
330
C
102
}
330
C
100
AcDbDictionary
  0
DICTIONARY
  5
1A
102
{ACAD_REACTORS
330
C
102
}
330
C
100
AcDbDictionary
  0
DICTIONARY
  5
17
102
{ACAD_REACTORS
330
C
102
}
330
C
100
AcDbDictionary
  3
STANDARD
350
18
  0
DICTIONARY
  5
19
102
{ACAD_REACTORS
330
C
102
}
330
C
100
AcDbDictionary
  0
DICTIONARY
  5
8E
102
{ACAD_REACTORS
330
C
102
}
330
C
100
AcDbDictionary
  3
CEPSNTYPE
350
97
  3
DIMSTYLEDATA
350
AD
  3
FINGERPRINTGUID
350
98
  3
HYPERLINKBASE
350
91
  3
INSUNITS
350
96
  3
LAYOUTDICT
350
93
  3
LWETCUNION
350
95
  3
PLOTSETDICT
350
94
  3
PSVPSCALE
350
9A
  3
PUCSBASE
350
9D
  3
PUCSORGBACK
350
A3
  3
PUCSORGBOTTOM
350
9F
  3
PUCSORGFRONT
350
A2
  3
PUCSORGLEFT
350
A0
  3
PUCSORGRIGHT
350
A1
  3
PUCSORGTOP
350
9E
  3
PUCSORTHOREF
350
9B
  3
PUCSORTHOVIEW
350
9C
  3
STYLESHEET
350
92
  3
TSTACKALIGN
350
8F
  3
TSTACKSIZE
350
90
  3
UCSBASE
350
A6
  3
UCSORGBACK
350
AC
  3
UCSORGBOTTOM
350
A8
  3
UCSORGFRONT
350
AB
  3
UCSORGLEFT
350
A9
  3
UCSORGRIGHT
350
AA
  3
UCSORGTOP
350
A7
  3
UCSORTHOREF
350
A4
  3
UCSORTHOVIEW
350
A5
  3
VERSIONGUID
350
99
  0
MLINESTYLE
  5
18
102
{ACAD_REACTORS
330
17
102
}
330
17
100
AcDbMlineStyle
  2
Standard
 70
     0
  3

 62
   256
 51
90.0
 52
90.0
 71
     2
 49
0.5
 62
   256
  6
BYLAYER
 49
-0.5
 62
   256
  6
BYLAYER
  0
XRECORD
  5
97
102
{ACAD_REACTORS
330
8E
102
}
330
8E
100
AcDbXrecord
 90
        0
  0
XRECORD
  5
AD
102
{ACAD_REACTORS
330
8E
102
}
330
8E
100
AcDbXrecord
1000
DSTYLE
1002
{
1070
   171
 70
     2
1070
   143
 40
25.4
1070
   274
 70
     2
1070
   141
 40
0.09
1070
   271
 70
     4
1070
    43
 40
0.38
1070
    44
 40
0.18
1070
   278
 70
    46
1070
    42
 40
0.0625
1070
   147
 40
0.09
1070
    77
 70
     3
1070
   272
 70
     4
1070
    73
 70
     1
1070
   172
 70
     0
1070
    74
 70
     1
1070
   283
 70
     1
1070
   340
340
11
1070
   140
 40
0.18
1070
   284
 70
     0
1070
    78
 70
     0
1002
}
  0
XRECORD
  5
98
102
{ACAD_REACTORS
330
8E
102
}
330
8E
100
AcDbXrecord
  1
{AD4CB5AA-00DC-42A4-9DCB-423AFD42BCC8}
  0
XRECORD
  5
91
102
{ACAD_REACTORS
330
8E
102
}
330
8E
100
AcDbXrecord
  1

  0
XRECORD
  5
96
102
{ACAD_REACTORS
330
8E
102
}
330
8E
100
AcDbXrecord
 90
        4
  0
XRECORD
  5
93
102
{ACAD_REACTORS
330
8E
102
}
330
8E
100
AcDbXrecord
340
1A
  0
XRECORD
  5
95
102
{ACAD_REACTORS
330
8E
102
}
330
8E
100
AcDbXrecord
 90
    10781
  0
XRECORD
  5
94
102
{ACAD_REACTORS
330
8E
102
}
330
8E
100
AcDbXrecord
340
19
  0
XRECORD
  5
9A
102
{ACAD_REACTORS
330
8E
102
}
330
8E
100
AcDbXrecord
 40
0.0
  0
XRECORD
  5
9D
102
{ACAD_REACTORS
330
8E
102
}
330
8E
100
AcDbXrecord
340
0
  0
XRECORD
  5
A3
102
{ACAD_REACTORS
330
8E
102
}
330
8E
100
AcDbXrecord
 10
0.0
 20
0.0
 30
0.0
  0
XRECORD
  5
9F
102
{ACAD_REACTORS
330
8E
102
}
330
8E
100
AcDbXrecord
 10
0.0
 20
0.0
 30
0.0
  0
XRECORD
  5
A2
102
{ACAD_REACTORS
330
8E
102
}
330
8E
100
AcDbXrecord
 10
0.0
 20
0.0
 30
0.0
  0
XRECORD
  5
A0
102
{ACAD_REACTORS
330
8E
102
}
330
8E
100
AcDbXrecord
 10
0.0
 20
0.0
 30
0.0
  0
XRECORD
  5
A1
102
{ACAD_REACTORS
330
8E
102
}
330
8E
100
AcDbXrecord
 10
0.0
 20
0.0
 30
0.0
  0
XRECORD
  5
9E
102
{ACAD_REACTORS
330
8E
102
}
330
8E
100
AcDbXrecord
 10
0.0
 20
0.0
 30
0.0
  0
XRECORD
  5
9B
102
{ACAD_REACTORS
330
8E
102
}
330
8E
100
AcDbXrecord
340
0
  0
XRECORD
  5
9C
102
{ACAD_REACTORS
330
8E
102
}
330
8E
100
AcDbXrecord
 70
     0
  0
XRECORD
  5
92
102
{ACAD_REACTORS
330
8E
102
}
330
8E
100
AcDbXrecord
  1

  0
XRECORD
  5
8F
102
{ACAD_REACTORS
330
8E
102
}
330
8E
100
AcDbXrecord
 90
        1
  0
XRECORD
  5
90
102
{ACAD_REACTORS
330
8E
102
}
330
8E
100
AcDbXrecord
 90
       70
  0
XRECORD
  5
A6
102
{ACAD_REACTORS
330
8E
102
}
330
8E
100
AcDbXrecord
340
0
  0
XRECORD
  5
AC
102
{ACAD_REACTORS
330
8E
102
}
330
8E
100
AcDbXrecord
 10
0.0
 20
0.0
 30
0.0
  0
XRECORD
  5
A8
102
{ACAD_REACTORS
330
8E
102
}
330
8E
100
AcDbXrecord
 10
0.0
 20
0.0
 30
0.0
  0
XRECORD
  5
AB
102
{ACAD_REACTORS
330
8E
102
}
330
8E
100
AcDbXrecord
 10
0.0
 20
0.0
 30
0.0
  0
XRECORD
  5
A9
102
{ACAD_REACTORS
330
8E
102
}
330
8E
100
AcDbXrecord
 10
0.0
 20
0.0
 30
0.0
  0
XRECORD
  5
AA
102
{ACAD_REACTORS
330
8E
102
}
330
8E
100
AcDbXrecord
 10
0.0
 20
0.0
 30
0.0
  0
XRECORD
  5
A7
102
{ACAD_REACTORS
330
8E
102
}
330
8E
100
AcDbXrecord
 10
0.0
 20
0.0
 30
0.0
  0
XRECORD
  5
A4
102
{ACAD_REACTORS
330
8E
102
}
330
8E
100
AcDbXrecord
340
0
  0
XRECORD
  5
A5
102
{ACAD_REACTORS
330
8E
102
}
330
8E
100
AcDbXrecord
 70
     0
  0
XRECORD
  5
99
102
{ACAD_REACTORS
330
8E
102
}
330
8E
100
AcDbXrecord
  1
{FAEB1C32-E019-11D5-929B-00C0DF256EC4}
  0
ENDSEC
  0
EOF
