  0
SECTION
  2
HEADER
  9
$EXTMAX
 10
95.5
 20
141
 30
0
  9
$EXTMIN
 10
-95.5
 20
-141
 30
0
  9
$LIMMAX
 10
95.5
 20
141
  9
$LIMMIN
 10
-95.5
 20
-141
  9
$PLIMMAX
 10
95.5
 20
141
  9
$PLIMMIN
 10
-95.5
 20
-141
  9
$TEXTSIZE
 40
3.2
  9
$DIMSHO
 70
     0
  9
$DIMASZ
 40
1.0
  9
$DIMTAD
 70
     1
  9
$DIMTIH
 70
     0
  9
$DIMTOH
 70
     0
  9
$DIMEXE
 40
2.54
  9
$DIMEXO
 40
2.54
  9
$DIMTVP
 40
1.0
  9
$DIMSAH
 70
     1
  9
$DIMDLE
 40
0.0
  9
$DIMTXT
 40
3.200000047683716
  9
$DIMGAP
 40
1.600000023841858
  0
ENDSEC
  0
SECTION
  2
TABLES
  0
TABLE
  2
LTYPE
 70
     39
  0
LTYPE
  2
CONTINUOUS
 70
    64
  3
Solid line
 72
    65
 73
     0
 40
0.0
  0
LTYPE
  2
ACAD_ISO02W100
 70
     0
  3
ISO dash __ __ __ __ __ __ __ __ __ __ __ __ __
 72
    65
 73
     2
 40
15.0
 49
12.0
 49
-3.0
  0
LTYPE
  2
ACAD_ISO03W100
 70
     0
  3
ISO dash space __    __    __    __    __    __
 72
    65
 73
     2
 40
30.0
 49
12.0
 49
-18.0
  0
LTYPE
  2
ACAD_ISO04W100
 70
     0
  3
ISO long-dash dot ____ . ____ . ____ . ____ . _
 72
    65
 73
     4
 40
30.0
 49
24.0
 49
-3.0
 49
0.0
 49
-3.0
  0
LTYPE
  2
ACAD_ISO05W100
 70
     0
  3
ISO long-dash double-dot ____ .. ____ .. ____ .
 72
    65
 73
     6
 40
33.0
 49
24.0
 49
-3.0
 49
0.0
 49
-3.0
 49
0.0
 49
-3.0
  0
LTYPE
  2
ACAD_ISO06W100
 70
     0
  3
ISO long-dash triple-dot ____ ... ____ ... ____
 72
    65
 73
     8
 40
36.0
 49
24.0
 49
-3.0
 49
0.0
 49
-3.0
 49
0.0
 49
-3.0
 49
0.0
 49
-3.0
  0
LTYPE
  2
ACAD_ISO07W100
 70
     0
  3
ISO dot . . . . . . . . . . . . . . . . . . . .
 72
    65
 73
     2
 40
3.0
 49
0.0
 49
-3.0
  0
LTYPE
  2
ACAD_ISO08W100
 70
     0
  3
ISO long-dash short-dash ____ __ ____ __ ____ _
 72
    65
 73
     4
 40
36.0
 49
24.0
 49
-3.0
 49
6.0
 49
-3.0
  0
LTYPE
  2
ACAD_ISO09W100
 70
     0
  3
ISO long-dash double-short-dash ____ __ __ ____
 72
    65
 73
     6
 40
45.0
 49
24.0
 49
-3.0
 49
6.0
 49
-3.0
 49
6.0
 49
-3.0
  0
LTYPE
  2
ACAD_ISO10W100
 70
     0
  3
ISO dash dot __ . __ . __ . __ . __ . __ . __ .
 72
    65
 73
     4
 40
18.0
 49
12.0
 49
-3.0
 49
0.0
 49
-3.0
  0
LTYPE
  2
ACAD_ISO11W100
 70
     0
  3
ISO double-dash dot __ __ . __ __ . __ __ . __ 
 72
    65
 73
     6
 40
33.0
 49
12.0
 49
-3.0
 49
12.0
 49
-3.0
 49
0.0
 49
-3.0
  0
LTYPE
  2
ACAD_ISO12W100
 70
     0
  3
ISO dash double-dot __ . . __ . . __ . . __ . .
 72
    65
 73
     6
 40
21.0
 49
12.0
 49
-3.0
 49
0.0
 49
-3.0
 49
0.0
 49
-3.0
  0
LTYPE
  2
ACAD_ISO13W100
 70
     0
  3
ISO double-dash double-dot __ __ . . __ __ . . 
 72
    65
 73
     8
 40
36.0
 49
12.0
 49
-3.0
 49
12.0
 49
-3.0
 49
0.0
 49
-3.0
 49
0.0
 49
-3.0
  0
LTYPE
  2
ACAD_ISO14W100
 70
     0
  3
ISO dash triple-dot __ . . . __ . . . __ . . . 
 72
    65
 73
     8
 40
24.0
 49
12.0
 49
-3.0
 49
0.0
 49
-3.0
 49
0.0
 49
-3.0
 49
0.0
 49
-3.0
  0
LTYPE
  2
ACAD_ISO15W100
 70
     0
  3
ISO double-dash triple-dot __ __ . . . __ __ . 
 72
    65
 73
    10
 40
39.0
 49
12.0
 49
-3.0
 49
12.0
 49
-3.0
 49
0.0
 49
-3.0
 49
0.0
 49
-3.0
 49
0.0
 49
-3.0
  0
LTYPE
  2
BORDER
 70
    64
  3
Border __ __ . __ __ . __ __ . __ __ . __ __ .
 72
    65
 73
     6
 40
3.5
 49
1.0
 49
-0.5
 49
1.0
 49
-0.5
 49
0.0
 49
-0.5
  0
LTYPE
  2
BORDER2
 70
    64
  3
Border (.5x) __.__.__.__.__.__.__.__.__.__.__.
 72
    65
 73
     6
 40
1.75
 49
0.5
 49
-0.25
 49
0.5
 49
-0.25
 49
0.0
 49
-0.25
  0
LTYPE
  2
BORDERX2
 70
    64
  3
Border (2x) ____  ____  .  ____  ____  .  ___
 72
    65
 73
     6
 40
7.0
 49
2.0
 49
-1.0
 49
2.0
 49
-1.0
 49
0.0
 49
-1.0
  0
LTYPE
  2
CENTER
 70
    64
  3
Center ____ _ ____ _ ____ _ ____ _ ____ _ ____
 72
    65
 73
     4
 40
12.0
 49
7.5
 49
-1.5
 49
1.5
 49
-1.5
  0
LTYPE
  2
CENTER2
 70
    64
  3
Center (.5x) ___ _ ___ _ ___ _ ___ _ ___ _ ___
 72
    65
 73
     4
 40
6.0
 49
3.75
 49
-0.75
 49
0.75
 49
-0.75
  0
LTYPE
  2
CENTERX2
 70
    64
  3
Center (2x) ________  __  ________  __  _____
 72
    65
 73
     4
 40
24.0
 49
15.0
 49
-3.0
 49
3.0
 49
-3.0
  0
LTYPE
  2
DASHDOT
 70
    64
  3
Dash dot __ . __ . __ . __ . __ . __ . __ . __
 72
    65
 73
     4
 40
6.0
 49
3.0
 49
-1.5
 49
0.0
 49
-1.5
  0
LTYPE
  2
DASHDOT2
 70
    64
  3
Dash dot (.5x) _._._._._._._._._._._._._._._.
 72
    65
 73
     4
 40
3.0
 49
1.5
 49
-0.75
 49
0.0
 49
-0.75
  0
LTYPE
  2
DASHDOTX2
 70
    64
  3
Dash dot (2x) ____  .  ____  .  ____  .  ___
 72
    65
 73
     4
 40
12.0
 49
6.0
 49
-3.0
 49
0.0
 49
-3.0
  0
LTYPE
  2
DASHED
 70
    64
  3
Dashed __ __ __ __ __ __ __ __ __ __ __ __ __ _
 72
    65
 73
     2
 40
4.5
 49
3.0
 49
-1.5
  0
LTYPE
  2
DASHED2
 70
    64
  3
Dashed (.5x) _ _ _ _ _ _ _ _ _ _ _ _ _ _ _ _ _
 72
    65
 73
     2
 40
2.25
 49
1.5
 49
-0.75
  0
LTYPE
  2
DASHEDX2
 70
    64
  3
Dashed (2x) ____  ____  ____  ____  ____  ___
 72
    65
 73
     2
 40
9.0
 49
6.0
 49
-3.0
  0
LTYPE
  2
DIVIDE
 70
    64
  3
Divide ____ . . ____ . . ____ . . ____ . . ____
 72
    65
 73
     6
 40
7.5
 49
3.0
 49
-1.5
 49
0.0
 49
-1.5
 49
0.0
 49
-1.5
  0
LTYPE
  2
DIVIDE2
 70
    64
  3
Divide (.5x) __..__..__..__..__..__..__..__.._
 72
    65
 73
     6
 40
3.75
 49
1.5
 49
-0.75
 49
0.0
 49
-0.75
 49
0.0
 49
-0.75
  0
LTYPE
  2
DIVIDEX2
 70
    64
  3
Divide (2x) ________  .  .  ________  .  .  _
 72
    65
 73
     6
 40
15.0
 49
6.0
 49
-3.0
 49
0.0
 49
-3.0
 49
0.0
 49
-3.0
  0
LTYPE
  2
DOT
 70
    64
  3
Dot . . . . . . . . . . . . . . . . . . . . . .
 72
    65
 73
     2
 40
1.5
 49
0.0
 49
-1.5
  0
LTYPE
  2
DOT2
 70
    64
  3
Dot (.5x) .....................................
 72
    65
 73
     2
 40
0.75
 49
0.0
 49
-0.75
  0
LTYPE
  2
DOTX2
 70
    64
  3
Dot (2x) .  .  .  .  .  .  .  .  .  .  .  .  . 
 72
    65
 73
     2
 40
3.0
 49
0.0
 49
-3.0
  0
LTYPE
  2
HIDDEN
 70
    64
  3
Hidden __ __ __ __ __ __ __ __ __ __ __ __ __ _
 72
    65
 73
     2
 40
4.5
 49
3.0
 49
-1.5
  0
LTYPE
  2
HIDDEN2
 70
    64
  3
Hidden (.5x) _ _ _ _ _ _ _ _ _ _ _ _ _ _ _ _ _
 72
    65
 73
     2
 40
2.25
 49
1.5
 49
-0.75
  0
LTYPE
  2
HIDDENX2
 70
    64
  3
Hidden (2x) ____ ____ ____ ____ ____ ____ ____
 72
    65
 73
     2
 40
9.0
 49
6.0
 49
-3.0
  0
LTYPE
  2
PHANTOM
 70
    64
  3
Phantom ______  __  __  ______  __  __  ______
 72
    65
 73
     6
 40
15.0
 49
7.5
 49
-1.5
 49
1.5
 49
-1.5
 49
1.5
 49
-1.5
  0
LTYPE
  2
PHANTOM2
 70
    64
  3
Phantom (.5x) ___ _ _ ___ _ _ ___ _ _ ___ _ _
 72
    65
 73
     6
 40
7.5
 49
3.75
 49
-0.75
 49
0.75
 49
-0.75
 49
0.75
 49
-0.75
  0
LTYPE
  2
PHANTOMX2
 70
    64
  3
Phantom (2x) ____________    ____    ____   _
 72
    65
 73
     6
 40
30.0
 49
15.0
 49
-3.0
 49
3.0
 49
-3.0
 49
3.0
 49
-3.0
  0
ENDTAB
  0
TABLE
  2
LAYER
 70
     3
  0
LAYER
  2
0
 70
     0
 62
     7
  6
CONTINUOUS
  0
LAYER
  2
1
 70
     0
 62
     7
  6
CONTINUOUS
  0
LAYER
  2
2
 70
     0
 62
     7
  6
CONTINUOUS
  0
ENDTAB
  0
TABLE
  2
STYLE
 70
     1
  0
STYLE
  2
STANDARD
 70
     0
 40
0.0
 41
1.0
 50
0.0
 71
     0
 42
0.2
  3
txt
  4
BIGFONT
  0
ENDTAB
  0
TABLE
  2
DIMSTYLE
 70
     0
  0
ENDTAB
  0
ENDSEC
  0
SECTION
  2
BLOCKS
  0
ENDSEC
  0
SECTION
  2
ENTITIES
  0
LINE
  8
0
  6
CONTINUOUS
 62
     7
 10
-39.25199813842774
 20
5.739999952316285
 11
0.7480018615722628
 21
5.739999952316285
  0
LINE
  8
0
  6
CONTINUOUS
 62
     7
 10
-39.25199813842774
 20
-10.14000004768372
 11
0.7480018615722628
 21
-10.14000004768372
  0
LINE
  8
0
  6
CONTINUOUS
 62
     7
 10
-27.35199813842774
 20
40.09999995231628
 11
-27.35199813842774
 21
47.79999995231628
  0
LINE
  8
0
  6
CONTINUOUS
 62
     7
 10
-39.25199813842774
 20
47.79999995231628
 11
-39.25199813842774
 21
-52.20000004768372
  0
LINE
  8
0
  6
CONTINUOUS
 62
     7
 10
-27.35199813842774
 20
-44.50000004768371
 11
-27.35199813842774
 21
-52.20000004768372
  0
LINE
  8
0
  6
CONTINUOUS
 62
     7
 10
-26.55199813842773
 20
39.29999995231628
 11
-2.251998138427734
 21
39.29999995231628
  0
LINE
  8
0
  6
CONTINUOUS
 62
     7
 10
-2.25199813842772
 20
39.2999999523163
 11
0.7480018615722806
 21
36.2999999523163
  0
LINE
  8
0
  6
CONTINUOUS
 62
     7
 10
0.7480018615722699
 20
36.29999995231628
 11
0.7480018615722699
 21
-40.70000004768372
  0
LINE
  8
0
  6
CONTINUOUS
 62
     7
 10
0.7480018615722734
 20
-40.70000004768372
 11
-2.25199813842773
 21
-43.70000004768372
  0
LINE
  8
0
  6
CONTINUOUS
 62
     7
 10
-2.251998138427734
 20
-43.70000004768372
 11
-26.55199813842773
 21
-43.70000004768372
  0
LINE
  8
0
  6
CONTINUOUS
 62
     7
 10
-39.25199813842774
 20
46.69999995231628
 11
-27.35199813842774
 21
46.69999995231628
  0
LINE
  8
0
  6
CONTINUOUS
 62
     7
 10
-36.891897803699
 20
57.29999995231628
 11
-29.71209847315648
 21
57.29999995231628
  0
LINE
  8
0
  6
CENTER
 62
     7
 10
-40.25199813842774
 20
52.64999995231629
 11
-26.35199813842774
 21
52.64999995231629
  0
LINE
  8
0
  6
CENTER
 62
     7
 10
-33.30199813842773
 20
58.29499995231628
 11
-33.30199813842773
 21
45.69499995231629
  0
LINE
  8
0
  6
CONTINUOUS
 62
     7
 10
-39.25199813842774
 20
-51.10000004768371
 11
-27.35199813842774
 21
-51.10000004768371
  0
LINE
  8
0
  6
CONTINUOUS
 62
     7
 10
-36.891897803699
 20
-61.70000004768372
 11
-29.71209847315648
 21
-61.70000004768372
  0
LINE
  8
0
  6
CENTER
 62
     7
 10
4.153001861572264
 20
-2.200000047683716
 11
-39.84699813842774
 21
-2.200000047683716
  0
LINE
  8
0
  6
CENTER
 62
     7
 10
108.5920018615723
 20
42.79999995231629
 11
108.5920018615723
 21
-47.20000004768371
  0
LINE
  8
0
  6
CENTER
 62
     7
 10
63.59200186157226
 20
-2.200000047683716
 11
153.5920018615723
 21
-2.200000047683716
  0
LINE
  8
0
  6
CENTER
 62
     7
 10
-40.25199813842774
 20
-57.05000004768372
 11
-26.35199813842774
 21
-57.05000004768372
  0
LINE
  8
0
  6
CENTER
 62
     7
 10
-33.30199813842773
 20
-62.69500004768371
 11
-33.30199813842773
 21
-50.09500004768372
  0
CIRCLE
  8
0
  6
CONTINUOUS
 62
     7
 10
108.5920018615723
 20
-2.200000047683716
 40
7.94
  0
ARC
  8
0
  6
CONTINUOUS
 62
     7
 10
-26.55199813842773
 20
40.09999995231628
 40
0.8
 50
180.0000000000012
 51
270.0000000000012
  0
ARC
  8
0
  6
CONTINUOUS
 62
     7
 10
-26.55199813842773
 20
-44.50000004768371
 40
0.8
 50
90.00000000000026
 51
180.0000000000012
  0
ARC
  8
0
  6
CONTINUOUS
 62
     7
 10
-18.95199813842773
 20
47.79999995231628
 40
20.3
 50
152.0967036069235
 51
180.0000000000014
  0
ARC
  8
0
  6
CONTINUOUS
 62
     7
 10
-47.65199813842774
 20
47.79999995231628
 40
20.3
 50
0
 51
27.90329639307654
  0
ARC
  8
0
  6
CONTINUOUS
 62
     7
 10
-18.95199813842773
 20
-52.20000004768372
 40
20.3
 50
180.0000000000011
 51
207.9032728241711
  0
ARC
  8
0
  6
CONTINUOUS
 62
     7
 10
-47.65199813842774
 20
-52.20000004768372
 40
20.3
 50
332.0967271758303
 51
7.420249739611436e-013
  0
CIRCLE
  8
0
  6
CONTINUOUS
 62
     7
 10
108.5920018615723
 20
-2.200000047683716
 40
41.49999999999999
  0
TEXT
  8
0
  6
CONTINUOUS
 62
     7
 10
93.049001879854
 20
-29.80000007152557
 40
3.200000047683716
 41
0.8905462165103252
  1
ＲＳ６０－１Ｂ１８Ｔ
  0
TEXT
  8
0
  6
CONTINUOUS
 62
     7
 10
97.84900190600874
 20
-23.80000007152557
 40
3.200000047683716
 41
1.077812859977847
  1
TSUBAKI
  0
ENDSEC
  0
EOF
