  0
SECTION
  2
HEADER
  9
$EXTMAX
 10
95.5
 20
141
 30
0
  9
$EXTMIN
 10
-95.5
 20
-141
 30
0
  9
$LIMMAX
 10
95.5
 20
141
  9
$LIMMIN
 10
-95.5
 20
-141
  9
$PLIMMAX
 10
95.5
 20
141
  9
$PLIMMIN
 10
-95.5
 20
-141
  9
$TEXTSIZE
 40
3.2
  9
$DIMSHO
 70
     0
  9
$DIMASZ
 40
1.0
  9
$DIMTAD
 70
     1
  9
$DIMTIH
 70
     0
  9
$DIMTOH
 70
     0
  9
$DIMEXE
 40
2.54
  9
$DIMEXO
 40
2.54
  9
$DIMTVP
 40
1.0
  9
$DIMSAH
 70
     1
  9
$DIMDLE
 40
0.0
  9
$DIMTXT
 40
3.200000047683716
  9
$DIMGAP
 40
1.600000023841858
  0
ENDSEC
  0
SECTION
  2
TABLES
  0
TABLE
  2
LTYPE
 70
     39
  0
LTYPE
  2
CONTINUOUS
 70
    64
  3
Solid line
 72
    65
 73
     0
 40
0.0
  0
LTYPE
  2
ACAD_ISO02W100
 70
     0
  3
ISO dash __ __ __ __ __ __ __ __ __ __ __ __ __
 72
    65
 73
     2
 40
15.0
 49
12.0
 49
-3.0
  0
LTYPE
  2
ACAD_ISO03W100
 70
     0
  3
ISO dash space __    __    __    __    __    __
 72
    65
 73
     2
 40
30.0
 49
12.0
 49
-18.0
  0
LTYPE
  2
ACAD_ISO04W100
 70
     0
  3
ISO long-dash dot ____ . ____ . ____ . ____ . _
 72
    65
 73
     4
 40
30.0
 49
24.0
 49
-3.0
 49
0.0
 49
-3.0
  0
LTYPE
  2
ACAD_ISO05W100
 70
     0
  3
ISO long-dash double-dot ____ .. ____ .. ____ .
 72
    65
 73
     6
 40
33.0
 49
24.0
 49
-3.0
 49
0.0
 49
-3.0
 49
0.0
 49
-3.0
  0
LTYPE
  2
ACAD_ISO06W100
 70
     0
  3
ISO long-dash triple-dot ____ ... ____ ... ____
 72
    65
 73
     8
 40
36.0
 49
24.0
 49
-3.0
 49
0.0
 49
-3.0
 49
0.0
 49
-3.0
 49
0.0
 49
-3.0
  0
LTYPE
  2
ACAD_ISO07W100
 70
     0
  3
ISO dot . . . . . . . . . . . . . . . . . . . .
 72
    65
 73
     2
 40
3.0
 49
0.0
 49
-3.0
  0
LTYPE
  2
ACAD_ISO08W100
 70
     0
  3
ISO long-dash short-dash ____ __ ____ __ ____ _
 72
    65
 73
     4
 40
36.0
 49
24.0
 49
-3.0
 49
6.0
 49
-3.0
  0
LTYPE
  2
ACAD_ISO09W100
 70
     0
  3
ISO long-dash double-short-dash ____ __ __ ____
 72
    65
 73
     6
 40
45.0
 49
24.0
 49
-3.0
 49
6.0
 49
-3.0
 49
6.0
 49
-3.0
  0
LTYPE
  2
ACAD_ISO10W100
 70
     0
  3
ISO dash dot __ . __ . __ . __ . __ . __ . __ .
 72
    65
 73
     4
 40
18.0
 49
12.0
 49
-3.0
 49
0.0
 49
-3.0
  0
LTYPE
  2
ACAD_ISO11W100
 70
     0
  3
ISO double-dash dot __ __ . __ __ . __ __ . __ 
 72
    65
 73
     6
 40
33.0
 49
12.0
 49
-3.0
 49
12.0
 49
-3.0
 49
0.0
 49
-3.0
  0
LTYPE
  2
ACAD_ISO12W100
 70
     0
  3
ISO dash double-dot __ . . __ . . __ . . __ . .
 72
    65
 73
     6
 40
21.0
 49
12.0
 49
-3.0
 49
0.0
 49
-3.0
 49
0.0
 49
-3.0
  0
LTYPE
  2
ACAD_ISO13W100
 70
     0
  3
ISO double-dash double-dot __ __ . . __ __ . . 
 72
    65
 73
     8
 40
36.0
 49
12.0
 49
-3.0
 49
12.0
 49
-3.0
 49
0.0
 49
-3.0
 49
0.0
 49
-3.0
  0
LTYPE
  2
ACAD_ISO14W100
 70
     0
  3
ISO dash triple-dot __ . . . __ . . . __ . . . 
 72
    65
 73
     8
 40
24.0
 49
12.0
 49
-3.0
 49
0.0
 49
-3.0
 49
0.0
 49
-3.0
 49
0.0
 49
-3.0
  0
LTYPE
  2
ACAD_ISO15W100
 70
     0
  3
ISO double-dash triple-dot __ __ . . . __ __ . 
 72
    65
 73
    10
 40
39.0
 49
12.0
 49
-3.0
 49
12.0
 49
-3.0
 49
0.0
 49
-3.0
 49
0.0
 49
-3.0
 49
0.0
 49
-3.0
  0
LTYPE
  2
BORDER
 70
    64
  3
Border __ __ . __ __ . __ __ . __ __ . __ __ .
 72
    65
 73
     6
 40
3.5
 49
1.0
 49
-0.5
 49
1.0
 49
-0.5
 49
0.0
 49
-0.5
  0
LTYPE
  2
BORDER2
 70
    64
  3
Border (.5x) __.__.__.__.__.__.__.__.__.__.__.
 72
    65
 73
     6
 40
1.75
 49
0.5
 49
-0.25
 49
0.5
 49
-0.25
 49
0.0
 49
-0.25
  0
LTYPE
  2
BORDERX2
 70
    64
  3
Border (2x) ____  ____  .  ____  ____  .  ___
 72
    65
 73
     6
 40
7.0
 49
2.0
 49
-1.0
 49
2.0
 49
-1.0
 49
0.0
 49
-1.0
  0
LTYPE
  2
CENTER
 70
    64
  3
Center ____ _ ____ _ ____ _ ____ _ ____ _ ____
 72
    65
 73
     4
 40
12.0
 49
7.5
 49
-1.5
 49
1.5
 49
-1.5
  0
LTYPE
  2
CENTER2
 70
    64
  3
Center (.5x) ___ _ ___ _ ___ _ ___ _ ___ _ ___
 72
    65
 73
     4
 40
6.0
 49
3.75
 49
-0.75
 49
0.75
 49
-0.75
  0
LTYPE
  2
CENTERX2
 70
    64
  3
Center (2x) ________  __  ________  __  _____
 72
    65
 73
     4
 40
24.0
 49
15.0
 49
-3.0
 49
3.0
 49
-3.0
  0
LTYPE
  2
DASHDOT
 70
    64
  3
Dash dot __ . __ . __ . __ . __ . __ . __ . __
 72
    65
 73
     4
 40
6.0
 49
3.0
 49
-1.5
 49
0.0
 49
-1.5
  0
LTYPE
  2
DASHDOT2
 70
    64
  3
Dash dot (.5x) _._._._._._._._._._._._._._._.
 72
    65
 73
     4
 40
3.0
 49
1.5
 49
-0.75
 49
0.0
 49
-0.75
  0
LTYPE
  2
DASHDOTX2
 70
    64
  3
Dash dot (2x) ____  .  ____  .  ____  .  ___
 72
    65
 73
     4
 40
12.0
 49
6.0
 49
-3.0
 49
0.0
 49
-3.0
  0
LTYPE
  2
DASHED
 70
    64
  3
Dashed __ __ __ __ __ __ __ __ __ __ __ __ __ _
 72
    65
 73
     2
 40
4.5
 49
3.0
 49
-1.5
  0
LTYPE
  2
DASHED2
 70
    64
  3
Dashed (.5x) _ _ _ _ _ _ _ _ _ _ _ _ _ _ _ _ _
 72
    65
 73
     2
 40
2.25
 49
1.5
 49
-0.75
  0
LTYPE
  2
DASHEDX2
 70
    64
  3
Dashed (2x) ____  ____  ____  ____  ____  ___
 72
    65
 73
     2
 40
9.0
 49
6.0
 49
-3.0
  0
LTYPE
  2
DIVIDE
 70
    64
  3
Divide ____ . . ____ . . ____ . . ____ . . ____
 72
    65
 73
     6
 40
7.5
 49
3.0
 49
-1.5
 49
0.0
 49
-1.5
 49
0.0
 49
-1.5
  0
LTYPE
  2
DIVIDE2
 70
    64
  3
Divide (.5x) __..__..__..__..__..__..__..__.._
 72
    65
 73
     6
 40
3.75
 49
1.5
 49
-0.75
 49
0.0
 49
-0.75
 49
0.0
 49
-0.75
  0
LTYPE
  2
DIVIDEX2
 70
    64
  3
Divide (2x) ________  .  .  ________  .  .  _
 72
    65
 73
     6
 40
15.0
 49
6.0
 49
-3.0
 49
0.0
 49
-3.0
 49
0.0
 49
-3.0
  0
LTYPE
  2
DOT
 70
    64
  3
Dot . . . . . . . . . . . . . . . . . . . . . .
 72
    65
 73
     2
 40
1.5
 49
0.0
 49
-1.5
  0
LTYPE
  2
DOT2
 70
    64
  3
Dot (.5x) .....................................
 72
    65
 73
     2
 40
0.75
 49
0.0
 49
-0.75
  0
LTYPE
  2
DOTX2
 70
    64
  3
Dot (2x) .  .  .  .  .  .  .  .  .  .  .  .  . 
 72
    65
 73
     2
 40
3.0
 49
0.0
 49
-3.0
  0
LTYPE
  2
HIDDEN
 70
    64
  3
Hidden __ __ __ __ __ __ __ __ __ __ __ __ __ _
 72
    65
 73
     2
 40
4.5
 49
3.0
 49
-1.5
  0
LTYPE
  2
HIDDEN2
 70
    64
  3
Hidden (.5x) _ _ _ _ _ _ _ _ _ _ _ _ _ _ _ _ _
 72
    65
 73
     2
 40
2.25
 49
1.5
 49
-0.75
  0
LTYPE
  2
HIDDENX2
 70
    64
  3
Hidden (2x) ____ ____ ____ ____ ____ ____ ____
 72
    65
 73
     2
 40
9.0
 49
6.0
 49
-3.0
  0
LTYPE
  2
PHANTOM
 70
    64
  3
Phantom ______  __  __  ______  __  __  ______
 72
    65
 73
     6
 40
15.0
 49
7.5
 49
-1.5
 49
1.5
 49
-1.5
 49
1.5
 49
-1.5
  0
LTYPE
  2
PHANTOM2
 70
    64
  3
Phantom (.5x) ___ _ _ ___ _ _ ___ _ _ ___ _ _
 72
    65
 73
     6
 40
7.5
 49
3.75
 49
-0.75
 49
0.75
 49
-0.75
 49
0.75
 49
-0.75
  0
LTYPE
  2
PHANTOMX2
 70
    64
  3
Phantom (2x) ____________    ____    ____   _
 72
    65
 73
     6
 40
30.0
 49
15.0
 49
-3.0
 49
3.0
 49
-3.0
 49
3.0
 49
-3.0
  0
ENDTAB
  0
TABLE
  2
LAYER
 70
     3
  0
LAYER
  2
0
 70
     0
 62
     7
  6
CONTINUOUS
  0
LAYER
  2
1
 70
     0
 62
     7
  6
CONTINUOUS
  0
LAYER
  2
2
 70
     0
 62
     7
  6
CONTINUOUS
  0
ENDTAB
  0
TABLE
  2
STYLE
 70
     1
  0
STYLE
  2
STANDARD
 70
     0
 40
0.0
 41
1.0
 50
0.0
 71
     0
 42
0.2
  3
txt
  4
BIGFONT
  0
ENDTAB
  0
TABLE
  2
DIMSTYLE
 70
     0
  0
ENDTAB
  0
ENDSEC
  0
SECTION
  2
BLOCKS
  0
ENDSEC
  0
SECTION
  2
ENTITIES
  0
LINE
  8
0
  6
CONTINUOUS
 62
     7
 10
-42.65299911499023
 20
7.906666664928198
 11
-10.65299911499023
 21
7.906666664928198
  0
LINE
  8
0
  6
CONTINUOUS
 62
     7
 10
-42.65299911499023
 20
-7.973333335071803
 11
-10.65299911499023
 21
-7.973333335071803
  0
LINE
  8
0
  6
CONTINUOUS
 62
     7
 10
-42.65299911499023
 20
-34.5333333350718
 11
-42.65299911499023
 21
34.4666666649282
  0
LINE
  8
0
  6
CONTINUOUS
 62
     7
 10
-30.75299911499024
 20
29.2666666649282
 11
-30.75299911499024
 21
34.4666666649282
  0
LINE
  8
0
  6
CONTINUOUS
 62
     7
 10
-30.75299911499024
 20
-29.3333333350718
 11
-30.75299911499024
 21
-34.5333333350718
  0
LINE
  8
0
  6
CONTINUOUS
 62
     7
 10
-29.95299911499023
 20
28.4666666649282
 11
-13.15299911499023
 21
28.4666666649282
  0
LINE
  8
0
  6
CONTINUOUS
 62
     7
 10
-13.15299911499024
 20
28.46666666492818
 11
-10.65299911499024
 21
25.96666666492819
  0
LINE
  8
0
  6
CONTINUOUS
 62
     7
 10
-10.65299911499023
 20
25.9666666649282
 11
-10.65299911499023
 21
-26.0333333350718
  0
LINE
  8
0
  6
CONTINUOUS
 62
     7
 10
-10.65299911499025
 20
-26.0333333350718
 11
-13.15299911499024
 21
-28.5333333350718
  0
LINE
  8
0
  6
CONTINUOUS
 62
     7
 10
-13.15299911499023
 20
-28.5333333350718
 11
-29.95299911499023
 21
-28.5333333350718
  0
LINE
  8
0
  6
CONTINUOUS
 62
     7
 10
-42.65299911499023
 20
33.8116666649282
 11
-30.75299911499023
 21
33.8116666649282
  0
LINE
  8
0
  6
CONTINUOUS
 62
     7
 10
-40.01906828727641
 20
44.4666666649282
 11
-33.38692994270406
 21
44.4666666649282
  0
LINE
  8
0
  6
CENTER
 62
     7
 10
-43.31966578165689
 20
39.7666666649282
 11
-30.08633244832357
 21
39.7666666649282
  0
LINE
  8
0
  6
CENTER
 62
     7
 10
-36.70299911499023
 20
44.63333333159486
 11
-36.70299911499023
 21
33.14499999826153
  0
LINE
  8
0
  6
CONTINUOUS
 62
     7
 10
-42.65299911499023
 20
-33.8783333350718
 11
-30.75299911499023
 21
-33.8783333350718
  0
LINE
  8
0
  6
CENTER
 62
     7
 10
-43.31966578165689
 20
-39.8333333350718
 11
-30.08633244832357
 21
-39.8333333350718
  0
LINE
  8
0
  6
CENTER
 62
     7
 10
-8.04799911499023
 20
-0.03333333507180214
 11
-45.28565285232788
 21
-0.03333333507180214
  0
LINE
  8
0
  6
CENTER
 62
     7
 10
62.44100088500976
 20
32.46666666492821
 11
62.44100088500976
 21
-32.5333333350718
  0
LINE
  8
0
  6
CENTER
 62
     7
 10
29.94100088500976
 20
-0.03333333507180214
 11
94.94100088500976
 21
-0.03333333507180214
  0
LINE
  8
0
  6
CONTINUOUS
 62
     7
 10
-40.01906828727641
 20
-44.5333333350718
 11
-33.38692994270406
 21
-44.5333333350718
  0
LINE
  8
0
  6
CENTER
 62
     7
 10
-36.70299911499023
 20
-44.70000000173847
 11
-36.70299911499023
 21
-33.21166666840514
  0
CIRCLE
  8
0
  6
CONTINUOUS
 62
     7
 10
62.44100088500976
 20
-0.03333333507180214
 40
7.94
  0
ARC
  8
0
  6
CONTINUOUS
 62
     7
 10
-29.95299911499023
 20
29.2666666649282
 40
0.8
 50
180.0000000000012
 51
270.0000000000012
  0
ARC
  8
0
  6
CONTINUOUS
 62
     7
 10
-29.95299911499023
 20
-29.3333333350718
 40
0.8
 50
90.00000000000026
 51
180.0000000000012
  0
ARC
  8
0
  6
CONTINUOUS
 62
     7
 10
-22.35299911499023
 20
34.4666666649282
 40
20.3
 50
150.4876707256045
 51
180.0000000000014
  0
ARC
  8
0
  6
CONTINUOUS
 62
     7
 10
-51.05299911499024
 20
34.4666666649282
 40
20.3
 50
0
 51
29.51232927439549
  0
ARC
  8
0
  6
CONTINUOUS
 62
     7
 10
-22.35299911499023
 20
-34.5333333350718
 40
20.3
 50
179.9999999999993
 51
209.5123292743962
  0
ARC
  8
0
  6
CONTINUOUS
 62
     7
 10
-51.05299911499024
 20
-34.5333333350718
 40
20.3
 50
330.4876707256053
 51
360
  0
CIRCLE
  8
0
  6
CONTINUOUS
 62
     7
 10
62.44100088500976
 20
-0.03333333507180214
 40
28.5
  0
TEXT
  8
0
  6
CONTINUOUS
 62
     7
 10
46.89800090329149
 20
-22.63333335891366
 40
3.200000047683716
 41
0.8905462165103252
  1
ＲＳ６０－１Ｂ１３Ｔ
  0
TEXT
  8
0
  6
CONTINUOUS
 62
     7
 10
51.69800092944622
 20
-16.63333335891366
 40
3.200000047683716
 41
1.077812859977847
  1
TSUBAKI
  0
ENDSEC
  0
EOF
