  0
SECTION
  2
HEADER
  9
$ACADVER
  1
AC1009
  9
$DWGCODEPAGE
  3
ansi_932
  9
$INSBASE
 10
0.0
 20
0.0
 30
0.0
  9
$EXTMIN
 10
-255.8749996185303
 20
-385.0333333015442
 30
0.0
  9
$EXTMAX
 10
401.1250003814697
 20
382.9666666984558
 30
0.0
  9
$LIMMIN
 10
-95.5
 20
-141.0
  9
$LIMMAX
 10
95.5
 20
141.0
  9
$ORTHOMODE
 70
     0
  9
$REGENMODE
 70
     1
  9
$FILLMODE
 70
     1
  9
$QTEXTMODE
 70
     0
  9
$MIRRTEXT
 70
     1
  9
$DRAGMODE
 70
     2
  9
$LTSCALE
 40
1.0
  9
$OSMODE
 70
    37
  9
$ATTMODE
 70
     1
  9
$TEXTSIZE
 40
0.2
  9
$TRACEWID
 40
0.05
  9
$TEXTSTYLE
  7
STANDARD
  9
$CLAYER
  8
0
  9
$CELTYPE
  6
BYLAYER
  9
$CECOLOR
 62
   256
  9
$DIMSCALE
 40
1.0
  9
$DIMASZ
 40
2.5
  9
$DIMEXO
 40
0.0625
  9
$DIMDLI
 40
0.38
  9
$DIMRND
 40
0.0
  9
$DIMDLE
 40
0.0
  9
$DIMEXE
 40
0.18
  9
$DIMTP
 40
0.0
  9
$DIMTM
 40
0.0
  9
$DIMTXT
 40
0.18
  9
$DIMCEN
 40
0.09
  9
$DIMTSZ
 40
0.0
  9
$DIMTOL
 70
     0
  9
$DIMLIM
 70
     0
  9
$DIMTIH
 70
     1
  9
$DIMTOH
 70
     1
  9
$DIMSE1
 70
     0
  9
$DIMSE2
 70
     0
  9
$DIMTAD
 70
     3
  9
$DIMZIN
 70
     0
  9
$DIMBLK
  1

  9
$DIMASO
 70
     1
  9
$DIMSHO
 70
     1
  9
$DIMPOST
  1

  9
$DIMAPOST
  1

  9
$DIMALT
 70
     0
  9
$DIMALTD
 70
     2
  9
$DIMALTF
 40
25.4
  9
$DIMLFAC
 40
1.0
  9
$DIMTOFL
 70
     0
  9
$DIMTVP
 40
0.0
  9
$DIMTIX
 70
     0
  9
$DIMSOXD
 70
     0
  9
$DIMSAH
 70
     0
  9
$DIMBLK1
  1

  9
$DIMBLK2
  1

  9
$DIMSTYLE
  2
STANDARD
  9
$DIMCLRD
 70
     0
  9
$DIMCLRE
 70
     0
  9
$DIMCLRT
 70
     0
  9
$DIMTFAC
 40
1.0
  9
$DIMGAP
 40
0.09
  9
$LUNITS
 70
     2
  9
$LUPREC
 70
     4
  9
$SKETCHINC
 40
0.1
  9
$FILLETRAD
 40
0.5
  9
$AUNITS
 70
     0
  9
$AUPREC
 70
     0
  9
$MENU
  1
.
  9
$ELEVATION
 40
0.0
  9
$PELEVATION
 40
0.0
  9
$THICKNESS
 40
0.0
  9
$LIMCHECK
 70
     0
  9
$CHAMFERA
 40
0.5
  9
$CHAMFERB
 40
0.5
  9
$SKPOLY
 70
     0
  9
$TDCREATE
 40
2454700.445345058
  9
$TDUPDATE
 40
2454700.445345069
  9
$TDINDWG
 40
0.0000000116
  9
$TDUSRTIMER
 40
0.0000000116
  9
$USRTIMER
 70
     1
  9
$ANGBASE
 50
0.0
  9
$ANGDIR
 70
     0
  9
$PDMODE
 70
     0
  9
$PDSIZE
 40
1.0
  9
$PLINEWID
 40
0.0
  9
$COORDS
 70
     1
  9
$SPLFRAME
 70
     0
  9
$SPLINETYPE
 70
     6
  9
$SPLINESEGS
 70
     8
  9
$ATTDIA
 70
     0
  9
$ATTREQ
 70
     1
  9
$HANDLING
 70
     1
  9
$HANDSEED
  5
BD
  9
$SURFTAB1
 70
     6
  9
$SURFTAB2
 70
     6
  9
$SURFTYPE
 70
     6
  9
$SURFU
 70
     6
  9
$SURFV
 70
     6
  9
$UCSNAME
  2

  9
$UCSORG
 10
0.0
 20
0.0
 30
0.0
  9
$UCSXDIR
 10
1.0
 20
0.0
 30
0.0
  9
$UCSYDIR
 10
0.0
 20
1.0
 30
0.0
  9
$PUCSNAME
  2

  9
$PUCSORG
 10
0.0
 20
0.0
 30
0.0
  9
$PUCSXDIR
 10
1.0
 20
0.0
 30
0.0
  9
$PUCSYDIR
 10
0.0
 20
1.0
 30
0.0
  9
$USERI1
 70
     0
  9
$USERI2
 70
     0
  9
$USERI3
 70
     0
  9
$USERI4
 70
     0
  9
$USERI5
 70
     0
  9
$USERR1
 40
0.0
  9
$USERR2
 40
0.0
  9
$USERR3
 40
0.0
  9
$USERR4
 40
0.0
  9
$USERR5
 40
0.0
  9
$WORLDVIEW
 70
     1
  9
$SHADEDGE
 70
     3
  9
$SHADEDIF
 70
    70
  9
$TILEMODE
 70
     1
  9
$MAXACTVP
 70
    64
  9
$PLIMCHECK
 70
     0
  9
$PEXTMIN
 10
1.000000000000000E+20
 20
1.000000000000000E+20
 30
1.000000000000000E+20
  9
$PEXTMAX
 10
-1.000000000000000E+20
 20
-1.000000000000000E+20
 30
-1.000000000000000E+20
  9
$PLIMMIN
 10
0.0
 20
0.0
  9
$PLIMMAX
 10
12.0
 20
9.0
  9
$UNITMODE
 70
     0
  9
$VISRETAIN
 70
     0
  9
$PLINEGEN
 70
     1
  9
$PSLTSCALE
 70
     0
  0
ENDSEC
  0
SECTION
  2
TABLES
  0
TABLE
  2
VPORT
 70
     1
  0
VPORT
  2
*ACTIVE
 70
     0
 10
0.0
 20
0.0
 11
1.0
 21
1.0
 12
0.0
 22
0.0
 13
0.0
 23
0.0
 14
0.5
 24
0.5
 15
0.5
 25
0.5
 16
0.0
 26
0.0
 36
1.0
 17
72.62500038146973
 27
-1.033333301544189
 37
0.0
 40
261.12
 41
0.85546875
 42
50.0
 43
0.0
 44
0.0
 50
0.0
 51
0.0
 71
     0
 72
  1000
 73
     1
 74
     1
 75
     0
 76
     0
 77
     0
 78
     0
  0
ENDTAB
  0
TABLE
  2
LTYPE
 70
    28
  0
LTYPE
  2
CONTINUOUS
 70
     0
  3
Solid line
 72
    65
 73
     0
 40
0.0
  0
LTYPE
  2
HIDDENX2
 70
     0
  3
CADPAC LINETYPE
 72
    65
 73
     2
 40
5.198156682027616
 49
3.898617511520712
 49
-1.299539170506904
  0
LTYPE
  2
HIDDEN
 70
     0
  3
CADPAC LINETYPE
 72
    65
 73
     2
 40
3.898617511520712
 49
2.599078341013808
 49
-1.299539170506904
  0
LTYPE
  2
HIDDEN2
 70
     0
  3
CADPAC LINETYPE
 72
    65
 73
     2
 40
3.24884792626726
 49
1.949308755760356
 49
-1.299539170506904
  0
LTYPE
  2
DASHED
 70
     0
  3
CADPAC LINETYPE
 72
    65
 73
     2
 40
3.118894009216547
 49
1.559447004608273
 49
-1.559447004608273
  0
LTYPE
  2
DASHED2
 70
     0
  3
CADPAC LINETYPE
 72
    65
 73
     2
 40
1.819354838709643
 49
1.559447004608273
 49
-0.2599078341013694
  0
LTYPE
  2
DASHEDX2
 70
     0
  3
CADPAC LINETYPE
 72
    65
 73
     2
 40
1.819354838709643
 49
1.559447004608273
 49
-0.2599078341013694
  0
LTYPE
  2
DOTX2
 70
     0
  3
CADPAC LINETYPE
 72
    65
 73
     2
 40
0.3248847926267118
 49
0.0
 49
-0.3248847926267118
  0
LTYPE
  2
DOT
 70
     0
  3
CADPAC LINETYPE
 72
    65
 73
     2
 40
0.2599078341013694
 49
0.0
 49
-0.2599078341013694
  0
LTYPE
  2
DOT2
 70
     0
  3
CADPAC LINETYPE
 72
    65
 73
     2
 40
0.1949308755760271
 49
0.0
 49
-0.1949308755760271
  0
LTYPE
  2
CENTERX2
 70
     0
  3
CADPAC LINETYPE
 72
    65
 73
     4
 40
7.797235023041424
 49
3.24884792626726
 49
-1.62442396313363
 49
1.299539170506904
 49
-1.62442396313363
  0
LTYPE
  2
CENTER
 70
     0
  3
CADPAC LINETYPE
 72
    65
 73
     4
 40
5.977880184331758
 49
2.599078341013808
 49
-1.299539170506904
 49
0.7797235023041423
 49
-1.299539170506904
  0
LTYPE
  2
CENTER2
 70
     0
  3
CADPAC LINETYPE
 72
    65
 73
     4
 40
4.158525345622093
 49
1.949308755760356
 49
-0.974654377880178
 49
0.2599078341013808
 49
-0.974654377880178
  0
LTYPE
  2
DASHDOTX2
 70
     0
  3
CADPAC LINETYPE
 72
    65
 73
     4
 40
3.638709677419314
 49
3.118894009216575
 49
-0.2599078341013694
 49
0.0
 49
-0.2599078341013694
  0
LTYPE
  2
DASHDOT
 70
     0
  3
CADPAC LINETYPE
 72
    65
 73
     4
 40
4.418433179723422
 49
3.118894009216575
 49
-0.2599078341013694
 49
0.7797235023041083
 49
-0.2599078341013694
  0
LTYPE
  2
DASHDOT2
 70
     0
  3
CADPAC LINETYPE
 72
    65
 73
     4
 40
2.807004608294896
 49
2.339170506912431
 49
-0.1949308755760271
 49
0.0779723502304108
 49
-0.1949308755760271
  0
LTYPE
  2
DIVIDEX2
 70
     0
  3
CADPAC LINETYPE
 72
    65
 73
     6
 40
3.898617511520683
 49
3.118894009216575
 49
-0.2599078341013694
 49
0.0
 49
-0.2599078341013694
 49
0.0
 49
-0.2599078341013694
  0
LTYPE
  2
DIVIDE
 70
     0
  3
CADPAC LINETYPE
 72
    65
 73
     6
 40
5.4580645161289
 49
3.118894009216575
 49
-0.2599078341013694
 49
0.7797235023041083
 49
-0.2599078341013694
 49
0.7797235023041083
 49
-0.2599078341013694
  0
LTYPE
  2
DIVIDE2
 70
     0
  3
CADPAC LINETYPE
 72
    65
 73
     6
 40
4.093548387096675
 49
2.339170506912431
 49
-0.1949308755760271
 49
0.5847926267280812
 49
-0.1949308755760271
 49
0.5847926267280812
 49
-0.1949308755760271
  0
LTYPE
  2
BORDERX2
 70
     0
  3
CADPAC LINETYPE
 72
    65
 73
     6
 40
11.37096774193541
 49
3.24884792626726
 49
-1.62442396313363
 49
3.24884792626726
 49
-1.62442396313363
 49
0.0
 49
-1.62442396313363
  0
LTYPE
  2
BORDER
 70
     0
  3
CADPAC LINETYPE
 72
    65
 73
     6
 40
9.096774193548328
 49
2.599078341013808
 49
-1.299539170506904
 49
2.599078341013808
 49
-1.299539170506904
 49
0.0
 49
-1.299539170506904
  0
LTYPE
  2
BORDER2
 70
     0
  3
CADPAC LINETYPE
 72
    65
 73
     6
 40
3.378801843317916
 49
1.559447004608273
 49
-0.2599078341013694
 49
0.0
 49
-0.2599078341013694
 49
0.0
 49
-1.299539170506904
  0
LTYPE
  2
PHANTOMX2
 70
     0
  3
CADPAC LINETYPE
 72
    65
 73
     6
 40
9.74654377880178
 49
3.24884792626726
 49
-1.299539170506904
 49
1.299539170506904
 49
-1.299539170506904
 49
1.299539170506904
 49
-1.299539170506904
  0
LTYPE
  2
PHANTOM
 70
     0
  3
CADPAC LINETYPE
 72
    65
 73
     6
 40
8.057142857142804
 49
2.599078341013808
 49
-1.299539170506904
 49
0.7797235023041423
 49
-1.299539170506904
 49
0.7797235023041423
 49
-1.299539170506904
  0
LTYPE
  2
PHANTOM2
 70
     0
  3
CADPAC LINETYPE
 72
    65
 73
     6
 40
6.887557603686592
 49
1.949308755760356
 49
-1.299539170506904
 49
0.5198156682027616
 49
-1.299539170506904
 49
0.5198156682027616
 49
-1.299539170506904
  0
LTYPE
  2
ACAD_ISO06W100
 70
     0
  3
CADPAC LINETYPE
 72
    65
 73
     8
 40
4.158525345622053
 49
3.118894009216575
 49
-0.2599078341013694
 49
0.0
 49
-0.2599078341013694
 49
0.0
 49
-0.2599078341013694
 49
0.0
 49
-0.2599078341013694
  0
LTYPE
  2
ACAD_ISO13W100
 70
     0
  3
CADPAC LINETYPE
 72
    65
 73
     8
 40
10.39631336405523
 49
2.599078341013808
 49
-1.299539170506904
 49
2.599078341013808
 49
-1.299539170506904
 49
0.0
 49
-1.299539170506904
 49
0.0
 49
-1.299539170506904
  0
LTYPE
  2
ACAD_ISO14W100
 70
     0
  3
CADPAC LINETYPE
 72
    65
 73
     8
 40
7.797235023041424
 49
2.599078341013808
 49
-1.299539170506904
 49
0.0
 49
-1.299539170506904
 49
0.0
 49
-1.299539170506904
 49
0.0
 49
-1.299539170506904
  0
ENDTAB
  0
TABLE
  2
LAYER
 70
     2
  0
LAYER
  2
0
 70
     0
 62
     7
  6
CONTINUOUS
  0
LAYER
  2
LAYER0016
 70
     0
 62
     7
  6
CONTINUOUS
  0
ENDTAB
  0
TABLE
  2
STYLE
 70
     2
  0
STYLE
  2
STANDARD
 70
     0
 40
0.0
 41
1.0
 50
0.0
 71
     0
 42
0.2
  3
txt
  4

  0
STYLE
  2
FDASTYLE0
 70
     0
 40
0.0
 41
0.663885792132577
 50
0.0
 71
     0
 42
0.2
  3
txt.shx
  4
bigfont
  0
ENDTAB
  0
TABLE
  2
VIEW
 70
     0
  0
ENDTAB
  0
TABLE
  2
UCS
 70
     0
  0
ENDTAB
  0
TABLE
  2
APPID
 70
     2
  0
APPID
  2
ACAD
 70
     0
  0
APPID
  2
DAFUSIONOUT
 70
     0
  0
ENDTAB
  0
TABLE
  2
DIMSTYLE
 70
     1
  0
DIMSTYLE
  2
STANDARD
 70
     0
  3

  4

  5

  6

  7

 40
1.0
 41
0.18
 42
0.0625
 43
0.38
 44
0.18
 45
0.0
 46
0.0
 47
0.0
 48
0.0
140
0.18
141
0.09
142
0.0
143
25.4
144
1.0
145
0.0
146
1.0
147
0.09
 71
     0
 72
     0
 73
     1
 74
     1
 75
     0
 76
     0
 77
     0
 78
     0
170
     0
171
     2
172
     0
173
     0
174
     0
175
     0
176
     0
177
     0
178
     0
  0
ENDTAB
  0
ENDSEC
  0
SECTION
  2
BLOCKS
  0
BLOCK
  8
0
  2
$MODEL_SPACE
 70
     0
 10
0.0
 20
0.0
 30
0.0
  3
$MODEL_SPACE
  1

  0
ENDBLK
  5
21
  8
0
  0
BLOCK
 67
     1
  8
0
  2
$PAPER_SPACE
 70
     0
 10
0.0
 20
0.0
 30
0.0
  3
$PAPER_SPACE
  1

  0
ENDBLK
  5
1D
 67
     1
  8
0
  0
ENDSEC
  0
SECTION
  2
ENTITIES
  0
LINE
  5
7B
  8
LAYER0016
  6
CONTINUOUS
 62
     7
 10
152.2250003814698
 20
-1.033333301544189
 30
0.0
 11
182.1250003814697
 21
-1.033333301544189
 31
0.0
  0
LINE
  5
7C
  8
LAYER0016
  6
CONTINUOUS
 62
     7
 10
167.1750003814697
 20
13.91666669845581
 30
0.0
 11
167.1750003814697
 21
-15.98333330154419
 31
0.0
  0
LINE
  5
7D
  8
LAYER0016
  6
CONTINUOUS
 62
     7
 10
-34.87499961853027
 20
10.46666669845581
 30
0.0
 11
21.12500038146973
 21
10.46666669845581
 31
0.0
  0
LINE
  5
7E
  8
LAYER0016
  6
CONTINUOUS
 62
     7
 10
-34.87499961853027
 20
-12.53333330154419
 30
0.0
 11
21.12500038146973
 21
-12.53333330154419
 31
0.0
  0
LINE
  5
7F
  8
LAYER0016
  6
CONTINUOUS
 62
     7
 10
-34.87499961853027
 20
-1.033333301544189
 30
0.0
 11
-34.87499961853027
 21
115.2516666984558
 31
0.0
  0
LINE
  5
80
  8
LAYER0016
  6
CONTINUOUS
 62
     7
 10
-26.17499961853027
 20
112.0666666984558
 30
0.0
 11
-26.17499961853027
 21
115.2516666984558
 31
0.0
  0
LINE
  5
81
  8
LAYER0016
  6
CONTINUOUS
 62
     7
 10
-34.87499961853027
 20
-1.033333301544189
 30
0.0
 11
-34.87499961853027
 21
-117.3183333015442
 31
0.0
  0
LINE
  5
82
  8
LAYER0016
  6
CONTINUOUS
 62
     7
 10
-26.17499961853027
 20
-114.1333333015442
 30
0.0
 11
-26.17499961853027
 21
-117.3183333015442
 31
0.0
  0
LINE
  5
83
  8
LAYER0016
  6
CONTINUOUS
 62
     7
 10
-16.77499961853027
 20
112.0666666984558
 30
0.0
 11
-16.77499961853027
 21
115.2516666984558
 31
0.0
  0
LINE
  5
84
  8
LAYER0016
  6
CONTINUOUS
 62
     7
 10
-8.07499961853027
 20
-1.033333301544189
 30
0.0
 11
-8.07499961853027
 21
115.2516666984558
 31
0.0
  0
LINE
  5
85
  8
LAYER0016
  6
CONTINUOUS
 62
     7
 10
-16.77499961853027
 20
-114.1333333015442
 30
0.0
 11
-16.77499961853027
 21
-117.3183333015442
 31
0.0
  0
LINE
  5
86
  8
LAYER0016
  6
CONTINUOUS
 62
     7
 10
-8.07499961853027
 20
-1.033333301544189
 30
0.0
 11
-8.07499961853027
 21
-117.3183333015442
 31
0.0
  0
LINE
  5
87
  8
LAYER0016
  6
CONTINUOUS
 62
     7
 10
-25.57499961853027
 20
111.4666666984558
 30
0.0
 11
-17.37499961853027
 21
111.4666666984558
 31
0.0
  0
LINE
  5
88
  8
LAYER0016
  6
CONTINUOUS
 62
     7
 10
-25.57499961853027
 20
-113.5333333015442
 30
0.0
 11
-17.37499961853027
 21
-113.5333333015442
 31
0.0
  0
LINE
  5
89
  8
LAYER0016
  6
CONTINUOUS
 62
     7
 10
-8.07499961853027
 20
47.96666669845581
 30
0.0
 11
18.12500038146973
 21
47.96666669845581
 31
0.0
  0
LINE
  5
8A
  8
LAYER0016
  6
CONTINUOUS
 62
     7
 10
18.12500038146974
 20
47.96666669845582
 30
0.0
 11
21.12500038146974
 21
44.96666669845582
 31
0.0
  0
LINE
  5
8B
  8
LAYER0016
  6
CONTINUOUS
 62
     7
 10
21.12500038146973
 20
44.96666669845581
 30
0.0
 11
21.12500038146973
 21
-47.03333330154419
 31
0.0
  0
LINE
  5
8C
  8
LAYER0016
  6
CONTINUOUS
 62
     7
 10
21.12500038146973
 20
-47.0333333015442
 30
0.0
 11
18.12500038146973
 21
-50.0333333015442
 31
0.0
  0
LINE
  5
8D
  8
LAYER0016
  6
CONTINUOUS
 62
     7
 10
18.12500038146973
 20
-50.03333330154419
 30
0.0
 11
-8.07499961853027
 21
-50.03333330154419
 31
0.0
  0
LINE
  5
8E
  8
LAYER0016
  6
CONTINUOUS
 62
     7
 10
-8.074999618530274
 20
51.96666669845581
 30
0.0
 11
-4.074999618530281
 21
47.96666669845581
 31
0.0
  0
LINE
  5
8F
  8
LAYER0016
  6
CONTINUOUS
 62
     7
 10
-8.07499961853026
 20
-54.03333330154419
 30
0.0
 11
-4.074999618530256
 21
-50.03333330154419
 31
0.0
  0
LINE
  5
90
  8
LAYER0016
  6
CONTINUOUS
 62
     7
 10
-34.87499961853027
 20
117.0666666984558
 30
0.0
 11
-34.87499961853027
 21
115.2516666984558
 31
0.0
  0
LINE
  5
91
  8
LAYER0016
  6
CONTINUOUS
 62
     7
 10
-34.87499961853027
 20
115.2516666984558
 30
0.0
 11
-26.17499961853027
 21
115.2516666984558
 31
0.0
  0
LINE
  5
92
  8
LAYER0016
  6
CONTINUOUS
 62
     7
 10
-26.17499961853027
 20
115.2516666984558
 30
0.0
 11
-26.17499961853027
 21
117.0666666984558
 31
0.0
  0
LINE
  5
93
  8
LAYER0016
  6
CONTINUOUS
 62
     7
 10
-32.87499961853027
 20
124.9666666984558
 30
0.0
 11
-28.17499961853027
 21
124.9666666984558
 31
0.0
  0
LINE
  5
94
  8
LAYER0016
  6
CONTINUOUS
 62
     7
 10
-36.87499961853027
 20
120.3316666984558
 30
0.0
 11
-24.17499961853027
 21
120.3316666984558
 31
0.0
  0
LINE
  5
95
  8
LAYER0016
  6
CONTINUOUS
 62
     7
 10
-30.52499961853027
 20
126.9666666984558
 30
0.0
 11
-30.52499961853027
 21
113.2516666984558
 31
0.0
  0
LINE
  5
96
  8
LAYER0016
  6
CONTINUOUS
 62
     7
 10
-34.87499961853027
 20
-119.1333333015442
 30
0.0
 11
-34.87499961853027
 21
-117.3183333015442
 31
0.0
  0
LINE
  5
97
  8
LAYER0016
  6
CONTINUOUS
 62
     7
 10
-34.87499961853027
 20
-117.3183333015442
 30
0.0
 11
-26.17499961853027
 21
-117.3183333015442
 31
0.0
  0
LINE
  5
98
  8
LAYER0016
  6
CONTINUOUS
 62
     7
 10
-26.17499961853027
 20
-117.3183333015442
 30
0.0
 11
-26.17499961853027
 21
-119.1333333015442
 31
0.0
  0
LINE
  5
99
  8
LAYER0016
  6
CONTINUOUS
 62
     7
 10
-32.87499961853027
 20
-127.0333333015442
 30
0.0
 11
-28.17499961853027
 21
-127.0333333015442
 31
0.0
  0
LINE
  5
9A
  8
LAYER0016
  6
CONTINUOUS
 62
     7
 10
-36.87499961853027
 20
-122.3983333015442
 30
0.0
 11
-24.17499961853027
 21
-122.3983333015442
 31
0.0
  0
LINE
  5
9B
  8
LAYER0016
  6
CONTINUOUS
 62
     7
 10
-30.52499961853027
 20
-129.0333333015442
 30
0.0
 11
-30.52499961853027
 21
-115.3183333015442
 31
0.0
  0
LINE
  5
9C
  8
LAYER0016
  6
CONTINUOUS
 62
     7
 10
-16.77499961853027
 20
117.0666666984558
 30
0.0
 11
-16.77499961853027
 21
115.2516666984558
 31
0.0
  0
LINE
  5
9D
  8
LAYER0016
  6
CONTINUOUS
 62
     7
 10
-16.77499961853027
 20
115.2516666984558
 30
0.0
 11
-8.07499961853027
 21
115.2516666984558
 31
0.0
  0
LINE
  5
9E
  8
LAYER0016
  6
CONTINUOUS
 62
     7
 10
-8.07499961853027
 20
115.2516666984558
 30
0.0
 11
-8.07499961853027
 21
117.0666666984558
 31
0.0
  0
LINE
  5
9F
  8
LAYER0016
  6
CONTINUOUS
 62
     7
 10
-14.77499961853027
 20
124.9666666984558
 30
0.0
 11
-10.07499961853027
 21
124.9666666984558
 31
0.0
  0
LINE
  5
A0
  8
LAYER0016
  6
CONTINUOUS
 62
     7
 10
-18.77499961853027
 20
120.3316666984558
 30
0.0
 11
-6.074999618530271
 21
120.3316666984558
 31
0.0
  0
LINE
  5
A1
  8
LAYER0016
  6
CONTINUOUS
 62
     7
 10
-12.42499961853027
 20
126.9666666984558
 30
0.0
 11
-12.42499961853027
 21
113.2516666984558
 31
0.0
  0
LINE
  5
A2
  8
LAYER0016
  6
CONTINUOUS
 62
     7
 10
-16.77499961853027
 20
-119.1333333015442
 30
0.0
 11
-16.77499961853027
 21
-117.3183333015442
 31
0.0
  0
LINE
  5
A3
  8
LAYER0016
  6
CONTINUOUS
 62
     7
 10
-16.77499961853027
 20
-117.3183333015442
 30
0.0
 11
-8.07499961853027
 21
-117.3183333015442
 31
0.0
  0
LINE
  5
A4
  8
LAYER0016
  6
CONTINUOUS
 62
     7
 10
-8.07499961853027
 20
-117.3183333015442
 30
0.0
 11
-8.07499961853027
 21
-119.1333333015442
 31
0.0
  0
LINE
  5
A5
  8
LAYER0016
  6
CONTINUOUS
 62
     7
 10
-14.77499961853027
 20
-127.0333333015442
 30
0.0
 11
-10.07499961853027
 21
-127.0333333015442
 31
0.0
  0
LINE
  5
A6
  8
LAYER0016
  6
CONTINUOUS
 62
     7
 10
-18.77499961853027
 20
-122.3983333015442
 30
0.0
 11
-6.074999618530271
 21
-122.3983333015442
 31
0.0
  0
LINE
  5
A7
  8
LAYER0016
  6
CONTINUOUS
 62
     7
 10
-12.42499961853027
 20
-129.0333333015442
 30
0.0
 11
-12.42499961853027
 21
-115.3183333015442
 31
0.0
  0
LINE
  5
A8
  8
LAYER0016
  6
CONTINUOUS
 62
     7
 10
26.29000038146973
 20
-1.033333301544189
 30
0.0
 11
-35.30999961853027
 21
-1.033333301544189
 31
0.0
  0
CIRCLE
  5
A9
  8
LAYER0016
  6
CONTINUOUS
 62
     7
 10
167.1750003814697
 20
-1.033333301544189
 30
0.0
 40
11.5
  0
ARC
  5
AA
  8
LAYER0016
  6
CONTINUOUS
 62
     7
 10
-25.57499961853027
 20
112.0666666984558
 30
0.0
 40
0.5999999999999943
 50
180.0000000000001
 51
270.0000000000001
  0
ARC
  5
AB
  8
LAYER0016
  6
CONTINUOUS
 62
     7
 10
-17.37499961853027
 20
112.0666666984558
 30
0.0
 40
0.5999999999999943
 50
270.0
 51
0.0
  0
ARC
  5
AC
  8
LAYER0016
  6
CONTINUOUS
 62
     7
 10
-25.57499961853027
 20
-114.1333333015442
 30
0.0
 40
0.5999999999999943
 50
89.9999999999999
 51
179.9999999999999
  0
ARC
  5
AD
  8
LAYER0016
  6
CONTINUOUS
 62
     7
 10
-17.37499961853027
 20
-114.1333333015442
 30
0.0
 40
0.5999999999999943
 50
0.0
 51
90.00000000000003
  0
ARC
  5
AE
  8
LAYER0016
  6
CONTINUOUS
 62
     7
 10
-17.97499961853028
 20
117.0666666984558
 30
0.0
 40
16.9
 50
152.1307146978578
 51
180.0
  0
ARC
  5
AF
  8
LAYER0016
  6
CONTINUOUS
 62
     7
 10
-43.07499961853027
 20
117.0666666984558
 30
0.0
 40
16.9
 50
0.0
 51
27.86928530214228
  0
ARC
  5
B0
  8
LAYER0016
  6
CONTINUOUS
 62
     7
 10
-17.97499961853028
 20
-119.1333333015442
 30
0.0
 40
16.9
 50
180.0
 51
207.8692853021423
  0
ARC
  5
B1
  8
LAYER0016
  6
CONTINUOUS
 62
     7
 10
-43.07499961853027
 20
-119.1333333015442
 30
0.0
 40
16.9
 50
332.1307146978577
 51
0.0
  0
ARC
  5
B2
  8
LAYER0016
  6
CONTINUOUS
 62
     7
 10
0.1250003814697251
 20
117.0666666984558
 30
0.0
 40
16.9
 50
152.1307146978578
 51
180.0
  0
ARC
  5
B3
  8
LAYER0016
  6
CONTINUOUS
 62
     7
 10
-24.97499961853027
 20
117.0666666984558
 30
0.0
 40
16.9
 50
0.0
 51
27.86928530214228
  0
ARC
  5
B4
  8
LAYER0016
  6
CONTINUOUS
 62
     7
 10
0.1250003814697251
 20
-119.1333333015442
 30
0.0
 40
16.9
 50
180.0
 51
207.8692853021423
  0
ARC
  5
B5
  8
LAYER0016
  6
CONTINUOUS
 62
     7
 10
-24.97499961853027
 20
-119.1333333015442
 30
0.0
 40
16.9
 50
332.1307146978577
 51
0.0
  0
TEXT
  5
B7
  8
LAYER0016
 62
     7
 10
157.0219151903665
 20
-47.77166836639433
 30
0.0
 40
3.200000047683716
  1
ＴＳＵＢＡＫＩ
 41
0.663885792132577
  7
FDASTYLE0
 72
     5
 11
178.5079151321924
 21
-47.77166836639433
 31
0.0
  0
TEXT
  5
B8
  8
LAYER0016
 62
     7
 10
157.0219151903665
 20
-52.5716684379199
 30
0.0
 40
3.200000047683716
  1
ＲＳ５０－２Ｂ４８Ｔ
 41
0.6667095542446871
  7
FDASTYLE0
 72
     5
 11
188.1079150964296
 21
-52.5716684379199
 31
0.0
  0
VIEWPORT
  5
7A
 67
     1
  8
0
 10
72.62500038146972
 20
-1.033333301544189
 30
0.0
 40
657.0
 41
768.0
 68
     1
 69
     1
1001
ACAD
1000
MVIEW
1002
{
1070
    16
1010
0.0
1020
0.0
1030
0.0
1020
0.0
1030
0.0
1010
0.0
1020
0.0
1030
1.0
1020
0.0
1030
1.0
1040
0.0
1040
768.0
1040
72.62500038146972
1040
-1.033333301544189
1040
50.0
1040
0.0
1040
0.0
1070
     0
1070
   100
1070
     0
1070
     3
1070
     0
1070
     0
1070
     0
1070
     0
1040
0.0
1040
0.0
1040
0.0
1040
0.5
1040
0.5
1040
0.0
1040
0.0
1070
     0
1002
{
1002
}
1002
}
  0
ENDSEC
  0
EOF
