  0
SECTION
  2
HEADER
  9
$ACADVER
  1
AC1014
  9
$ACADMAINTVER
 70
         0
  9
$DWGCODEPAGE
  3
ANSI_932
  9
$INSBASE
 10
0.0
 20
0.0
 30
0.0
  9
$EXTMIN
 10
-134.5
 20
-22.5
 30
0.0
  9
$EXTMAX
 10
64.9838257195
 20
125.9583330721
 30
0.0
  9
$LIMMIN
 10
-134.5
 20
-22.5
  9
$LIMMAX
 10
64.9838257195
 20
125.9583330721
  9
$ORTHOMODE
 70
         0
  9
$REGENMODE
 70
         1
  9
$FILLMODE
 70
         1
  9
$QTEXTMODE
 70
         0
  9
$MIRRTEXT
 70
         1
  9
$DRAGMODE
 70
         2
  9
$LTSCALE
 40
1.0
  9
$OSMODE
 70
         0
  9
$ATTMODE
 70
         1
  9
$TEXTSIZE
 40
3.2000000477
  9
$TRACEWID
 40
0.05
  9
$TEXTSTYLE
  7
MX_NOTE_STANDARD
  9
$CLAYER
  8
LY_3
  9
$CELTYPE
  6
CONTINUOUS
  9
$CECOLOR
 62
       256
  9
$CELTSCALE
 40
1.0
  9
$DELOBJ
 70
         1
  9
$DISPSILH
 70
         0
  9
$DIMSCALE
 40
1.0
  9
$DIMASZ
 40
2.5
  9
$DIMEXO
 40
0.0
  9
$DIMDLI
 40
3.75
  9
$DIMRND
 40
0.0
  9
$DIMDLE
 40
0.0
  9
$DIMEXE
 40
2.5
  9
$DIMTP
 40
0.0
  9
$DIMTM
 40
0.0
  9
$DIMTXT
 40
3.2000000477
  9
$DIMCEN
 40
2.5
  9
$DIMTSZ
 40
0.0
  9
$DIMTOL
 70
         0
  9
$DIMLIM
 70
         0
  9
$DIMTIH
 70
         0
  9
$DIMTOH
 70
         0
  9
$DIMSE1
 70
         0
  9
$DIMSE2
 70
         0
  9
$DIMTAD
 70
         1
  9
$DIMZIN
 70
         8
  9
$DIMBLK
  1

  9
$DIMASO
 70
         1
  9
$DIMSHO
 70
         1
  9
$DIMPOST
  1

  9
$DIMAPOST
  1

  9
$DIMALT
 70
         0
  9
$DIMALTD
 70
         4
  9
$DIMALTF
 40
0.0393700787
  9
$DIMLFAC
 40
1.0
  9
$DIMTOFL
 70
         1
  9
$DIMTVP
 40
0.0
  9
$DIMTIX
 70
         0
  9
$DIMSOXD
 70
         0
  9
$DIMSAH
 70
         1
  9
$DIMBLK1
  1
_OPEN30
  9
$DIMBLK2
  1
_OPEN30
  9
$DIMSTYLE
  2
MXDIMSTYLE
  9
$DIMCLRD
 70
         0
  9
$DIMCLRE
 70
         0
  9
$DIMCLRT
 70
         0
  9
$DIMTFAC
 40
1.0
  9
$DIMGAP
 40
1.0
  9
$DIMJUST
 70
         0
  9
$DIMSD1
 70
         0
  9
$DIMSD2
 70
         0
  9
$DIMTOLJ
 70
         0
  9
$DIMTZIN
 70
         0
  9
$DIMALTZ
 70
         0
  9
$DIMALTTZ
 70
         0
  9
$DIMFIT
 70
         3
  9
$DIMUPT
 70
         0
  9
$DIMUNIT
 70
         2
  9
$DIMDEC
 70
         2
  9
$DIMTDEC
 70
         2
  9
$DIMALTU
 70
         2
  9
$DIMALTTD
 70
         4
  9
$DIMTXSTY
  7
MX_NOTE_STANDARD
  9
$DIMAUNIT
 70
         0
  9
$LUNITS
 70
         2
  9
$LUPREC
 70
         4
  9
$SKETCHINC
 40
0.1
  9
$FILLETRAD
 40
0.0
  9
$AUNITS
 70
         0
  9
$AUPREC
 70
         0
  9
$MENU
  1
acad
  9
$ELEVATION
 40
0.0
  9
$PELEVATION
 40
0.0
  9
$THICKNESS
 40
0.0
  9
$LIMCHECK
 70
         0
  9
$BLIPMODE
 70
         1
  9
$CHAMFERA
 40
0.0
  9
$CHAMFERB
 40
0.0
  9
$CHAMFERC
 40
0.0
  9
$CHAMFERD
 40
0.0
  9
$SKPOLY
 70
         0
  9
$TDCREATE
 40
2456603.443437500
  9
$TDUPDATE
 40
2456603.443437500
  9
$TDINDWG
 40
0.0000000000
  9
$TDUSRTIMER
 40
0.0000000000
  9
$USRTIMER
 70
         1
  9
$ANGBASE
 50
0.0
  9
$ANGDIR
 70
         0
  9
$PDMODE
 70
         0
  9
$PDSIZE
 40
0.0
  9
$PLINEWID
 40
0.0
  9
$COORDS
 70
         1
  9
$SPLFRAME
 70
         0
  9
$SPLINETYPE
 70
         6
  9
$SPLINESEGS
 70
         8
  9
$ATTDIA
 70
         0
  9
$ATTREQ
 70
         1
  9
$HANDLING
 70
         1
  9
$HANDSEED
  5
98
  9
$SURFTAB1
 70
         6
  9
$SURFTAB2
 70
         6
  9
$SURFTYPE
 70
         6
  9
$SURFU
 70
         6
  9
$SURFV
 70
         6
  9
$UCSNAME
  2

  9
$UCSORG
 10
0.0
 20
0.0
 30
0.0
  9
$UCSXDIR
 10
1.0
 20
0.0
 30
0.0
  9
$UCSYDIR
 10
0.0
 20
1.0
 30
0.0
  9
$PUCSNAME
  2

  9
$PUCSORG
 10
0.0
 20
0.0
 30
0.0
  9
$PUCSXDIR
 10
1.0
 20
0.0
 30
0.0
  9
$PUCSYDIR
 10
0.0
 20
1.0
 30
0.0
  9
$USERI1
 70
         0
  9
$USERI2
 70
         0
  9
$USERI3
 70
         0
  9
$USERI4
 70
         0
  9
$USERI5
 70
         0
  9
$USERR1
 40
0.0
  9
$USERR2
 40
0.0
  9
$USERR3
 40
0.0
  9
$USERR4
 40
0.0
  9
$USERR5
 40
0.0
  9
$WORLDVIEW
 70
         1
  9
$SHADEDGE
 70
         3
  9
$SHADEDIF
 70
        70
  9
$TILEMODE
 70
         1
  9
$MAXACTVP
 70
        16
  9
$PINSBASE
 10
0.0
 20
0.0
 30
0.0
  9
$PLIMCHECK
 70
         0
  9
$PEXTMIN
 10
1.0000000000E+20
 20
1.0000000000E+20
 30
1.0000000000E+20
  9
$PEXTMAX
 10
-1.0000000000E+20
 20
-1.0000000000E+20
 30
-1.0000000000E+20
  9
$PLIMMIN
 10
0.0
 20
0.0
  9
$PLIMMAX
 10
12.0
 20
9.0
  9
$UNITMODE
 70
         0
  9
$VISRETAIN
 70
         0
  9
$PLINEGEN
 70
         1
  9
$PSLTSCALE
 70
         0
  9
$TREEDEPTH
 70
      3020
  9
$PICKSTYLE
 70
         1
  9
$CMLSTYLE
  2
Standard
  9
$CMLJUST
 70
         0
  9
$CMLSCALE
 40
1.0
  9
$PROXYGRAPHICS
 70
         0
  9
$MEASUREMENT
 70
         1
  0
ENDSEC
  0
SECTION
  2
CLASSES
  0
CLASS
  1
LWPOLYLINE
  2
AcDbPolyline
  3
"AutoCAD"
 90
        0
280
         0
281
         1
  0
CLASS
  1
IMAGE
  2
AcDbRasterImage
  3
ISM
 90
      127
280
         0
281
         1
  0
CLASS
  1
OLE2FRAME
  2
AcDbOle2Frame
  3
""
 90
        0
280
         0
281
         1
  0
CLASS
  1
HATCH
  2
AcDbHatch
  3
"ACAD_SEDONA"
 90
        0
280
         0
281
         1
  0
CLASS
  1
DICTIONARYVAR
  2
AcDbDictionaryVar
  3
"AutoCAD"
 90
        0
280
         0
281
         0
  0
CLASS
  1
RASTERVARIABLES
  2
AcDbRasterVariables
  3
ISM
 90
        0
280
         0
281
         0
  0
CLASS
  1
IMAGEDEF
  2
AcDbRasterImageDef
  3
ISM
 90
        0
280
         0
281
         0
  0
CLASS
  1
IMAGEDEF_REACTOR
  2
AcDbRasterImageDefReactor
  3
ISM
 90
        1
280
         0
281
         0
  0
CLASS
  1
IDBUFFER
  2
AcDbIdBuffer
  3
"Acad"
 90
        0
280
         0
281
         0
  0
CLASS
  1
SPATIAL_FILTER
  2
AcDbSpatialFilter
  3
"Acad"
 90
        0
280
         0
281
         0
  0
CLASS
  1
XRECORD
  2
AcDbXrecord
  3
"<Built In>"
 90
        0
280
         0
281
         0
  0
CLASS
  1
SORTENTSTABLE
  2
AcDbSortentsTable
  3
"AutoCAD"
 90
        0
280
         0
281
         0
  0
CLASS
  1
LAYER_INDEX
  2
AcDbLayerIndex
  3
"Acad"
 90
        0
280
         0
281
         0
  0
CLASS
  1
SPATIAL_INDEX
  2
AcDbSpatialIndex
  3
"Acad"
 90
        0
280
         0
281
         0
  0
CLASS
  1
OBJECT_PTR
  2
CAseDLPNTableRecord
  3
"ASE-LPNTableRecord"
 90
        1
280
         0
281
         0
  0
CLASS
  1
LAYOUT
  2
AcDbLayout
  3
"AutoCAD 2000"
 90
        0
280
         0
281
         0
  0
CLASS
  1
PLOTSETTINGS
  2
AcDbPlotSettings
  3
"AutoCAD 2000"
 90
        0
280
         0
281
         0
  0
CLASS
  1
ACDBDICTIONARYWDFLT
  2
AcDbDictionaryWithDefault
  3
"AutoCAD 2000"
 90
        0
280
         0
281
         0
  0
CLASS
  1
ACDBPLACEHOLDER
  2
AcDbPlaceHolder
  3
"AutoCAD 2000"
 90
        0
280
         0
281
         0
  0
ENDSEC
  0
SECTION
  2
TABLES
  0
TABLE
  2
VPORT
  5
7
100
AcDbSymbolTable
 70
         1
  0
VPORT
  5
15
100
AcDbSymbolTableRecord
100
AcDbViewportTableRecord
  2
*ACTIVE
 70
         0
 10
0.0
 20
0.0
 11
1.0
 21
1.0
 12
-34.7580871403
 22
51.729166536
 13
0.0
 23
0.0
 14
1.0
 24
1.0
 15
0.0
 25
0.0
 16
0.0
 26
0.0
 36
1.0
 17
0.0
 27
0.0
 37
0.0
 40
149.9429164028
 41
1.7320508076
 42
50.0
 43
0.0
 44
0.0
 50
0.0
 51
0.0
 71
         0
 72
       100
 73
         1
 74
         1
 75
         0
 76
         0
 77
         0
 78
         0
  0
ENDTAB
  0
TABLE
  2
LTYPE
  5
4
100
AcDbSymbolTable
 70
         5
  0
LTYPE
  5
11
100
AcDbSymbolTableRecord
100
AcDbLinetypeTableRecord
  2
BYBLOCK
 70
        64
  3

 72
        65
 73
         0
 40
0.0
  0
LTYPE
  5
12
100
AcDbSymbolTableRecord
100
AcDbLinetypeTableRecord
  2
BYLAYER
 70
        64
  3

 72
        65
 73
         0
 40
0.0
  0
LTYPE
  5
13
100
AcDbSymbolTableRecord
100
AcDbLinetypeTableRecord
  2
CONTINUOUS
 70
        64
  3
Solid line
 72
        65
 73
         0
 40
0.0
  0
LTYPE
  5
3A
100
AcDbSymbolTableRecord
100
AcDbLinetypeTableRecord
  2
DASHED
 70
        64
  3
Dashed __ __ __ __ __ __ __ __ __ __ __ __ __ _
 72
        65
 73
         2
 40
19.05
 49
12.7
 74
         0
 49
-6.35
 74
         0
  0
LTYPE
  5
65
100
AcDbSymbolTableRecord
100
AcDbLinetypeTableRecord
  2
CENTER
 70
        64
  3
Center ____ _ ____ _ ____ _ ____ _ ____ _ ____
 72
        65
 73
         4
 40
50.8
 49
31.75
 74
         0
 49
-6.35
 74
         0
 49
6.35
 74
         0
 49
-6.35
 74
         0
  0
ENDTAB
  0
TABLE
  2
LAYER
  5
2
100
AcDbSymbolTable
 70
         3
  0
LAYER
  5
14
100
AcDbSymbolTableRecord
100
AcDbLayerTableRecord
  2
0
 70
         0
 62
         7
  6
CONTINUOUS
  0
LAYER
  5
1D
100
AcDbSymbolTableRecord
100
AcDbLayerTableRecord
  2
DEFPOINTS
 70
         0
 62
         7
  6
CONTINUOUS
  0
LAYER
  5
1E
100
AcDbSymbolTableRecord
100
AcDbLayerTableRecord
  2
LY_3
 70
         0
 62
         7
  6
CONTINUOUS
  0
ENDTAB
  0
TABLE
  2
STYLE
  5
3
100
AcDbSymbolTable
 70
         1
  0
STYLE
  5
17
100
AcDbSymbolTableRecord
100
AcDbTextStyleTableRecord
  2
MX_NOTE_STANDARD
 70
         0
 40
0.0
 41
1.0
 50
0.0
 71
         0
 42
3.2000000477
  3
txt.shx
  4
extfont.shx
  0
ENDTAB
  0
TABLE
  2
VIEW
  5
5
100
AcDbSymbolTable
 70
         0
  0
ENDTAB
  0
TABLE
  2
UCS
  5
6
100
AcDbSymbolTable
 70
         0
  0
ENDTAB
  0
TABLE
  2
APPID
  5
8
100
AcDbSymbolTable
 70
         1
  0
APPID
  5
16
100
AcDbSymbolTableRecord
100
AcDbRegAppTableRecord
  2
ACAD
 70
         0
  0
ENDTAB
  0
TABLE
  2
DIMSTYLE
  5
9
100
AcDbSymbolTable
 70
         1
  0
DIMSTYLE
105
18
100
AcDbSymbolTableRecord
100
AcDbDimStyleTableRecord
  2
MXDIMSTYLE
 70
         0
  3

  4

  5

  6
_OPEN30
  7
_OPEN30
 40
1.0
 41
2.5
 42
0.0
 43
3.75
 44
2.5
 45
0.0
 46
0.0
 47
0.0
 48
0.0
 71
         0
 72
         0
 73
         0
 74
         0
 75
         0
 76
         0
 77
         1
 78
         8
140
3.2000000477
141
2.5
142
0.0
143
0.0393700787
144
1.0
145
0.0
146
1.0
147
1.0
170
         0
171
         4
172
         1
173
         1
174
         0
175
         0
176
         0
177
         0
178
         0
270
         2
271
         2
272
         2
273
         2
274
         4
275
         0
280
         0
281
         0
282
         0
283
         0
284
         0
285
         0
286
         0
287
         3
288
         0
340
17
  0
ENDTAB
  0
TABLE
  2
BLOCK_RECORD
  5
1
100
AcDbSymbolTable
 70
         1
  0
BLOCK_RECORD
  5
A
100
AcDbSymbolTableRecord
100
AcDbBlockTableRecord
  2
*MODEL_SPACE
  0
BLOCK_RECORD
  5
B
100
AcDbSymbolTableRecord
100
AcDbBlockTableRecord
  2
*PAPER_SPACE
  0
BLOCK_RECORD
  5
1F
100
AcDbSymbolTableRecord
100
AcDbBlockTableRecord
  2
_OPEN30
  0
ENDTAB
  0
ENDSEC
  0
SECTION
  2
BLOCKS
  0
BLOCK
  5
D
100
AcDbEntity
  8
0
100
AcDbBlockBegin
  2
*MODEL_SPACE
 70
         0
 10
0.0
 20
0.0
 30
0.0
  3
*MODEL_SPACE
  1

  0
ENDBLK
  5
E
100
AcDbEntity
  8
0
100
AcDbBlockEnd
  0
BLOCK
  5
F
100
AcDbEntity
 67
         1
  8
0
100
AcDbBlockBegin
  2
*PAPER_SPACE
 70
         0
 10
0.0
 20
0.0
 30
0.0
  3
*PAPER_SPACE
  1

  0
ENDBLK
  5
10
100
AcDbEntity
 67
         1
  8
0
100
AcDbBlockEnd
  0
BLOCK
  5
20
100
AcDbEntity
  8
0
  6
ByBlock
 62
         0
100
AcDbBlockBegin
  2
_OPEN30
 70
         2
 10
0.0
 20
0.0
 30
0.0
  3
_OPEN30
  1

  0
LINE
  5
21
100
AcDbEntity
  8
0
  6
ByBlock
 62
         0
100
AcDbLine
 10
-1.0
 20
0.267949
 30
0.0
 11
0.0
 21
0.0
 31
0.0
  0
LINE
  5
22
100
AcDbEntity
  8
0
  6
ByBlock
 62
         0
100
AcDbLine
 10
0.0
 20
0.0
 30
0.0
 11
-1.0
 21
-0.267949
 31
0.0
  0
LINE
  5
23
100
AcDbEntity
  8
0
  6
ByBlock
 62
         0
100
AcDbLine
 10
0.0
 20
0.0
 30
0.0
 11
-1.0
 21
0.0
 31
0.0
  0
ENDBLK
  5
24
100
AcDbEntity
  8
0
  6
ByBlock
 62
         0
100
AcDbBlockEnd
  0
ENDSEC
  0
SECTION
  2
ENTITIES
  0
MTEXT
  5
25
100
AcDbEntity
  8
LY_3
  6
CONTINUOUS
 62
       110
100
AcDbMText
 10
-122.623783963
 20
121.5749998659
 30
0.0
 40
13.1499996185
 41
0.0
 71
         1
 72
         1
  1
\W1.050;\A1;TSUBAKI
  0
MTEXT
  5
26
100
AcDbEntity
  8
LY_3
  6
CONTINUOUS
 62
         7
100
AcDbMText
 10
-42.2727270271
 20
72.499999702
 30
0.0
 40
15.0
 41
0.0
 71
         1
 72
         1
  1
\W1.091;\A1;TGA150
  0
MTEXT
  5
27
100
AcDbEntity
  8
LY_3
  6
CONTINUOUS
 62
         7
100
AcDbMText
 10
-62.6618710559
 20
96.5000000596
 30
0.0
 40
13.0
 41
0.0
 71
         1
 72
         1
  1
\W1.079;\A1;AXIAL GARD
  0
POINT
  5
28
100
AcDbEntity
  8
LY_3
  6
CONTINUOUS
 62
        20
100
AcDbPoint
 10
0.0
 20
0.0
 30
0.0
  0
CIRCLE
  5
29
100
AcDbEntity
  8
LY_3
  6
CONTINUOUS
 62
       251
100
AcDbCircle
 10
41.175552
 20
10.999998
 30
0.0
 40
1.7
  0
CIRCLE
  5
2A
100
AcDbEntity
  8
LY_3
  6
CONTINUOUS
 62
         7
100
AcDbCircle
 10
41.175552
 20
10.999998
 30
0.0
 40
2.0
  0
CIRCLE
  5
2B
100
AcDbEntity
  8
LY_3
  6
CONTINUOUS
 62
       251
100
AcDbCircle
 10
41.175552
 20
0.0
 30
0.0
 40
4.850004
  0
CIRCLE
  5
2C
100
AcDbEntity
  8
LY_3
  6
CONTINUOUS
 62
         7
100
AcDbCircle
 10
41.175552
 20
0.0
 30
0.0
 40
3.999998
  0
CIRCLE
  5
2D
100
AcDbEntity
  8
LY_3
  6
CONTINUOUS
 62
       251
100
AcDbCircle
 10
41.175552
 20
0.0
 30
0.0
 40
3.449995
  0
CIRCLE
  5
2E
100
AcDbEntity
  8
LY_3
  6
CONTINUOUS
 62
       251
100
AcDbCircle
 10
41.175552
 20
0.0
 30
0.0
 40
14.0
  0
CIRCLE
  5
2F
100
AcDbEntity
  8
LY_3
  6
CONTINUOUS
 62
       251
100
AcDbCircle
 10
41.175552
 20
0.0
 30
0.0
 40
7.0
  0
CIRCLE
  5
30
100
AcDbEntity
  8
LY_3
  6
CONTINUOUS
 62
       251
100
AcDbCircle
 10
41.175552
 20
0.0
 30
0.0
 40
14.999987
  0
CIRCLE
  5
31
100
AcDbEntity
  8
LY_3
  6
CONTINUOUS
 62
       251
100
AcDbCircle
 10
41.175552
 20
0.0
 30
0.0
 40
19.0
  0
LINE
  5
32
100
AcDbEntity
  8
LY_3
  6
CONTINUOUS
 62
       251
100
AcDbLine
 10
37.175552
 20
22.999998
 30
0.0
 11
37.175552
 21
18.574171
 31
0.0
  0
LINE
  5
33
100
AcDbEntity
  8
LY_3
  6
CONTINUOUS
 62
       251
100
AcDbLine
 10
45.175552
 20
22.999998
 30
0.0
 11
45.175552
 21
18.574171
 31
0.0
  0
LINE
  5
34
100
AcDbEntity
  8
LY_3
  6
CONTINUOUS
 62
       251
100
AcDbLine
 10
37.175552
 20
22.999998
 30
0.0
 11
45.175552
 21
22.999998
 31
0.0
  0
LINE
  5
35
100
AcDbEntity
  8
LY_3
  6
CONTINUOUS
 62
       251
100
AcDbLine
 10
-37.4
 20
22.999998
 30
0.0
 11
-34.0
 21
22.999998
 31
0.0
  0
LINE
  5
36
100
AcDbEntity
  8
LY_3
  6
CONTINUOUS
 62
       251
100
AcDbLine
 10
-38.599999
 20
22.999998
 30
0.0
 11
-38.599999
 21
21.499998
 31
0.0
  0
LINE
  5
37
100
AcDbEntity
  8
LY_3
  6
CONTINUOUS
 62
       251
100
AcDbLine
 10
-37.4
 20
22.999998
 30
0.0
 11
-37.4
 21
21.499998
 31
0.0
  0
LINE
  5
38
100
AcDbEntity
  8
LY_3
  6
CONTINUOUS
 62
       251
100
AcDbLine
 10
-38.599999
 20
21.499998
 30
0.0
 11
-37.4
 21
21.499998
 31
0.0
  0
LINE
  5
39
100
AcDbEntity
  8
LY_3
  6
CONTINUOUS
 62
       251
100
AcDbLine
 10
-42.0
 20
22.999998
 30
0.0
 11
-38.599999
 21
22.999998
 31
0.0
  0
LINE
  5
3B
100
AcDbEntity
  8
LY_3
  6
DASHED
 62
         7
100
AcDbLine
 10
-65.0
 20
4.850004
 30
0.0
 11
-65.0
 21
-4.849991
 31
0.0
  0
LINE
  5
3C
100
AcDbEntity
  8
LY_3
  6
DASHED
 62
         7
100
AcDbLine
 10
-7.0
 20
4.850004
 30
0.0
 11
-7.0
 21
-4.849991
 31
0.0
  0
LINE
  5
3D
100
AcDbEntity
  8
LY_3
  6
DASHED
 62
         7
100
AcDbLine
 10
-7.0
 20
4.850004
 30
0.0
 11
0.0
 21
4.850004
 31
0.0
  0
LINE
  5
3E
100
AcDbEntity
  8
LY_3
  6
DASHED
 62
         7
100
AcDbLine
 10
-7.0
 20
-4.849991
 30
0.0
 11
0.0
 21
-4.849991
 31
0.0
  0
LINE
  5
3F
100
AcDbEntity
  8
LY_3
  6
DASHED
 62
         7
100
AcDbLine
 10
-72.0
 20
-4.849991
 30
0.0
 11
-65.0
 21
-4.849991
 31
0.0
  0
LINE
  5
40
100
AcDbEntity
  8
LY_3
  6
DASHED
 62
         7
100
AcDbLine
 10
-72.0
 20
4.850004
 30
0.0
 11
-64.999969
 21
4.850004
 31
0.0
  0
LINE
  5
41
100
AcDbEntity
  8
LY_3
  6
DASHED
 62
         7
100
AcDbLine
 10
-55.149979
 20
4.000059
 30
0.0
 11
-55.149979
 21
-3.999939
 31
0.0
  0
LINE
  5
42
100
AcDbEntity
  8
LY_3
  6
DASHED
 62
         7
100
AcDbLine
 10
-48.777052
 20
0.000051
 30
0.0
 11
-50.850022
 21
3.450052
 31
0.0
  0
LINE
  5
43
100
AcDbEntity
  8
LY_3
  6
DASHED
 62
         7
100
AcDbLine
 10
-50.850021
 20
-3.449969
 30
0.0
 11
-48.777051
 21
0.000032
 31
0.0
  0
LINE
  5
44
100
AcDbEntity
  8
LY_3
  6
DASHED
 62
         7
100
AcDbLine
 10
-50.849976
 20
3.450026
 30
0.0
 11
-65.0
 21
3.450026
 31
0.0
  0
LINE
  5
45
100
AcDbEntity
  8
LY_3
  6
DASHED
 62
         7
100
AcDbLine
 10
-50.850006
 20
-3.449982
 30
0.0
 11
-65.0
 21
-3.449982
 31
0.0
  0
LINE
  5
46
100
AcDbEntity
  8
LY_3
  6
DASHED
 62
         7
100
AcDbLine
 10
-50.849991
 20
3.450056
 30
0.0
 11
-50.849991
 21
-3.449951
 31
0.0
  0
LINE
  5
47
100
AcDbEntity
  8
LY_3
  6
DASHED
 62
         7
100
AcDbLine
 10
-55.149979
 20
4.000029
 30
0.0
 11
-65.0
 21
4.000029
 31
0.0
  0
LINE
  5
48
100
AcDbEntity
  8
LY_3
  6
DASHED
 62
         7
100
AcDbLine
 10
-55.149979
 20
-3.999969
 30
0.0
 11
-65.0
 21
-3.999969
 31
0.0
  0
LINE
  5
49
100
AcDbEntity
  8
LY_3
  6
DASHED
 62
         7
100
AcDbLine
 10
-16.849991
 20
-3.999954
 30
0.0
 11
-16.849991
 21
4.000044
 31
0.0
  0
LINE
  5
4A
100
AcDbEntity
  8
LY_3
  6
DASHED
 62
         7
100
AcDbLine
 10
-21.149967
 20
3.450025
 30
0.0
 11
-23.222935
 21
0.000027
 31
0.0
  0
LINE
  5
4B
100
AcDbEntity
  8
LY_3
  6
DASHED
 62
         7
100
AcDbLine
 10
-23.222931
 20
0.000026
 30
0.0
 11
-21.149961
 21
-3.449976
 31
0.0
  0
LINE
  5
4C
100
AcDbEntity
  8
LY_3
  6
DASHED
 62
         7
100
AcDbLine
 10
-7.0
 20
3.45001
 30
0.0
 11
-21.149979
 21
3.45001
 31
0.0
  0
LINE
  5
4D
100
AcDbEntity
  8
LY_3
  6
DASHED
 62
         7
100
AcDbLine
 10
-7.0
 20
-3.449997
 30
0.0
 11
-21.149948
 21
-3.449997
 31
0.0
  0
LINE
  5
4E
100
AcDbEntity
  8
LY_3
  6
DASHED
 62
         7
100
AcDbLine
 10
-21.149979
 20
-3.449966
 30
0.0
 11
-21.149979
 21
3.450041
 31
0.0
  0
LINE
  5
4F
100
AcDbEntity
  8
LY_3
  6
DASHED
 62
         7
100
AcDbLine
 10
-7.0
 20
4.000013
 30
0.0
 11
-16.849991
 21
4.000013
 31
0.0
  0
LINE
  5
50
100
AcDbEntity
  8
LY_3
  6
DASHED
 62
         7
100
AcDbLine
 10
-7.0
 20
-3.999985
 30
0.0
 11
-16.849991
 21
-3.999985
 31
0.0
  0
LINE
  5
51
100
AcDbEntity
  8
LY_3
  6
CONTINUOUS
 62
       251
100
AcDbLine
 10
30.675552
 20
9.260115
 30
0.0
 11
30.675552
 21
-9.260118
 31
0.0
  0
LINE
  5
52
100
AcDbEntity
  8
LY_3
  6
CONTINUOUS
 62
       251
100
AcDbLine
 10
51.675552
 20
9.260115
 30
0.0
 11
51.675552
 21
-9.260118
 31
0.0
  0
LINE
  5
53
100
AcDbEntity
  8
LY_3
  6
CONTINUOUS
 62
       251
100
AcDbLine
 10
-62.0
 20
18.999998
 30
0.0
 11
-19.000015
 21
18.999998
 31
0.0
  0
LINE
  5
54
100
AcDbEntity
  8
LY_3
  6
CONTINUOUS
 62
       251
100
AcDbLine
 10
-62.0
 20
-18.999987
 30
0.0
 11
-19.000015
 21
-18.999987
 31
0.0
  0
LINE
  5
55
100
AcDbEntity
  8
LY_3
  6
CONTINUOUS
 62
       251
100
AcDbLine
 10
-16.812378
 20
13.999998
 30
0.0
 11
-10.812378
 21
13.999998
 31
0.0
  0
LINE
  5
56
100
AcDbEntity
  8
LY_3
  6
CONTINUOUS
 62
       251
100
AcDbLine
 10
-16.812378
 20
-13.999987
 30
0.0
 11
-15.812378
 21
-13.999987
 31
0.0
  0
LINE
  5
57
100
AcDbEntity
  8
LY_3
  6
CONTINUOUS
 62
       251
100
AcDbLine
 10
-19.000015
 20
14.999998
 30
0.0
 11
-16.812378
 21
14.999998
 31
0.0
  0
LINE
  5
58
100
AcDbEntity
  8
LY_3
  6
DASHED
 62
         7
100
AcDbLine
 10
-59.499957
 20
10.999995
 30
0.0
 11
-55.999965
 21
8.979273
 31
0.0
  0
LINE
  5
59
100
AcDbEntity
  8
LY_3
  6
DASHED
 62
         7
100
AcDbLine
 10
-55.999966
 20
8.979281
 30
0.0
 11
-52.499964
 21
11.000008
 31
0.0
  0
LINE
  5
5A
100
AcDbEntity
  8
LY_3
  6
DASHED
 62
         7
100
AcDbLine
 10
-52.5
 20
18.999998
 30
0.0
 11
-52.5
 21
10.999998
 31
0.0
  0
LINE
  5
5B
100
AcDbEntity
  8
LY_3
  6
DASHED
 62
         7
100
AcDbLine
 10
-59.5
 20
18.999998
 30
0.0
 11
-59.5
 21
10.999998
 31
0.0
  0
LINE
  5
5C
100
AcDbEntity
  8
LY_3
  6
DASHED
 62
         7
100
AcDbLine
 10
-59.5
 20
10.999998
 30
0.0
 11
-52.5
 21
10.999998
 31
0.0
  0
LINE
  5
5D
100
AcDbEntity
  8
LY_3
  6
DASHED
 62
         7
100
AcDbLine
 10
-51.399959
 20
-15.699964
 30
0.0
 11
-50.378496
 21
-13.999964
 31
0.0
  0
LINE
  5
5E
100
AcDbEntity
  8
LY_3
  6
DASHED
 62
         7
100
AcDbLine
 10
-50.378514
 20
-13.99998
 30
0.0
 11
-51.399976
 21
-12.299981
 31
0.0
  0
LINE
  5
5F
100
AcDbEntity
  8
LY_3
  6
DASHED
 62
         7
100
AcDbLine
 10
-62.0
 20
-15.699999
 30
0.0
 11
-51.400009
 21
-15.699999
 31
0.0
  0
LINE
  5
60
100
AcDbEntity
  8
LY_3
  6
DASHED
 62
         7
100
AcDbLine
 10
-62.0
 20
-12.29999
 30
0.0
 11
-51.400024
 21
-12.29999
 31
0.0
  0
LINE
  5
61
100
AcDbEntity
  8
LY_3
  6
DASHED
 62
         7
100
AcDbLine
 10
-51.399994
 20
-12.29999
 30
0.0
 11
-51.399994
 21
-15.699999
 31
0.0
  0
LINE
  5
62
100
AcDbEntity
  8
LY_3
  6
DASHED
 62
         7
100
AcDbLine
 10
-54.0
 20
-11.999987
 30
0.0
 11
-54.0
 21
-15.999987
 31
0.0
  0
LINE
  5
63
100
AcDbEntity
  8
LY_3
  6
DASHED
 62
         7
100
AcDbLine
 10
-62.0
 20
-15.999987
 30
0.0
 11
-54.0
 21
-15.999987
 31
0.0
  0
LINE
  5
64
100
AcDbEntity
  8
LY_3
  6
DASHED
 62
         7
100
AcDbLine
 10
-62.0
 20
-11.999987
 30
0.0
 11
-54.0
 21
-11.999987
 31
0.0
  0
LINE
  5
66
100
AcDbEntity
  8
LY_3
  6
CENTER
 62
         7
100
AcDbLine
 10
-64.0
 20
-13.999987
 30
0.0
 11
-50.108673
 21
-13.999987
 31
0.0
  0
LINE
  5
67
100
AcDbEntity
  8
LY_3
  6
CONTINUOUS
 62
       251
100
AcDbLine
 10
0.0
 20
6.999998
 30
0.0
 11
0.0
 21
-7.0
 31
0.0
  0
LINE
  5
68
100
AcDbEntity
  8
LY_3
  6
CONTINUOUS
 62
       251
100
AcDbLine
 10
-10.812378
 20
13.999998
 30
0.0
 11
-10.812378
 21
-10.499987
 31
0.0
  0
LINE
  5
69
100
AcDbEntity
  8
LY_3
  6
CONTINUOUS
 62
       251
100
AcDbLine
 10
-15.812378
 20
-10.499987
 30
0.0
 11
-10.812378
 21
-10.499987
 31
0.0
  0
LINE
  5
6A
100
AcDbEntity
  8
LY_3
  6
CONTINUOUS
 62
       251
100
AcDbLine
 10
-72.0
 20
6.999998
 30
0.0
 11
-72.0
 21
-7.0
 31
0.0
  0
LINE
  5
6B
100
AcDbEntity
  8
LY_3
  6
CONTINUOUS
 62
       251
100
AcDbLine
 10
-64.0
 20
-9.0
 30
0.0
 11
-62.0
 21
-9.0
 31
0.0
  0
LINE
  5
6C
100
AcDbEntity
  8
LY_3
  6
CONTINUOUS
 62
       251
100
AcDbLine
 10
-62.0
 20
-18.999987
 30
0.0
 11
-62.0
 21
18.999998
 31
0.0
  0
LINE
  5
6D
100
AcDbEntity
  8
LY_3
  6
CONTINUOUS
 62
       251
100
AcDbLine
 10
-19.000015
 20
-18.999987
 30
0.0
 11
-19.000015
 21
18.999998
 31
0.0
  0
LINE
  5
6E
100
AcDbEntity
  8
LY_3
  6
DASHED
 62
         7
100
AcDbLine
 10
-64.0
 20
-7.0
 30
0.0
 11
-10.812378
 21
-7.0
 31
0.0
  0
LINE
  5
6F
100
AcDbEntity
  8
LY_3
  6
CONTINUOUS
 62
       251
100
AcDbLine
 10
-72.0
 20
-7.0
 30
0.0
 11
-64.0
 21
-7.0
 31
0.0
  0
LINE
  5
70
100
AcDbEntity
  8
LY_3
  6
CONTINUOUS
 62
       251
100
AcDbLine
 10
-42.0
 20
22.999998
 30
0.0
 11
-42.0
 21
18.999998
 31
0.0
  0
LINE
  5
71
100
AcDbEntity
  8
LY_3
  6
CONTINUOUS
 62
       251
100
AcDbLine
 10
-34.0
 20
22.999998
 30
0.0
 11
-34.0
 21
18.999998
 31
0.0
  0
LINE
  5
72
100
AcDbEntity
  8
LY_3
  6
CONTINUOUS
 62
       251
100
AcDbLine
 10
-64.0
 20
8.999998
 30
0.0
 11
-62.0
 21
8.999998
 31
0.0
  0
LINE
  5
73
100
AcDbEntity
  8
LY_3
  6
CONTINUOUS
 62
       251
100
AcDbLine
 10
-64.0
 20
8.999998
 30
0.0
 11
-64.0
 21
-9.0
 31
0.0
  0
LINE
  5
74
100
AcDbEntity
  8
LY_3
  6
CONTINUOUS
 62
       251
100
AcDbLine
 10
-16.812378
 20
14.999998
 30
0.0
 11
-16.812378
 21
-14.999987
 31
0.0
  0
LINE
  5
75
100
AcDbEntity
  8
LY_3
  6
DASHED
 62
         7
100
AcDbLine
 10
-64.0
 20
6.999998
 30
0.0
 11
-10.812378
 21
6.999998
 31
0.0
  0
LINE
  5
76
100
AcDbEntity
  8
LY_3
  6
CONTINUOUS
 62
       251
100
AcDbLine
 10
-72.0
 20
6.999998
 30
0.0
 11
-64.0
 21
6.999998
 31
0.0
  0
LINE
  5
77
100
AcDbEntity
  8
LY_3
  6
CONTINUOUS
 62
       251
100
AcDbLine
 10
-16.812378
 20
-14.999987
 30
0.0
 11
-19.000015
 21
-14.999987
 31
0.0
  0
LINE
  5
78
100
AcDbEntity
  8
LY_3
  6
CONTINUOUS
 62
       251
100
AcDbLine
 10
-10.812378
 20
-7.0
 30
0.0
 11
0.0
 21
-7.0
 31
0.0
  0
LINE
  5
79
100
AcDbEntity
  8
LY_3
  6
CONTINUOUS
 62
       251
100
AcDbLine
 10
-10.812378
 20
6.999998
 30
0.0
 11
0.0
 21
6.999998
 31
0.0
  0
LINE
  5
7A
100
AcDbEntity
  8
LY_3
  6
CONTINUOUS
 62
       251
100
AcDbLine
 10
-15.812378
 20
-13.999987
 30
0.0
 11
-15.812378
 21
-10.499987
 31
0.0
  0
LINE
  5
7B
100
AcDbEntity
  8
LY_3
  6
DASHED
 62
         7
100
AcDbLine
 10
-115.999985
 20
-22.141577
 30
0.0
 11
-115.999985
 21
-13.499975
 31
0.0
  0
LINE
  5
7C
100
AcDbEntity
  8
LY_3
  6
DASHED
 62
         7
100
AcDbLine
 10
-107.999985
 20
-22.141577
 30
0.0
 11
-107.999985
 21
-13.49999
 31
0.0
  0
CIRCLE
  5
7D
100
AcDbEntity
  8
LY_3
  6
CONTINUOUS
 62
       251
100
AcDbCircle
 10
-112.0
 20
0.0
 30
0.0
 40
22.5
  0
CIRCLE
  5
7E
100
AcDbEntity
  8
LY_3
  6
CONTINUOUS
 62
       251
100
AcDbCircle
 10
-120.500015
 20
-14.722403
 30
0.0
 40
2.15
  0
CIRCLE
  5
7F
100
AcDbEntity
  8
LY_3
  6
CONTINUOUS
 62
         7
100
AcDbCircle
 10
-120.500015
 20
-14.722403
 30
0.0
 40
2.5
  0
CIRCLE
  5
80
100
AcDbEntity
  8
LY_3
  6
CONTINUOUS
 62
       251
100
AcDbCircle
 10
-128.999985
 20
0.000029
 30
0.0
 40
2.15
  0
CIRCLE
  5
81
100
AcDbEntity
  8
LY_3
  6
CONTINUOUS
 62
         7
100
AcDbCircle
 10
-128.999985
 20
0.000029
 30
0.0
 40
2.5
  0
CIRCLE
  5
82
100
AcDbEntity
  8
LY_3
  6
CONTINUOUS
 62
       251
100
AcDbCircle
 10
-120.499969
 20
14.722437
 30
0.0
 40
2.15
  0
CIRCLE
  5
83
100
AcDbEntity
  8
LY_3
  6
CONTINUOUS
 62
         7
100
AcDbCircle
 10
-120.499969
 20
14.722437
 30
0.0
 40
2.5
  0
CIRCLE
  5
84
100
AcDbEntity
  8
LY_3
  6
CONTINUOUS
 62
       251
100
AcDbCircle
 10
-103.499985
 20
14.722422
 30
0.0
 40
2.15
  0
CIRCLE
  5
85
100
AcDbEntity
  8
LY_3
  6
CONTINUOUS
 62
         7
100
AcDbCircle
 10
-103.499985
 20
14.722422
 30
0.0
 40
2.5
  0
CIRCLE
  5
86
100
AcDbEntity
  8
LY_3
  6
CONTINUOUS
 62
       251
100
AcDbCircle
 10
-95.0
 20
0.0
 30
0.0
 40
2.15
  0
CIRCLE
  5
87
100
AcDbEntity
  8
LY_3
  6
CONTINUOUS
 62
         7
100
AcDbCircle
 10
-95.0
 20
0.0
 30
0.0
 40
2.5
  0
CIRCLE
  5
88
100
AcDbEntity
  8
LY_3
  6
CONTINUOUS
 62
       251
100
AcDbCircle
 10
-103.500031
 20
-14.722418
 30
0.0
 40
2.15
  0
CIRCLE
  5
89
100
AcDbEntity
  8
LY_3
  6
CONTINUOUS
 62
         7
100
AcDbCircle
 10
-103.500031
 20
-14.722418
 30
0.0
 40
2.5
  0
CIRCLE
  5
8A
100
AcDbEntity
  8
LY_3
  6
CONTINUOUS
 62
       251
100
AcDbCircle
 10
-112.0
 20
0.0
 30
0.0
 40
9.0
  0
CIRCLE
  5
8B
100
AcDbEntity
  8
LY_3
  6
CONTINUOUS
 62
       251
100
AcDbCircle
 10
-112.0
 20
0.0
 30
0.0
 40
12.0
  0
LINE
  5
8C
100
AcDbEntity
  8
LY_3
  6
DASHED
 62
         7
100
AcDbLine
 10
-115.99998
 20
13.499997
 30
0.0
 11
-111.999978
 21
11.190595
 31
0.0
  0
LINE
  5
8D
100
AcDbEntity
  8
LY_3
  6
DASHED
 62
         7
100
AcDbLine
 10
-111.999965
 20
11.190598
 30
0.0
 11
-107.999962
 21
13.5
 31
0.0
  0
LINE
  5
8E
100
AcDbEntity
  8
LY_3
  6
DASHED
 62
         7
100
AcDbLine
 10
-116.0
 20
22.141581
 30
0.0
 11
-116.0
 21
13.499994
 31
0.0
  0
LINE
  5
8F
100
AcDbEntity
  8
LY_3
  6
DASHED
 62
         7
100
AcDbLine
 10
-108.0
 20
22.141581
 30
0.0
 11
-108.0
 21
13.499979
 31
0.0
  0
LINE
  5
90
100
AcDbEntity
  8
LY_3
  6
DASHED
 62
         7
100
AcDbLine
 10
-116.0
 20
13.499994
 30
0.0
 11
-108.0
 21
13.499994
 31
0.0
  0
LINE
  5
91
100
AcDbEntity
  8
LY_3
  6
DASHED
 62
         7
100
AcDbLine
 10
-107.999997
 20
-13.49998
 30
0.0
 11
-111.999999
 21
-11.190578
 31
0.0
  0
LINE
  5
92
100
AcDbEntity
  8
LY_3
  6
DASHED
 62
         7
100
AcDbLine
 10
-111.999987
 20
-11.19059
 30
0.0
 11
-115.99999
 21
-13.499992
 31
0.0
  0
LINE
  5
93
100
AcDbEntity
  8
LY_3
  6
DASHED
 62
         7
100
AcDbLine
 10
-107.999985
 20
-13.49999
 30
0.0
 11
-115.999985
 21
-13.49999
 31
0.0
  0
CIRCLE
  5
94
100
AcDbEntity
  8
LY_3
  6
CONTINUOUS
 62
       251
100
AcDbCircle
 10
-112.0
 20
0.0
 30
0.0
 40
4.850004
  0
CIRCLE
  5
95
100
AcDbEntity
  8
LY_3
  6
CONTINUOUS
 62
         7
100
AcDbCircle
 10
-112.0
 20
0.0
 30
0.0
 40
3.999998
  0
CIRCLE
  5
96
100
AcDbEntity
  8
LY_3
  6
CONTINUOUS
 62
       251
100
AcDbCircle
 10
-112.0
 20
0.0
 30
0.0
 40
3.449995
  0
CIRCLE
  5
97
100
AcDbEntity
  8
LY_3
  6
CONTINUOUS
 62
       251
100
AcDbCircle
 10
-112.0
 20
0.0
 30
0.0
 40
7.0
  0
ENDSEC
  0
SECTION
  2
OBJECTS
  0
DICTIONARY
  5
19
100
AcDbDictionary
  3
ACAD_GROUP
350
1A
  3
ACAD_MLINESTYLE
350
1B
  0
DICTIONARY
  5
1A
102
{ACAD_REACTORS
330
19
102
}
100
AcDbDictionary
  0
DICTIONARY
  5
1B
102
{ACAD_REACTORS
330
19
102
}
100
AcDbDictionary
  3
STANDARD
350
1C
  0
MLINESTYLE
  5
1C
102
{ACAD_REACTORS
330
1B
102
}
100
AcDbMlineStyle
  2
Standard
 70
         0
  3

 62
         0
 51
90.0
 52
90.0
 71
         2
 49
0.5
 62
       256
  6
ByLayer
 49
-0.5
 62
       256
  6
ByLayer
  0
ENDSEC
  0
EOF
