  0
SECTION
  2
HEADER
  9
$ACADVER
  1
AC1014
  9
$ACADMAINTVER
 70
         0
  9
$DWGCODEPAGE
  3
ANSI_932
  9
$INSBASE
 10
0.0
 20
0.0
 30
0.0
  9
$EXTMIN
 10
-574.285107
 20
-442.288864
 30
0.0
  9
$EXTMAX
 10
502.594116
 20
69.7401360721
 30
0.0
  9
$LIMMIN
 10
-574.285107
 20
-442.288864
  9
$LIMMAX
 10
502.594116
 20
69.7401360721
  9
$ORTHOMODE
 70
         0
  9
$REGENMODE
 70
         1
  9
$FILLMODE
 70
         1
  9
$QTEXTMODE
 70
         0
  9
$MIRRTEXT
 70
         1
  9
$DRAGMODE
 70
         2
  9
$LTSCALE
 40
1.0
  9
$OSMODE
 70
         0
  9
$ATTMODE
 70
         1
  9
$TEXTSIZE
 40
3.2000000477
  9
$TRACEWID
 40
0.05
  9
$TEXTSTYLE
  7
MX_NOTE_STANDARD
  9
$CLAYER
  8
LY_3
  9
$CELTYPE
  6
CONTINUOUS
  9
$CECOLOR
 62
       256
  9
$CELTSCALE
 40
1.0
  9
$DELOBJ
 70
         1
  9
$DISPSILH
 70
         0
  9
$DIMSCALE
 40
1.0
  9
$DIMASZ
 40
2.5
  9
$DIMEXO
 40
0.0
  9
$DIMDLI
 40
3.75
  9
$DIMRND
 40
0.0
  9
$DIMDLE
 40
0.0
  9
$DIMEXE
 40
2.5
  9
$DIMTP
 40
0.0
  9
$DIMTM
 40
0.0
  9
$DIMTXT
 40
3.2000000477
  9
$DIMCEN
 40
2.5
  9
$DIMTSZ
 40
0.0
  9
$DIMTOL
 70
         0
  9
$DIMLIM
 70
         0
  9
$DIMTIH
 70
         0
  9
$DIMTOH
 70
         0
  9
$DIMSE1
 70
         0
  9
$DIMSE2
 70
         0
  9
$DIMTAD
 70
         1
  9
$DIMZIN
 70
         8
  9
$DIMBLK
  1

  9
$DIMASO
 70
         1
  9
$DIMSHO
 70
         1
  9
$DIMPOST
  1

  9
$DIMAPOST
  1

  9
$DIMALT
 70
         0
  9
$DIMALTD
 70
         4
  9
$DIMALTF
 40
0.0393700787
  9
$DIMLFAC
 40
1.0
  9
$DIMTOFL
 70
         1
  9
$DIMTVP
 40
0.0
  9
$DIMTIX
 70
         0
  9
$DIMSOXD
 70
         0
  9
$DIMSAH
 70
         1
  9
$DIMBLK1
  1
_OPEN30
  9
$DIMBLK2
  1
_OPEN30
  9
$DIMSTYLE
  2
MXDIMSTYLE
  9
$DIMCLRD
 70
         0
  9
$DIMCLRE
 70
         0
  9
$DIMCLRT
 70
         0
  9
$DIMTFAC
 40
1.0
  9
$DIMGAP
 40
1.0
  9
$DIMJUST
 70
         0
  9
$DIMSD1
 70
         0
  9
$DIMSD2
 70
         0
  9
$DIMTOLJ
 70
         0
  9
$DIMTZIN
 70
         0
  9
$DIMALTZ
 70
         0
  9
$DIMALTTZ
 70
         0
  9
$DIMFIT
 70
         3
  9
$DIMUPT
 70
         0
  9
$DIMUNIT
 70
         2
  9
$DIMDEC
 70
         2
  9
$DIMTDEC
 70
         2
  9
$DIMALTU
 70
         2
  9
$DIMALTTD
 70
         4
  9
$DIMTXSTY
  7
MX_NOTE_STANDARD
  9
$DIMAUNIT
 70
         0
  9
$LUNITS
 70
         2
  9
$LUPREC
 70
         4
  9
$SKETCHINC
 40
0.1
  9
$FILLETRAD
 40
0.0
  9
$AUNITS
 70
         0
  9
$AUPREC
 70
         0
  9
$MENU
  1
acad
  9
$ELEVATION
 40
0.0
  9
$PELEVATION
 40
0.0
  9
$THICKNESS
 40
0.0
  9
$LIMCHECK
 70
         0
  9
$BLIPMODE
 70
         1
  9
$CHAMFERA
 40
0.0
  9
$CHAMFERB
 40
0.0
  9
$CHAMFERC
 40
0.0
  9
$CHAMFERD
 40
0.0
  9
$SKPOLY
 70
         0
  9
$TDCREATE
 40
2456603.469976852
  9
$TDUPDATE
 40
2456603.469976852
  9
$TDINDWG
 40
0.0000000000
  9
$TDUSRTIMER
 40
0.0000000000
  9
$USRTIMER
 70
         1
  9
$ANGBASE
 50
0.0
  9
$ANGDIR
 70
         0
  9
$PDMODE
 70
         0
  9
$PDSIZE
 40
0.0
  9
$PLINEWID
 40
0.0
  9
$COORDS
 70
         1
  9
$SPLFRAME
 70
         0
  9
$SPLINETYPE
 70
         6
  9
$SPLINESEGS
 70
         8
  9
$ATTDIA
 70
         0
  9
$ATTREQ
 70
         1
  9
$HANDLING
 70
         1
  9
$HANDSEED
  5
1EB
  9
$SURFTAB1
 70
         6
  9
$SURFTAB2
 70
         6
  9
$SURFTYPE
 70
         6
  9
$SURFU
 70
         6
  9
$SURFV
 70
         6
  9
$UCSNAME
  2

  9
$UCSORG
 10
0.0
 20
0.0
 30
0.0
  9
$UCSXDIR
 10
1.0
 20
0.0
 30
0.0
  9
$UCSYDIR
 10
0.0
 20
1.0
 30
0.0
  9
$PUCSNAME
  2

  9
$PUCSORG
 10
0.0
 20
0.0
 30
0.0
  9
$PUCSXDIR
 10
1.0
 20
0.0
 30
0.0
  9
$PUCSYDIR
 10
0.0
 20
1.0
 30
0.0
  9
$USERI1
 70
         0
  9
$USERI2
 70
         0
  9
$USERI3
 70
         0
  9
$USERI4
 70
         0
  9
$USERI5
 70
         0
  9
$USERR1
 40
0.0
  9
$USERR2
 40
0.0
  9
$USERR3
 40
0.0
  9
$USERR4
 40
0.0
  9
$USERR5
 40
0.0
  9
$WORLDVIEW
 70
         1
  9
$SHADEDGE
 70
         3
  9
$SHADEDIF
 70
        70
  9
$TILEMODE
 70
         1
  9
$MAXACTVP
 70
        16
  9
$PINSBASE
 10
0.0
 20
0.0
 30
0.0
  9
$PLIMCHECK
 70
         0
  9
$PEXTMIN
 10
1.0000000000E+20
 20
1.0000000000E+20
 30
1.0000000000E+20
  9
$PEXTMAX
 10
-1.0000000000E+20
 20
-1.0000000000E+20
 30
-1.0000000000E+20
  9
$PLIMMIN
 10
0.0
 20
0.0
  9
$PLIMMAX
 10
12.0
 20
9.0
  9
$UNITMODE
 70
         0
  9
$VISRETAIN
 70
         0
  9
$PLINEGEN
 70
         1
  9
$PSLTSCALE
 70
         0
  9
$TREEDEPTH
 70
      3020
  9
$PICKSTYLE
 70
         1
  9
$CMLSTYLE
  2
Standard
  9
$CMLJUST
 70
         0
  9
$CMLSCALE
 40
1.0
  9
$PROXYGRAPHICS
 70
         0
  9
$MEASUREMENT
 70
         1
  0
ENDSEC
  0
SECTION
  2
CLASSES
  0
CLASS
  1
LWPOLYLINE
  2
AcDbPolyline
  3
"AutoCAD"
 90
        0
280
         0
281
         1
  0
CLASS
  1
IMAGE
  2
AcDbRasterImage
  3
ISM
 90
      127
280
         0
281
         1
  0
CLASS
  1
OLE2FRAME
  2
AcDbOle2Frame
  3
""
 90
        0
280
         0
281
         1
  0
CLASS
  1
HATCH
  2
AcDbHatch
  3
"ACAD_SEDONA"
 90
        0
280
         0
281
         1
  0
CLASS
  1
DICTIONARYVAR
  2
AcDbDictionaryVar
  3
"AutoCAD"
 90
        0
280
         0
281
         0
  0
CLASS
  1
RASTERVARIABLES
  2
AcDbRasterVariables
  3
ISM
 90
        0
280
         0
281
         0
  0
CLASS
  1
IMAGEDEF
  2
AcDbRasterImageDef
  3
ISM
 90
        0
280
         0
281
         0
  0
CLASS
  1
IMAGEDEF_REACTOR
  2
AcDbRasterImageDefReactor
  3
ISM
 90
        1
280
         0
281
         0
  0
CLASS
  1
IDBUFFER
  2
AcDbIdBuffer
  3
"Acad"
 90
        0
280
         0
281
         0
  0
CLASS
  1
SPATIAL_FILTER
  2
AcDbSpatialFilter
  3
"Acad"
 90
        0
280
         0
281
         0
  0
CLASS
  1
XRECORD
  2
AcDbXrecord
  3
"<Built In>"
 90
        0
280
         0
281
         0
  0
CLASS
  1
SORTENTSTABLE
  2
AcDbSortentsTable
  3
"AutoCAD"
 90
        0
280
         0
281
         0
  0
CLASS
  1
LAYER_INDEX
  2
AcDbLayerIndex
  3
"Acad"
 90
        0
280
         0
281
         0
  0
CLASS
  1
SPATIAL_INDEX
  2
AcDbSpatialIndex
  3
"Acad"
 90
        0
280
         0
281
         0
  0
CLASS
  1
OBJECT_PTR
  2
CAseDLPNTableRecord
  3
"ASE-LPNTableRecord"
 90
        1
280
         0
281
         0
  0
CLASS
  1
LAYOUT
  2
AcDbLayout
  3
"AutoCAD 2000"
 90
        0
280
         0
281
         0
  0
CLASS
  1
PLOTSETTINGS
  2
AcDbPlotSettings
  3
"AutoCAD 2000"
 90
        0
280
         0
281
         0
  0
CLASS
  1
ACDBDICTIONARYWDFLT
  2
AcDbDictionaryWithDefault
  3
"AutoCAD 2000"
 90
        0
280
         0
281
         0
  0
CLASS
  1
ACDBPLACEHOLDER
  2
AcDbPlaceHolder
  3
"AutoCAD 2000"
 90
        0
280
         0
281
         0
  0
ENDSEC
  0
SECTION
  2
TABLES
  0
TABLE
  2
VPORT
  5
7
100
AcDbSymbolTable
 70
         1
  0
VPORT
  5
15
100
AcDbSymbolTableRecord
100
AcDbViewportTableRecord
  2
*ACTIVE
 70
         0
 10
0.0
 20
0.0
 11
1.0
 21
1.0
 12
-35.8454955
 22
-186.274363964
 13
0.0
 23
0.0
 14
1.0
 24
1.0
 15
0.0
 25
0.0
 16
0.0
 26
0.0
 36
1.0
 17
0.0
 27
0.0
 37
0.0
 40
517.1492900728
 41
1.7320508076
 42
50.0
 43
0.0
 44
0.0
 50
0.0
 51
0.0
 71
         0
 72
       100
 73
         1
 74
         1
 75
         0
 76
         0
 77
         0
 78
         0
  0
ENDTAB
  0
TABLE
  2
LTYPE
  5
4
100
AcDbSymbolTable
 70
         4
  0
LTYPE
  5
11
100
AcDbSymbolTableRecord
100
AcDbLinetypeTableRecord
  2
BYBLOCK
 70
        64
  3

 72
        65
 73
         0
 40
0.0
  0
LTYPE
  5
12
100
AcDbSymbolTableRecord
100
AcDbLinetypeTableRecord
  2
BYLAYER
 70
        64
  3

 72
        65
 73
         0
 40
0.0
  0
LTYPE
  5
13
100
AcDbSymbolTableRecord
100
AcDbLinetypeTableRecord
  2
CONTINUOUS
 70
        64
  3
Solid line
 72
        65
 73
         0
 40
0.0
  0
LTYPE
  5
1E0
100
AcDbSymbolTableRecord
100
AcDbLinetypeTableRecord
  2
PHANTOM
 70
        64
  3
Phantom ______  __  __  ______  __  __  ______
 72
        65
 73
         6
 40
63.5
 49
31.75
 74
         0
 49
-6.35
 74
         0
 49
6.35
 74
         0
 49
-6.35
 74
         0
 49
6.35
 74
         0
 49
-6.35
 74
         0
  0
ENDTAB
  0
TABLE
  2
LAYER
  5
2
100
AcDbSymbolTable
 70
         3
  0
LAYER
  5
14
100
AcDbSymbolTableRecord
100
AcDbLayerTableRecord
  2
0
 70
         0
 62
         7
  6
CONTINUOUS
  0
LAYER
  5
1D
100
AcDbSymbolTableRecord
100
AcDbLayerTableRecord
  2
DEFPOINTS
 70
         0
 62
         7
  6
CONTINUOUS
  0
LAYER
  5
1E
100
AcDbSymbolTableRecord
100
AcDbLayerTableRecord
  2
LY_3
 70
         0
 62
         7
  6
CONTINUOUS
  0
ENDTAB
  0
TABLE
  2
STYLE
  5
3
100
AcDbSymbolTable
 70
         1
  0
STYLE
  5
17
100
AcDbSymbolTableRecord
100
AcDbTextStyleTableRecord
  2
MX_NOTE_STANDARD
 70
         0
 40
0.0
 41
1.0
 50
0.0
 71
         0
 42
3.2000000477
  3
txt.shx
  4
extfont.shx
  0
ENDTAB
  0
TABLE
  2
VIEW
  5
5
100
AcDbSymbolTable
 70
         0
  0
ENDTAB
  0
TABLE
  2
UCS
  5
6
100
AcDbSymbolTable
 70
         0
  0
ENDTAB
  0
TABLE
  2
APPID
  5
8
100
AcDbSymbolTable
 70
         1
  0
APPID
  5
16
100
AcDbSymbolTableRecord
100
AcDbRegAppTableRecord
  2
ACAD
 70
         0
  0
ENDTAB
  0
TABLE
  2
DIMSTYLE
  5
9
100
AcDbSymbolTable
 70
         1
  0
DIMSTYLE
105
18
100
AcDbSymbolTableRecord
100
AcDbDimStyleTableRecord
  2
MXDIMSTYLE
 70
         0
  3

  4

  5

  6
_OPEN30
  7
_OPEN30
 40
1.0
 41
2.5
 42
0.0
 43
3.75
 44
2.5
 45
0.0
 46
0.0
 47
0.0
 48
0.0
 71
         0
 72
         0
 73
         0
 74
         0
 75
         0
 76
         0
 77
         1
 78
         8
140
3.2000000477
141
2.5
142
0.0
143
0.0393700787
144
1.0
145
0.0
146
1.0
147
1.0
170
         0
171
         4
172
         1
173
         1
174
         0
175
         0
176
         0
177
         0
178
         0
270
         2
271
         2
272
         2
273
         2
274
         4
275
         0
280
         0
281
         0
282
         0
283
         0
284
         0
285
         0
286
         0
287
         3
288
         0
340
17
  0
ENDTAB
  0
TABLE
  2
BLOCK_RECORD
  5
1
100
AcDbSymbolTable
 70
         1
  0
BLOCK_RECORD
  5
A
100
AcDbSymbolTableRecord
100
AcDbBlockTableRecord
  2
*MODEL_SPACE
  0
BLOCK_RECORD
  5
B
100
AcDbSymbolTableRecord
100
AcDbBlockTableRecord
  2
*PAPER_SPACE
  0
BLOCK_RECORD
  5
1F
100
AcDbSymbolTableRecord
100
AcDbBlockTableRecord
  2
_OPEN30
  0
ENDTAB
  0
ENDSEC
  0
SECTION
  2
BLOCKS
  0
BLOCK
  5
D
100
AcDbEntity
  8
0
100
AcDbBlockBegin
  2
*MODEL_SPACE
 70
         0
 10
0.0
 20
0.0
 30
0.0
  3
*MODEL_SPACE
  1

  0
ENDBLK
  5
E
100
AcDbEntity
  8
0
100
AcDbBlockEnd
  0
BLOCK
  5
F
100
AcDbEntity
 67
         1
  8
0
100
AcDbBlockBegin
  2
*PAPER_SPACE
 70
         0
 10
0.0
 20
0.0
 30
0.0
  3
*PAPER_SPACE
  1

  0
ENDBLK
  5
10
100
AcDbEntity
 67
         1
  8
0
100
AcDbBlockEnd
  0
BLOCK
  5
20
100
AcDbEntity
  8
0
  6
ByBlock
 62
         0
100
AcDbBlockBegin
  2
_OPEN30
 70
         2
 10
0.0
 20
0.0
 30
0.0
  3
_OPEN30
  1

  0
LINE
  5
21
100
AcDbEntity
  8
0
  6
ByBlock
 62
         0
100
AcDbLine
 10
-1.0
 20
0.267949
 30
0.0
 11
0.0
 21
0.0
 31
0.0
  0
LINE
  5
22
100
AcDbEntity
  8
0
  6
ByBlock
 62
         0
100
AcDbLine
 10
0.0
 20
0.0
 30
0.0
 11
-1.0
 21
-0.267949
 31
0.0
  0
LINE
  5
23
100
AcDbEntity
  8
0
  6
ByBlock
 62
         0
100
AcDbLine
 10
0.0
 20
0.0
 30
0.0
 11
-1.0
 21
0.0
 31
0.0
  0
ENDBLK
  5
24
100
AcDbEntity
  8
0
  6
ByBlock
 62
         0
100
AcDbBlockEnd
  0
ENDSEC
  0
SECTION
  2
ENTITIES
  0
MTEXT
  5
25
100
AcDbEntity
  8
LY_3
  6
CONTINUOUS
 62
       110
100
AcDbMText
 10
-69.651050963
 20
65.3568028659
 30
0.0
 40
13.1499996185
 41
0.0
 71
         1
 72
         1
  1
\W1.050;\A1;TSUBAKI
  0
MTEXT
  5
26
100
AcDbEntity
  8
LY_3
  6
CONTINUOUS
 62
       110
100
AcDbMText
 10
-68.9359830491
 20
38.1853390596
 30
0.0
 40
13.0
 41
0.0
 71
         1
 72
         1
  1
\W1.089;\A1;DISC COUPLING
  0
POINT
  5
27
100
AcDbEntity
  8
LY_3
  6
CONTINUOUS
 62
        20
100
AcDbPoint
 10
315.093994
 20
-254.788864
 30
0.0
  0
MTEXT
  5
28
100
AcDbEntity
  8
LY_3
  6
CONTINUOUS
 62
         7
100
AcDbMText
 10
0.8552429911
 20
14.185338702
 30
0.0
 40
15.0
 41
0.0
 71
         1
 72
         1
  1
\W1.061;\A1;NEH 41W
  0
LINE
  5
29
100
AcDbEntity
  8
LY_3
  6
CONTINUOUS
 62
       251
100
AcDbLine
 10
453.814941
 20
-277.788887
 30
0.0
 11
480.372925
 21
-277.788887
 31
0.0
  0
LINE
  5
2A
100
AcDbEntity
  8
LY_3
  6
CONTINUOUS
 62
       251
100
AcDbLine
 10
453.814941
 20
-231.788986
 30
0.0
 11
480.372925
 21
-231.788986
 31
0.0
  0
CIRCLE
  5
2B
100
AcDbEntity
  8
LY_3
  6
CONTINUOUS
 62
       251
100
AcDbCircle
 10
315.094116
 20
-254.788864
 30
0.0
 40
187.5
  0
CIRCLE
  5
2C
100
AcDbEntity
  8
LY_3
  6
CONTINUOUS
 62
       251
100
AcDbCircle
 10
207.094055
 20
-254.788864
 30
0.0
 40
4.349998
  0
CIRCLE
  5
2D
100
AcDbEntity
  8
LY_3
  6
CONTINUOUS
 62
       251
100
AcDbCircle
 10
423.094055
 20
-254.788864
 30
0.0
 40
4.349998
  0
ARC
  5
2E
100
AcDbEntity
  8
LY_3
  6
CONTINUOUS
 62
       251
100
AcDbCircle
 10
-320.405884
 20
-122.788925
 30
0.0
 40
2.0
100
AcDbArc
 50
270.000018
 51
359.999964
  0
ARC
  5
2F
100
AcDbEntity
  8
LY_3
  6
CONTINUOUS
 62
       251
100
AcDbCircle
 10
-320.405823
 20
-82.788925
 30
0.0
 40
2.0
100
AcDbArc
 50
359.999964
 51
89.999982
  0
ARC
  5
30
100
AcDbEntity
  8
LY_3
  6
CONTINUOUS
 62
       251
100
AcDbCircle
 10
-244.405884
 20
-82.788864
 30
0.0
 40
2.0
100
AcDbArc
 50
89.999982
 51
179.999964
  0
ARC
  5
31
100
AcDbEntity
  8
LY_3
  6
CONTINUOUS
 62
       251
100
AcDbCircle
 10
-244.405884
 20
-122.788864
 30
0.0
 40
2.0
100
AcDbArc
 50
179.999964
 51
270.000001
  0
ARC
  5
32
100
AcDbEntity
  8
LY_3
  6
CONTINUOUS
 62
       251
100
AcDbCircle
 10
-227.169189
 20
-81.648788
 30
0.0
 40
16.25943
100
AcDbArc
 50
176.968344
 51
208.912483
  0
ARC
  5
33
100
AcDbEntity
  8
LY_3
  6
CONTINUOUS
 62
       251
100
AcDbCircle
 10
-227.16864
 20
-123.929001
 30
0.0
 40
16.259979
100
AcDbArc
 50
151.087609
 51
183.031311
  0
ARC
  5
34
100
AcDbEntity
  8
LY_3
  6
CONTINUOUS
 62
       251
100
AcDbCircle
 10
-198.405945
 20
-102.788864
 30
0.0
 40
45.0
100
AcDbArc
 50
162.83701
 51
197.162918
  0
ARC
  5
35
100
AcDbEntity
  8
LY_3
  6
CONTINUOUS
 62
       251
100
AcDbCircle
 10
-317.405884
 20
-426.788925
 30
0.0
 40
2.0
100
AcDbArc
 50
270.000018
 51
359.999964
  0
ARC
  5
36
100
AcDbEntity
  8
LY_3
  6
CONTINUOUS
 62
       251
100
AcDbCircle
 10
-317.405823
 20
-386.788925
 30
0.0
 40
2.0
100
AcDbArc
 50
359.999964
 51
89.999982
  0
ARC
  5
37
100
AcDbEntity
  8
LY_3
  6
CONTINUOUS
 62
       251
100
AcDbCircle
 10
-247.405884
 20
-386.788864
 30
0.0
 40
2.0
100
AcDbArc
 50
89.999982
 51
179.999964
  0
ARC
  5
38
100
AcDbEntity
  8
LY_3
  6
CONTINUOUS
 62
       251
100
AcDbCircle
 10
-247.405884
 20
-426.788864
 30
0.0
 40
2.0
100
AcDbArc
 50
179.999964
 51
270.000001
  0
CIRCLE
  5
39
100
AcDbEntity
  8
LY_3
  6
CONTINUOUS
 62
       251
100
AcDbCircle
 10
207.613831
 20
-362.269028
 30
0.0
 40
29.0
  0
CIRCLE
  5
3A
100
AcDbEntity
  8
LY_3
  6
CONTINUOUS
 62
       251
100
AcDbCircle
 10
207.613831
 20
-147.308701
 30
0.0
 40
29.0
  0
CIRCLE
  5
3B
100
AcDbEntity
  8
LY_3
  6
CONTINUOUS
 62
       251
100
AcDbCircle
 10
422.57428
 20
-147.30864
 30
0.0
 40
29.0
  0
CIRCLE
  5
3C
100
AcDbEntity
  8
LY_3
  6
CONTINUOUS
 62
       251
100
AcDbCircle
 10
422.57428
 20
-362.269089
 30
0.0
 40
29.0
  0
CIRCLE
  5
3D
100
AcDbEntity
  8
LY_3
  6
CONTINUOUS
 62
       251
100
AcDbCircle
 10
207.613831
 20
-362.269028
 30
0.0
 40
30.0
  0
CIRCLE
  5
3E
100
AcDbEntity
  8
LY_3
  6
CONTINUOUS
 62
       251
100
AcDbCircle
 10
207.613831
 20
-147.308701
 30
0.0
 40
30.0
  0
CIRCLE
  5
3F
100
AcDbEntity
  8
LY_3
  6
CONTINUOUS
 62
       251
100
AcDbCircle
 10
422.57428
 20
-147.30864
 30
0.0
 40
30.0
  0
CIRCLE
  5
40
100
AcDbEntity
  8
LY_3
  6
CONTINUOUS
 62
       251
100
AcDbCircle
 10
422.57428
 20
-362.269089
 30
0.0
 40
30.0
  0
CIRCLE
  5
41
100
AcDbEntity
  8
LY_3
  6
CONTINUOUS
 62
       251
100
AcDbCircle
 10
315.094116
 20
-254.788864
 30
0.0
 40
120.0
  0
ARC
  5
42
100
AcDbEntity
  8
LY_3
  6
CONTINUOUS
 62
       251
100
AcDbCircle
 10
-370.205811
 20
-127.788925
 30
0.0
 40
4.999996
100
AcDbArc
 50
180.000036
 51
216.870381
  0
ARC
  5
43
100
AcDbEntity
  8
LY_3
  6
CONTINUOUS
 62
       251
100
AcDbCircle
 10
-394.605774
 20
-127.788925
 30
0.0
 40
4.999996
100
AcDbArc
 50
323.129567
 51
359.999909
  0
ARC
  5
44
100
AcDbEntity
  8
LY_3
  6
CONTINUOUS
 62
       251
100
AcDbCircle
 10
-370.205811
 20
-77.788986
 30
0.0
 40
4.999996
100
AcDbArc
 50
143.129619
 51
179.999964
  0
ARC
  5
45
100
AcDbEntity
  8
LY_3
  6
CONTINUOUS
 62
       251
100
AcDbCircle
 10
-394.605774
 20
-77.788986
 30
0.0
 40
4.999996
100
AcDbArc
 50
0.000036
 51
36.870379
  0
ARC
  5
46
100
AcDbEntity
  8
LY_3
  6
CONTINUOUS
 62
       251
100
AcDbCircle
 10
-394.605774
 20
-381.788742
 30
0.0
 40
4.999996
100
AcDbArc
 50
0.000036
 51
36.870379
  0
ARC
  5
47
100
AcDbEntity
  8
LY_3
  6
CONTINUOUS
 62
       251
100
AcDbCircle
 10
-370.205811
 20
-381.788742
 30
0.0
 40
4.999996
100
AcDbArc
 50
143.129565
 51
179.999909
  0
ARC
  5
48
100
AcDbEntity
  8
LY_3
  6
CONTINUOUS
 62
       251
100
AcDbCircle
 10
-394.605774
 20
-431.788681
 30
0.0
 40
4.999996
100
AcDbArc
 50
323.129621
 51
359.999964
  0
ARC
  5
49
100
AcDbEntity
  8
LY_3
  6
CONTINUOUS
 62
       251
100
AcDbCircle
 10
-370.205811
 20
-431.788681
 30
0.0
 40
4.999996
100
AcDbArc
 50
180.000036
 51
216.870381
  0
ARC
  5
4A
100
AcDbEntity
  8
LY_3
  6
CONTINUOUS
 62
       251
100
AcDbCircle
 10
-194.605896
 20
-127.788925
 30
0.0
 40
4.999996
100
AcDbArc
 50
323.129625
 51
359.999964
  0
ARC
  5
4B
100
AcDbEntity
  8
LY_3
  6
CONTINUOUS
 62
       251
100
AcDbCircle
 10
-170.205933
 20
-127.788925
 30
0.0
 40
4.999996
100
AcDbArc
 50
180.000091
 51
216.870435
  0
ARC
  5
4C
100
AcDbEntity
  8
LY_3
  6
CONTINUOUS
 62
       251
100
AcDbCircle
 10
-194.605896
 20
-77.788986
 30
0.0
 40
4.999996
100
AcDbArc
 50
0.000036
 51
36.870379
  0
ARC
  5
4D
100
AcDbEntity
  8
LY_3
  6
CONTINUOUS
 62
       251
100
AcDbCircle
 10
-170.205933
 20
-77.788986
 30
0.0
 40
4.999996
100
AcDbArc
 50
143.129619
 51
179.999964
  0
ARC
  5
4E
100
AcDbEntity
  8
LY_3
  6
CONTINUOUS
 62
       251
100
AcDbCircle
 10
-170.205933
 20
-381.788742
 30
0.0
 40
4.999996
100
AcDbArc
 50
143.129619
 51
179.999964
  0
ARC
  5
4F
100
AcDbEntity
  8
LY_3
  6
CONTINUOUS
 62
       251
100
AcDbCircle
 10
-194.605896
 20
-381.788742
 30
0.0
 40
4.999996
100
AcDbArc
 50
0.000091
 51
36.870433
  0
ARC
  5
50
100
AcDbEntity
  8
LY_3
  6
CONTINUOUS
 62
       251
100
AcDbCircle
 10
-170.205933
 20
-431.788681
 30
0.0
 40
4.999996
100
AcDbArc
 50
180.000036
 51
216.870381
  0
ARC
  5
51
100
AcDbEntity
  8
LY_3
  6
CONTINUOUS
 62
       251
100
AcDbCircle
 10
-194.605896
 20
-431.788681
 30
0.0
 40
4.999996
100
AcDbArc
 50
323.129621
 51
359.999964
  0
ARC
  5
52
100
AcDbEntity
  8
LY_3
  6
CONTINUOUS
 62
       251
100
AcDbCircle
 10
-224.405884
 20
-137.788864
 30
0.0
 40
2.0
100
AcDbArc
 50
270.000018
 51
0.0
  0
LINE
  5
53
100
AcDbEntity
  8
LY_3
  6
CONTINUOUS
 62
       251
100
AcDbLine
 10
-194.405884
 20
-125.288935
 30
0.0
 11
-191.905874
 21
-122.788925
 31
0.0
  0
LINE
  5
54
100
AcDbEntity
  8
LY_3
  6
CONTINUOUS
 62
       251
100
AcDbLine
 10
-192.674194
 20
-122.788925
 30
0.0
 11
-190.159243
 21
-120.273973
 31
0.0
  0
LINE
  5
55
100
AcDbEntity
  8
LY_3
  6
CONTINUOUS
 62
       251
100
AcDbLine
 10
-142.405884
 20
-380.231003
 30
0.0
 11
-142.405884
 21
-374.788864
 31
0.0
  0
LINE
  5
56
100
AcDbEntity
  8
LY_3
  6
CONTINUOUS
 62
       251
100
AcDbLine
 10
-422.405884
 20
-433.346603
 30
0.0
 11
-422.405884
 21
-442.288864
 31
0.0
  0
LINE
  5
57
100
AcDbEntity
  8
LY_3
  6
CONTINUOUS
 62
       251
100
AcDbLine
 10
-315.405765
 20
-421.788794
 30
0.0
 11
-313.405948
 21
-421.788794
 31
0.0
  0
LINE
  5
58
100
AcDbEntity
  8
LY_3
  6
CONTINUOUS
 62
       251
100
AcDbLine
 10
-315.405762
 20
-419.894333
 30
0.0
 11
-311.511475
 21
-419.894333
 31
0.0
  0
LINE
  5
59
100
AcDbEntity
  8
LY_3
  6
CONTINUOUS
 62
       251
100
AcDbLine
 10
-315.405762
 20
-393.683334
 30
0.0
 11
-311.511475
 21
-393.683334
 31
0.0
  0
LINE
  5
5A
100
AcDbEntity
  8
LY_3
  6
CONTINUOUS
 62
       251
100
AcDbLine
 10
-342.405698
 20
-391.788813
 30
0.0
 11
-346.405881
 21
-391.788813
 31
0.0
  0
LINE
  5
5B
100
AcDbEntity
  8
LY_3
  6
CONTINUOUS
 62
       251
100
AcDbLine
 10
-222.405758
 20
-421.788808
 30
0.0
 11
-218.405697
 21
-421.788808
 31
0.0
  0
LINE
  5
5C
100
AcDbEntity
  8
LY_3
  6
CONTINUOUS
 62
       251
100
AcDbLine
 10
-249.405884
 20
-419.894333
 30
0.0
 11
-253.300232
 21
-419.894333
 31
0.0
  0
LINE
  5
5D
100
AcDbEntity
  8
LY_3
  6
CONTINUOUS
 62
       251
100
AcDbLine
 10
-249.405884
 20
-393.683334
 30
0.0
 11
-253.300232
 21
-393.683334
 31
0.0
  0
LINE
  5
5E
100
AcDbEntity
  8
LY_3
  6
CONTINUOUS
 62
       251
100
AcDbLine
 10
-249.405825
 20
-391.788858
 30
0.0
 11
-251.405703
 21
-391.788858
 31
0.0
  0
LINE
  5
5F
100
AcDbEntity
  8
LY_3
  6
CONTINUOUS
 62
       251
100
AcDbLine
 10
-222.405884
 20
-129.346848
 30
0.0
 11
-222.405884
 21
-137.788864
 31
0.0
  0
LINE
  5
60
100
AcDbEntity
  8
LY_3
  6
CONTINUOUS
 62
       251
100
AcDbLine
 10
-246.405813
 20
-87.78898
 30
0.0
 11
-248.405691
 21
-87.78898
 31
0.0
  0
LINE
  5
61
100
AcDbEntity
  8
LY_3
  6
CONTINUOUS
 62
       251
100
AcDbLine
 10
-246.405884
 20
-89.683395
 30
0.0
 11
-250.300232
 21
-89.683395
 31
0.0
  0
LINE
  5
62
100
AcDbEntity
  8
LY_3
  6
CONTINUOUS
 62
       251
100
AcDbLine
 10
-246.405884
 20
-115.894394
 30
0.0
 11
-250.300232
 21
-115.894394
 31
0.0
  0
LINE
  5
63
100
AcDbEntity
  8
LY_3
  6
CONTINUOUS
 62
       251
100
AcDbLine
 10
-219.405771
 20
-117.78893
 30
0.0
 11
-215.40571
 21
-117.78893
 31
0.0
  0
LINE
  5
64
100
AcDbEntity
  8
LY_3
  6
CONTINUOUS
 62
       251
100
AcDbLine
 10
-342.405884
 20
-76.231003
 30
0.0
 11
-342.405884
 21
-67.288864
 31
0.0
  0
LINE
  5
65
100
AcDbEntity
  8
LY_3
  6
CONTINUOUS
 62
       251
100
AcDbLine
 10
-345.405772
 20
-87.788996
 30
0.0
 11
-349.405833
 21
-87.788996
 31
0.0
  0
LINE
  5
66
100
AcDbEntity
  8
LY_3
  6
CONTINUOUS
 62
       251
100
AcDbLine
 10
-318.405823
 20
-89.683395
 30
0.0
 11
-314.511475
 21
-89.683395
 31
0.0
  0
LINE
  5
67
100
AcDbEntity
  8
LY_3
  6
CONTINUOUS
 62
       251
100
AcDbLine
 10
-318.405823
 20
-115.894394
 30
0.0
 11
-314.511475
 21
-115.894394
 31
0.0
  0
LINE
  5
68
100
AcDbEntity
  8
LY_3
  6
CONTINUOUS
 62
       251
100
AcDbLine
 10
-318.405814
 20
-117.788977
 30
0.0
 11
-316.405936
 21
-117.788977
 31
0.0
  0
LINE
  5
69
100
AcDbEntity
  8
LY_3
  6
CONTINUOUS
 62
       251
100
AcDbLine
 10
-320.405884
 20
-80.788986
 30
0.0
 11
-321.405884
 21
-80.788986
 31
0.0
  0
LINE
  5
6A
100
AcDbEntity
  8
LY_3
  6
CONTINUOUS
 62
       251
100
AcDbLine
 10
-320.405884
 20
-124.788925
 30
0.0
 11
-321.405884
 21
-124.788925
 31
0.0
  0
LINE
  5
6B
100
AcDbEntity
  8
LY_3
  6
CONTINUOUS
 62
       251
100
AcDbLine
 10
-318.405884
 20
-82.788986
 30
0.0
 11
-318.405884
 21
-122.788925
 31
0.0
  0
LINE
  5
6C
100
AcDbEntity
  8
LY_3
  6
CONTINUOUS
 62
       251
100
AcDbLine
 10
-321.405884
 20
-76.231003
 30
0.0
 11
-321.405884
 21
-129.347031
 31
0.0
  0
LINE
  5
6D
100
AcDbEntity
  8
LY_3
  6
CONTINUOUS
 62
       251
100
AcDbLine
 10
-321.405884
 20
-129.347031
 30
0.0
 11
-345.405884
 21
-129.347031
 31
0.0
  0
LINE
  5
6E
100
AcDbEntity
  8
LY_3
  6
CONTINUOUS
 62
       251
100
AcDbLine
 10
-321.405884
 20
-116.068039
 30
0.0
 11
-345.405884
 21
-116.068039
 31
0.0
  0
LINE
  5
6F
100
AcDbEntity
  8
LY_3
  6
CONTINUOUS
 62
       251
100
AcDbLine
 10
-321.405884
 20
-89.510056
 30
0.0
 11
-345.405884
 21
-89.510056
 31
0.0
  0
LINE
  5
70
100
AcDbEntity
  8
LY_3
  6
CONTINUOUS
 62
       251
100
AcDbLine
 10
-321.405884
 20
-76.231003
 30
0.0
 11
-345.405884
 21
-76.231003
 31
0.0
  0
LINE
  5
71
100
AcDbEntity
  8
LY_3
  6
CONTINUOUS
 62
       251
100
AcDbLine
 10
-244.405884
 20
-124.788864
 30
0.0
 11
-243.405884
 21
-124.788864
 31
0.0
  0
LINE
  5
72
100
AcDbEntity
  8
LY_3
  6
CONTINUOUS
 62
       251
100
AcDbLine
 10
-244.405884
 20
-80.788864
 30
0.0
 11
-243.405884
 21
-80.788864
 31
0.0
  0
LINE
  5
73
100
AcDbEntity
  8
LY_3
  6
CONTINUOUS
 62
       251
100
AcDbLine
 10
-246.405884
 20
-122.788864
 30
0.0
 11
-246.405884
 21
-82.788864
 31
0.0
  0
LINE
  5
74
100
AcDbEntity
  8
LY_3
  6
CONTINUOUS
 62
       251
100
AcDbLine
 10
-243.4058
 20
-80.788988
 30
0.0
 11
-240.774178
 21
-76.230885
 31
0.0
  0
LINE
  5
75
100
AcDbEntity
  8
LY_3
  6
CONTINUOUS
 62
       251
100
AcDbLine
 10
-243.405815
 20
-124.788939
 30
0.0
 11
-240.774284
 21
-129.346884
 31
0.0
  0
LINE
  5
76
100
AcDbEntity
  8
LY_3
  6
CONTINUOUS
 62
       251
100
AcDbLine
 10
-219.405884
 20
-129.346848
 30
0.0
 11
-219.405884
 21
-76.230759
 31
0.0
  0
LINE
  5
77
100
AcDbEntity
  8
LY_3
  6
CONTINUOUS
 62
       251
100
AcDbLine
 10
-243.405884
 20
-124.788864
 30
0.0
 11
-243.405884
 21
-80.788864
 31
0.0
  0
LINE
  5
78
100
AcDbEntity
  8
LY_3
  6
CONTINUOUS
 62
       251
100
AcDbLine
 10
-240.774231
 20
-76.230759
 30
0.0
 11
-219.405884
 21
-76.230759
 31
0.0
  0
LINE
  5
79
100
AcDbEntity
  8
LY_3
  6
CONTINUOUS
 62
       251
100
AcDbLine
 10
-241.402039
 20
-89.509811
 30
0.0
 11
-219.405884
 21
-89.509811
 31
0.0
  0
LINE
  5
7A
100
AcDbEntity
  8
LY_3
  6
CONTINUOUS
 62
       251
100
AcDbLine
 10
-241.402039
 20
-116.067795
 30
0.0
 11
-219.405884
 21
-116.067795
 31
0.0
  0
LINE
  5
7B
100
AcDbEntity
  8
LY_3
  6
CONTINUOUS
 62
       251
100
AcDbLine
 10
-240.774353
 20
-129.346848
 30
0.0
 11
-219.405884
 21
-129.346848
 31
0.0
  0
LINE
  5
7C
100
AcDbEntity
  8
LY_3
  6
CONTINUOUS
 62
       251
100
AcDbLine
 10
-317.405823
 20
-384.788986
 30
0.0
 11
-318.405823
 21
-384.788986
 31
0.0
  0
LINE
  5
7D
100
AcDbEntity
  8
LY_3
  6
CONTINUOUS
 62
       251
100
AcDbLine
 10
-317.405823
 20
-428.788925
 30
0.0
 11
-318.405823
 21
-428.788925
 31
0.0
  0
LINE
  5
7E
100
AcDbEntity
  8
LY_3
  6
CONTINUOUS
 62
       251
100
AcDbLine
 10
-315.405823
 20
-386.788986
 30
0.0
 11
-315.405823
 21
-426.788925
 31
0.0
  0
LINE
  5
7F
100
AcDbEntity
  8
LY_3
  6
CONTINUOUS
 62
       251
100
AcDbLine
 10
-342.405823
 20
-380.231003
 30
0.0
 11
-342.405823
 21
-433.347031
 31
0.0
  0
LINE
  5
80
100
AcDbEntity
  8
LY_3
  6
CONTINUOUS
 62
       251
100
AcDbLine
 10
-318.405823
 20
-380.231003
 30
0.0
 11
-318.405823
 21
-433.347031
 31
0.0
  0
LINE
  5
81
100
AcDbEntity
  8
LY_3
  6
CONTINUOUS
 62
       251
100
AcDbLine
 10
-318.405823
 20
-433.347031
 30
0.0
 11
-342.405823
 21
-433.347031
 31
0.0
  0
LINE
  5
82
100
AcDbEntity
  8
LY_3
  6
CONTINUOUS
 62
       251
100
AcDbLine
 10
-318.405823
 20
-420.068039
 30
0.0
 11
-342.405823
 21
-420.068039
 31
0.0
  0
LINE
  5
83
100
AcDbEntity
  8
LY_3
  6
CONTINUOUS
 62
       251
100
AcDbLine
 10
-318.405823
 20
-393.510056
 30
0.0
 11
-342.405823
 21
-393.510056
 31
0.0
  0
LINE
  5
84
100
AcDbEntity
  8
LY_3
  6
CONTINUOUS
 62
       251
100
AcDbLine
 10
-318.405823
 20
-380.231003
 30
0.0
 11
-342.405823
 21
-380.231003
 31
0.0
  0
LINE
  5
85
100
AcDbEntity
  8
LY_3
  6
CONTINUOUS
 62
       251
100
AcDbLine
 10
-247.405884
 20
-428.788864
 30
0.0
 11
-246.405884
 21
-428.788864
 31
0.0
  0
LINE
  5
86
100
AcDbEntity
  8
LY_3
  6
CONTINUOUS
 62
       251
100
AcDbLine
 10
-247.405884
 20
-384.788864
 30
0.0
 11
-246.405884
 21
-384.788864
 31
0.0
  0
LINE
  5
87
100
AcDbEntity
  8
LY_3
  6
CONTINUOUS
 62
       251
100
AcDbLine
 10
-249.405884
 20
-426.788864
 30
0.0
 11
-249.405884
 21
-386.788864
 31
0.0
  0
LINE
  5
88
100
AcDbEntity
  8
LY_3
  6
CONTINUOUS
 62
       251
100
AcDbLine
 10
-246.405884
 20
-433.346848
 30
0.0
 11
-246.405884
 21
-380.230759
 31
0.0
  0
LINE
  5
89
100
AcDbEntity
  8
LY_3
  6
CONTINUOUS
 62
       251
100
AcDbLine
 10
-246.405884
 20
-380.230759
 30
0.0
 11
-222.405884
 21
-380.230759
 31
0.0
  0
LINE
  5
8A
100
AcDbEntity
  8
LY_3
  6
CONTINUOUS
 62
       251
100
AcDbLine
 10
-246.405884
 20
-393.509811
 30
0.0
 11
-222.405884
 21
-393.509811
 31
0.0
  0
LINE
  5
8B
100
AcDbEntity
  8
LY_3
  6
CONTINUOUS
 62
       251
100
AcDbLine
 10
-246.405884
 20
-420.067795
 30
0.0
 11
-222.405884
 21
-420.067795
 31
0.0
  0
LINE
  5
8C
100
AcDbEntity
  8
LY_3
  6
CONTINUOUS
 62
       251
100
AcDbLine
 10
-246.405884
 20
-433.346848
 30
0.0
 11
-222.405884
 21
-433.346848
 31
0.0
  0
LINE
  5
8D
100
AcDbEntity
  8
LY_3
  6
CONTINUOUS
 62
       251
100
AcDbLine
 10
-349.405945
 20
-89.683395
 30
0.0
 11
-345.405823
 21
-89.683395
 31
0.0
  0
LINE
  5
8E
100
AcDbEntity
  8
LY_3
  6
CONTINUOUS
 62
       251
100
AcDbLine
 10
-349.405945
 20
-115.894394
 30
0.0
 11
-345.405823
 21
-115.894394
 31
0.0
  0
LINE
  5
8F
100
AcDbEntity
  8
LY_3
  6
CONTINUOUS
 62
       251
100
AcDbLine
 10
-422.405823
 20
-120.038864
 30
0.0
 11
-419.405823
 21
-120.038864
 31
0.0
  0
LINE
  5
90
100
AcDbEntity
  8
LY_3
  6
CONTINUOUS
 62
       251
100
AcDbLine
 10
-422.405823
 20
-85.538925
 30
0.0
 11
-419.405823
 21
-85.538925
 31
0.0
  0
LINE
  5
91
100
AcDbEntity
  8
LY_3
  6
CONTINUOUS
 62
       251
100
AcDbLine
 10
-422.405833
 20
-76.230986
 30
0.0
 11
-422.405856
 21
-129.34677
 31
0.0
  0
LINE
  5
92
100
AcDbEntity
  8
LY_3
  6
CONTINUOUS
 62
       251
100
AcDbLine
 10
-350.905884
 20
-85.303879
 30
0.0
 11
-350.905884
 21
-120.273911
 31
0.0
  0
LINE
  5
93
100
AcDbEntity
  8
LY_3
  6
CONTINUOUS
 62
       251
100
AcDbLine
 10
-316.406006
 20
-87.788925
 30
0.0
 11
-316.406006
 21
-117.788864
 31
0.0
  0
LINE
  5
94
100
AcDbEntity
  8
LY_3
  6
CONTINUOUS
 62
       251
100
AcDbLine
 10
-349.405911
 20
-86.803913
 30
0.0
 11
-350.905879
 21
-85.303943
 31
0.0
  0
LINE
  5
95
100
AcDbEntity
  8
LY_3
  6
CONTINUOUS
 62
       251
100
AcDbLine
 10
-349.405897
 20
-118.773913
 30
0.0
 11
-350.905898
 21
-120.273916
 31
0.0
  0
LINE
  5
96
100
AcDbEntity
  8
LY_3
  6
CONTINUOUS
 62
       251
100
AcDbLine
 10
-314.405938
 20
-115.788906
 30
0.0
 11
-316.405941
 21
-117.788908
 31
0.0
  0
LINE
  5
97
100
AcDbEntity
  8
LY_3
  6
CONTINUOUS
 62
       251
100
AcDbLine
 10
-314.405965
 20
-89.788935
 30
0.0
 11
-316.405968
 21
-87.788933
 31
0.0
  0
LINE
  5
98
100
AcDbEntity
  8
LY_3
  6
CONTINUOUS
 62
       251
100
AcDbLine
 10
-316.405894
 20
-87.788995
 30
0.0
 11
-318.405772
 21
-87.788995
 31
0.0
  0
LINE
  5
99
100
AcDbEntity
  8
LY_3
  6
CONTINUOUS
 62
       251
100
AcDbLine
 10
-314.406006
 20
-115.788864
 30
0.0
 11
-314.406006
 21
-89.788925
 31
0.0
  0
LINE
  5
9A
100
AcDbEntity
  8
LY_3
  6
CONTINUOUS
 62
       251
100
AcDbLine
 10
-349.405936
 20
-117.788976
 30
0.0
 11
-345.405814
 21
-117.788976
 31
0.0
  0
LINE
  5
9B
100
AcDbEntity
  8
LY_3
  6
CONTINUOUS
 62
       251
100
AcDbLine
 10
-350.905879
 20
-120.273966
 30
0.0
 11
-419.405818
 21
-120.273965
 31
0.0
  0
LINE
  5
9C
100
AcDbEntity
  8
LY_3
  6
CONTINUOUS
 62
       251
100
AcDbLine
 10
-349.405945
 20
-86.803879
 30
0.0
 11
-349.405945
 21
-118.773911
 31
0.0
  0
LINE
  5
9D
100
AcDbEntity
  8
LY_3
  6
CONTINUOUS
 62
       251
100
AcDbLine
 10
-419.405767
 20
-85.303946
 30
0.0
 11
-350.905828
 21
-85.303945
 31
0.0
  0
LINE
  5
9E
100
AcDbEntity
  8
LY_3
  6
CONTINUOUS
 62
       251
100
AcDbLine
 10
-419.405823
 20
-120.273911
 30
0.0
 11
-419.405823
 21
-85.303879
 31
0.0
  0
LINE
  5
9F
100
AcDbEntity
  8
LY_3
  6
CONTINUOUS
 62
       251
100
AcDbLine
 10
-441.405823
 20
-129.346725
 30
0.0
 11
-441.405823
 21
-76.23082
 31
0.0
  0
LINE
  5
A0
100
AcDbEntity
  8
LY_3
  6
CONTINUOUS
 62
       251
100
AcDbLine
 10
-441.405823
 20
-76.23082
 30
0.0
 11
-422.405884
 21
-76.23082
 31
0.0
  0
LINE
  5
A1
100
AcDbEntity
  8
LY_3
  6
CONTINUOUS
 62
       251
100
AcDbLine
 10
-441.405823
 20
-89.509811
 30
0.0
 11
-422.405884
 21
-89.509811
 31
0.0
  0
LINE
  5
A2
100
AcDbEntity
  8
LY_3
  6
CONTINUOUS
 62
       251
100
AcDbLine
 10
-441.405823
 20
-116.067795
 30
0.0
 11
-422.405884
 21
-116.067795
 31
0.0
  0
LINE
  5
A3
100
AcDbEntity
  8
LY_3
  6
CONTINUOUS
 62
       251
100
AcDbLine
 10
-441.405823
 20
-129.346725
 30
0.0
 11
-422.405884
 21
-129.346725
 31
0.0
  0
LINE
  5
A4
100
AcDbEntity
  8
LY_3
  6
CONTINUOUS
 62
       251
100
AcDbLine
 10
-370.405884
 20
-120.288864
 30
0.0
 11
-370.405884
 21
-389.288864
 31
0.0
  0
LINE
  5
A5
100
AcDbEntity
  8
LY_3
  6
CONTINUOUS
 62
       251
100
AcDbLine
 10
-394.405884
 20
-85.288986
 30
0.0
 11
-394.405884
 21
-67.288864
 31
0.0
  0
LINE
  5
A6
100
AcDbEntity
  8
LY_3
  6
CONTINUOUS
 62
       251
100
AcDbLine
 10
-346.405945
 20
-393.683334
 30
0.0
 11
-342.405762
 21
-393.683334
 31
0.0
  0
LINE
  5
A7
100
AcDbEntity
  8
LY_3
  6
CONTINUOUS
 62
       251
100
AcDbLine
 10
-346.405945
 20
-419.894333
 30
0.0
 11
-342.405762
 21
-419.894333
 31
0.0
  0
LINE
  5
A8
100
AcDbEntity
  8
LY_3
  6
CONTINUOUS
 62
       251
100
AcDbLine
 10
-419.405823
 20
-424.038803
 30
0.0
 11
-416.405823
 21
-424.038803
 31
0.0
  0
LINE
  5
A9
100
AcDbEntity
  8
LY_3
  6
CONTINUOUS
 62
       251
100
AcDbLine
 10
-419.405823
 20
-389.538864
 30
0.0
 11
-416.405823
 21
-389.538864
 31
0.0
  0
LINE
  5
AA
100
AcDbEntity
  8
LY_3
  6
CONTINUOUS
 62
       251
100
AcDbLine
 10
-419.405781
 20
-380.230804
 30
0.0
 11
-419.405804
 21
-433.346649
 31
0.0
  0
LINE
  5
AB
100
AcDbEntity
  8
LY_3
  6
CONTINUOUS
 62
       251
100
AcDbLine
 10
-347.905884
 20
-389.303818
 30
0.0
 11
-347.905884
 21
-424.273849
 31
0.0
  0
LINE
  5
AC
100
AcDbEntity
  8
LY_3
  6
CONTINUOUS
 62
       251
100
AcDbLine
 10
-313.406006
 20
-391.788864
 30
0.0
 11
-313.406006
 21
-421.788803
 31
0.0
  0
LINE
  5
AD
100
AcDbEntity
  8
LY_3
  6
CONTINUOUS
 62
       251
100
AcDbLine
 10
-346.405832
 20
-390.803862
 30
0.0
 11
-347.905844
 21
-389.303849
 31
0.0
  0
LINE
  5
AE
100
AcDbEntity
  8
LY_3
  6
CONTINUOUS
 62
       251
100
AcDbLine
 10
-346.405889
 20
-422.773892
 30
0.0
 11
-347.905857
 21
-424.273862
 31
0.0
  0
LINE
  5
AF
100
AcDbEntity
  8
LY_3
  6
CONTINUOUS
 62
       251
100
AcDbLine
 10
-311.405949
 20
-419.788811
 30
0.0
 11
-313.405952
 21
-421.788812
 31
0.0
  0
LINE
  5
B0
100
AcDbEntity
  8
LY_3
  6
CONTINUOUS
 62
       251
100
AcDbLine
 10
-311.405938
 20
-393.788857
 30
0.0
 11
-313.405941
 21
-391.788855
 31
0.0
  0
LINE
  5
B1
100
AcDbEntity
  8
LY_3
  6
CONTINUOUS
 62
       251
100
AcDbLine
 10
-313.405881
 20
-391.788812
 30
0.0
 11
-315.405698
 21
-391.788812
 31
0.0
  0
LINE
  5
B2
100
AcDbEntity
  8
LY_3
  6
CONTINUOUS
 62
       251
100
AcDbLine
 10
-311.406006
 20
-419.788803
 30
0.0
 11
-311.406006
 21
-393.788864
 31
0.0
  0
LINE
  5
B3
100
AcDbEntity
  8
LY_3
  6
CONTINUOUS
 62
       251
100
AcDbLine
 10
-346.405887
 20
-421.788793
 30
0.0
 11
-342.405765
 21
-421.788793
 31
0.0
  0
LINE
  5
B4
100
AcDbEntity
  8
LY_3
  6
CONTINUOUS
 62
       251
100
AcDbLine
 10
-347.905886
 20
-424.273844
 30
0.0
 11
-416.405825
 21
-424.273843
 31
0.0
  0
LINE
  5
B5
100
AcDbEntity
  8
LY_3
  6
CONTINUOUS
 62
       251
100
AcDbLine
 10
-346.405945
 20
-390.803818
 30
0.0
 11
-346.405945
 21
-422.773849
 31
0.0
  0
LINE
  5
B6
100
AcDbEntity
  8
LY_3
  6
CONTINUOUS
 62
       251
100
AcDbLine
 10
-416.405761
 20
-389.303824
 30
0.0
 11
-347.905822
 21
-389.303823
 31
0.0
  0
LINE
  5
B7
100
AcDbEntity
  8
LY_3
  6
CONTINUOUS
 62
       251
100
AcDbLine
 10
-416.405823
 20
-424.273849
 30
0.0
 11
-416.405823
 21
-389.303818
 31
0.0
  0
LINE
  5
B8
100
AcDbEntity
  8
LY_3
  6
CONTINUOUS
 62
       251
100
AcDbLine
 10
-438.405823
 20
-433.346664
 30
0.0
 11
-438.405823
 21
-380.230759
 31
0.0
  0
LINE
  5
B9
100
AcDbEntity
  8
LY_3
  6
CONTINUOUS
 62
       251
100
AcDbLine
 10
-438.405823
 20
-380.230759
 30
0.0
 11
-419.405884
 21
-380.230759
 31
0.0
  0
LINE
  5
BA
100
AcDbEntity
  8
LY_3
  6
CONTINUOUS
 62
       251
100
AcDbLine
 10
-438.405823
 20
-393.50975
 30
0.0
 11
-419.405884
 21
-393.50975
 31
0.0
  0
LINE
  5
BB
100
AcDbEntity
  8
LY_3
  6
CONTINUOUS
 62
       251
100
AcDbLine
 10
-438.405823
 20
-420.067734
 30
0.0
 11
-419.405884
 21
-420.067734
 31
0.0
  0
LINE
  5
BC
100
AcDbEntity
  8
LY_3
  6
CONTINUOUS
 62
       251
100
AcDbLine
 10
-438.405823
 20
-433.346664
 30
0.0
 11
-419.405884
 21
-433.346664
 31
0.0
  0
LINE
  5
BD
100
AcDbEntity
  8
LY_3
  6
CONTINUOUS
 62
       251
100
AcDbLine
 10
-394.405884
 20
-389.288864
 30
0.0
 11
-394.405884
 21
-120.288925
 31
0.0
  0
LINE
  5
BE
100
AcDbEntity
  8
LY_3
  6
CONTINUOUS
 62
       251
100
AcDbLine
 10
-370.405884
 20
-424.288864
 30
0.0
 11
-370.405884
 21
-442.288864
 31
0.0
  0
LINE
  5
BF
100
AcDbEntity
  8
LY_3
  6
CONTINUOUS
 62
       251
100
AcDbLine
 10
-218.405762
 20
-419.894333
 30
0.0
 11
-222.405884
 21
-419.894333
 31
0.0
  0
LINE
  5
C0
100
AcDbEntity
  8
LY_3
  6
CONTINUOUS
 62
       251
100
AcDbLine
 10
-218.405762
 20
-393.683334
 30
0.0
 11
-222.405884
 21
-393.683334
 31
0.0
  0
LINE
  5
C1
100
AcDbEntity
  8
LY_3
  6
CONTINUOUS
 62
       251
100
AcDbLine
 10
-145.405884
 20
-389.538864
 30
0.0
 11
-148.405884
 21
-389.538864
 31
0.0
  0
LINE
  5
C2
100
AcDbEntity
  8
LY_3
  6
CONTINUOUS
 62
       251
100
AcDbLine
 10
-145.405884
 20
-424.038803
 30
0.0
 11
-148.405884
 21
-424.038803
 31
0.0
  0
LINE
  5
C3
100
AcDbEntity
  8
LY_3
  6
CONTINUOUS
 62
       251
100
AcDbLine
 10
-145.405888
 20
-433.346828
 30
0.0
 11
-145.405865
 21
-380.230983
 31
0.0
  0
LINE
  5
C4
100
AcDbEntity
  8
LY_3
  6
CONTINUOUS
 62
       251
100
AcDbLine
 10
-216.905823
 20
-424.273849
 30
0.0
 11
-216.905823
 21
-389.303818
 31
0.0
  0
LINE
  5
C5
100
AcDbEntity
  8
LY_3
  6
CONTINUOUS
 62
       251
100
AcDbLine
 10
-251.405701
 20
-421.788803
 30
0.0
 11
-251.405701
 21
-391.788864
 31
0.0
  0
LINE
  5
C6
100
AcDbEntity
  8
LY_3
  6
CONTINUOUS
 62
       251
100
AcDbLine
 10
-218.405748
 20
-422.773799
 30
0.0
 11
-216.905747
 21
-424.273802
 31
0.0
  0
LINE
  5
C7
100
AcDbEntity
  8
LY_3
  6
CONTINUOUS
 62
       251
100
AcDbLine
 10
-218.405767
 20
-390.803831
 30
0.0
 11
-216.905755
 21
-389.303818
 31
0.0
  0
LINE
  5
C8
100
AcDbEntity
  8
LY_3
  6
CONTINUOUS
 62
       251
100
AcDbLine
 10
-253.405661
 20
-393.788848
 30
0.0
 11
-251.405658
 21
-391.788847
 31
0.0
  0
LINE
  5
C9
100
AcDbEntity
  8
LY_3
  6
CONTINUOUS
 62
       251
100
AcDbLine
 10
-253.40569
 20
-419.788779
 30
0.0
 11
-251.405687
 21
-421.788781
 31
0.0
  0
LINE
  5
CA
100
AcDbEntity
  8
LY_3
  6
CONTINUOUS
 62
       251
100
AcDbLine
 10
-251.405636
 20
-421.788809
 30
0.0
 11
-249.405758
 21
-421.788809
 31
0.0
  0
LINE
  5
CB
100
AcDbEntity
  8
LY_3
  6
CONTINUOUS
 62
       251
100
AcDbLine
 10
-253.405701
 20
-393.788864
 30
0.0
 11
-253.405701
 21
-419.788803
 31
0.0
  0
LINE
  5
CC
100
AcDbEntity
  8
LY_3
  6
CONTINUOUS
 62
       251
100
AcDbLine
 10
-218.405764
 20
-391.788859
 30
0.0
 11
-222.405825
 21
-391.788859
 31
0.0
  0
LINE
  5
CD
100
AcDbEntity
  8
LY_3
  6
CONTINUOUS
 62
       251
100
AcDbLine
 10
-216.905824
 20
-389.303815
 30
0.0
 11
-148.4059
 21
-389.303817
 31
0.0
  0
LINE
  5
CE
100
AcDbEntity
  8
LY_3
  6
CONTINUOUS
 62
       251
100
AcDbLine
 10
-218.405762
 20
-422.773849
 30
0.0
 11
-218.405762
 21
-390.803818
 31
0.0
  0
LINE
  5
CF
100
AcDbEntity
  8
LY_3
  6
CONTINUOUS
 62
       251
100
AcDbLine
 10
-148.405897
 20
-424.273789
 30
0.0
 11
-216.90576
 21
-424.273791
 31
0.0
  0
LINE
  5
D0
100
AcDbEntity
  8
LY_3
  6
CONTINUOUS
 62
       251
100
AcDbLine
 10
-148.405884
 20
-389.303818
 30
0.0
 11
-148.405884
 21
-424.273849
 31
0.0
  0
LINE
  5
D1
100
AcDbEntity
  8
LY_3
  6
CONTINUOUS
 62
       251
100
AcDbLine
 10
-126.405914
 20
-380.231064
 30
0.0
 11
-126.405914
 21
-433.346909
 31
0.0
  0
LINE
  5
D2
100
AcDbEntity
  8
LY_3
  6
CONTINUOUS
 62
       251
100
AcDbLine
 10
-126.405914
 20
-433.346909
 30
0.0
 11
-145.405861
 21
-433.346909
 31
0.0
  0
LINE
  5
D3
100
AcDbEntity
  8
LY_3
  6
CONTINUOUS
 62
       251
100
AcDbLine
 10
-126.405914
 20
-420.067917
 30
0.0
 11
-145.405861
 21
-420.067917
 31
0.0
  0
LINE
  5
D4
100
AcDbEntity
  8
LY_3
  6
CONTINUOUS
 62
       251
100
AcDbLine
 10
-126.405914
 20
-393.509933
 30
0.0
 11
-145.405861
 21
-393.509933
 31
0.0
  0
LINE
  5
D5
100
AcDbEntity
  8
LY_3
  6
CONTINUOUS
 62
       251
100
AcDbLine
 10
-126.405914
 20
-380.231064
 30
0.0
 11
-145.405861
 21
-380.231064
 31
0.0
  0
LINE
  5
D6
100
AcDbEntity
  8
LY_3
  6
CONTINUOUS
 62
       251
100
AcDbLine
 10
-170.405884
 20
-424.288864
 30
0.0
 11
-170.405884
 21
-442.288864
 31
0.0
  0
LINE
  5
D7
100
AcDbEntity
  8
LY_3
  6
CONTINUOUS
 62
       251
100
AcDbLine
 10
-194.405884
 20
-389.288864
 30
0.0
 11
-194.405884
 21
-120.288864
 31
0.0
  0
LINE
  5
D8
100
AcDbEntity
  8
LY_3
  6
CONTINUOUS
 62
       251
100
AcDbLine
 10
-215.405762
 20
-115.894394
 30
0.0
 11
-219.405884
 21
-115.894394
 31
0.0
  0
LINE
  5
D9
100
AcDbEntity
  8
LY_3
  6
CONTINUOUS
 62
       251
100
AcDbLine
 10
-215.405762
 20
-89.683395
 30
0.0
 11
-219.405884
 21
-89.683395
 31
0.0
  0
LINE
  5
DA
100
AcDbEntity
  8
LY_3
  6
CONTINUOUS
 62
       251
100
AcDbLine
 10
-142.405884
 20
-85.538925
 30
0.0
 11
-145.405884
 21
-85.538925
 31
0.0
  0
LINE
  5
DB
100
AcDbEntity
  8
LY_3
  6
CONTINUOUS
 62
       251
100
AcDbLine
 10
-142.405884
 20
-120.038864
 30
0.0
 11
-145.405884
 21
-120.038864
 31
0.0
  0
LINE
  5
DC
100
AcDbEntity
  8
LY_3
  6
CONTINUOUS
 62
       251
100
AcDbLine
 10
-142.405887
 20
-129.346952
 30
0.0
 11
-142.405864
 21
-76.231168
 31
0.0
  0
LINE
  5
DD
100
AcDbEntity
  8
LY_3
  6
CONTINUOUS
 62
       251
100
AcDbLine
 10
-213.905823
 20
-120.273911
 30
0.0
 11
-213.905823
 21
-85.303879
 31
0.0
  0
LINE
  5
DE
100
AcDbEntity
  8
LY_3
  6
CONTINUOUS
 62
       251
100
AcDbLine
 10
-248.405701
 20
-117.788864
 30
0.0
 11
-248.405701
 21
-87.788925
 31
0.0
  0
LINE
  5
DF
100
AcDbEntity
  8
LY_3
  6
CONTINUOUS
 62
       251
100
AcDbLine
 10
-215.405791
 20
-118.773942
 30
0.0
 11
-213.905779
 21
-120.273955
 31
0.0
  0
LINE
  5
E0
100
AcDbEntity
  8
LY_3
  6
CONTINUOUS
 62
       251
100
AcDbLine
 10
-215.405853
 20
-86.803976
 30
0.0
 11
-213.905841
 21
-85.303963
 31
0.0
  0
LINE
  5
E1
100
AcDbEntity
  8
LY_3
  6
CONTINUOUS
 62
       251
100
AcDbLine
 10
-250.405737
 20
-89.788996
 30
0.0
 11
-248.405734
 21
-87.788995
 31
0.0
  0
LINE
  5
E2
100
AcDbEntity
  8
LY_3
  6
CONTINUOUS
 62
       251
100
AcDbLine
 10
-250.405713
 20
-115.788895
 30
0.0
 11
-248.40571
 21
-117.788897
 31
0.0
  0
LINE
  5
E3
100
AcDbEntity
  8
LY_3
  6
CONTINUOUS
 62
       251
100
AcDbLine
 10
-248.405649
 20
-117.788931
 30
0.0
 11
-246.405771
 21
-117.788931
 31
0.0
  0
LINE
  5
E4
100
AcDbEntity
  8
LY_3
  6
CONTINUOUS
 62
       251
100
AcDbLine
 10
-250.405701
 20
-89.788925
 30
0.0
 11
-250.405701
 21
-115.788864
 31
0.0
  0
LINE
  5
E5
100
AcDbEntity
  8
LY_3
  6
CONTINUOUS
 62
       251
100
AcDbLine
 10
-215.405752
 20
-87.788982
 30
0.0
 11
-219.405874
 21
-87.788981
 31
0.0
  0
LINE
  5
E6
100
AcDbEntity
  8
LY_3
  6
CONTINUOUS
 62
       251
100
AcDbLine
 10
-213.905818
 20
-85.303999
 30
0.0
 11
-145.405898
 21
-85.304
 31
0.0
  0
LINE
  5
E7
100
AcDbEntity
  8
LY_3
  6
CONTINUOUS
 62
       251
100
AcDbLine
 10
-215.405762
 20
-118.773911
 30
0.0
 11
-215.405762
 21
-86.803879
 31
0.0
  0
LINE
  5
E8
100
AcDbEntity
  8
LY_3
  6
CONTINUOUS
 62
       251
100
AcDbLine
 10
-145.405896
 20
-120.273972
 30
0.0
 11
-213.905766
 21
-120.273974
 31
0.0
  0
LINE
  5
E9
100
AcDbEntity
  8
LY_3
  6
CONTINUOUS
 62
       251
100
AcDbLine
 10
-145.405884
 20
-85.303879
 30
0.0
 11
-145.405884
 21
-120.273911
 31
0.0
  0
LINE
  5
EA
100
AcDbEntity
  8
LY_3
  6
CONTINUOUS
 62
       251
100
AcDbLine
 10
-123.405914
 20
-76.231125
 30
0.0
 11
-123.405914
 21
-129.34697
 31
0.0
  0
LINE
  5
EB
100
AcDbEntity
  8
LY_3
  6
CONTINUOUS
 62
       251
100
AcDbLine
 10
-123.405914
 20
-129.34697
 30
0.0
 11
-142.405861
 21
-129.34697
 31
0.0
  0
LINE
  5
EC
100
AcDbEntity
  8
LY_3
  6
CONTINUOUS
 62
       251
100
AcDbLine
 10
-123.405914
 20
-116.067978
 30
0.0
 11
-142.405861
 21
-116.067978
 31
0.0
  0
LINE
  5
ED
100
AcDbEntity
  8
LY_3
  6
CONTINUOUS
 62
       251
100
AcDbLine
 10
-123.405914
 20
-89.509995
 30
0.0
 11
-142.405861
 21
-89.509995
 31
0.0
  0
LINE
  5
EE
100
AcDbEntity
  8
LY_3
  6
CONTINUOUS
 62
       251
100
AcDbLine
 10
-123.405914
 20
-76.231125
 30
0.0
 11
-142.405861
 21
-76.231125
 31
0.0
  0
LINE
  5
EF
100
AcDbEntity
  8
LY_3
  6
CONTINUOUS
 62
       251
100
AcDbLine
 10
-219.405884
 20
-85.288864
 30
0.0
 11
-219.405884
 21
-74.788986
 31
0.0
  0
LINE
  5
F0
100
AcDbEntity
  8
LY_3
  6
CONTINUOUS
 62
       251
100
AcDbLine
 10
-194.405884
 20
-85.288864
 30
0.0
 11
-194.405884
 21
-68.288925
 31
0.0
  0
LINE
  5
F1
100
AcDbEntity
  8
LY_3
  6
CONTINUOUS
 62
       251
100
AcDbLine
 10
-170.405884
 20
-120.288864
 30
0.0
 11
-170.405884
 21
-389.288864
 31
0.0
  0
LINE
  5
F2
100
AcDbEntity
  8
LY_3
  6
CONTINUOUS
 62
       251
100
AcDbLine
 10
-123.405914
 20
-129.509995
 30
0.0
 11
-142.405861
 21
-129.509995
 31
0.0
  0
LINE
  5
F3
100
AcDbEntity
  8
LY_3
  6
CONTINUOUS
 62
       251
100
AcDbLine
 10
-123.405914
 20
-116.231125
 30
0.0
 11
-142.405861
 21
-116.231125
 31
0.0
  0
LINE
  5
F4
100
AcDbEntity
  8
LY_3
  6
CONTINUOUS
 62
       251
100
AcDbLine
 10
453.814838
 20
-231.789193
 30
0.0
 11
440.535878
 21
-254.789029
 31
0.0
  0
LINE
  5
F5
100
AcDbEntity
  8
LY_3
  6
CONTINUOUS
 62
       251
100
AcDbLine
 10
440.535617
 20
-254.788968
 30
0.0
 11
453.814639
 21
-277.78891
 31
0.0
  0
LINE
  5
F6
100
AcDbEntity
  8
LY_3
  6
CONTINUOUS
 62
       251
100
AcDbLine
 10
429.447777
 20
-336.615931
 30
0.0
 11
448.227107
 21
-355.395261
 31
0.0
  0
LINE
  5
F7
100
AcDbEntity
  8
LY_3
  6
CONTINUOUS
 62
       251
100
AcDbLine
 10
396.920908
 20
-369.142799
 30
0.0
 11
415.700238
 21
-387.92213
 31
0.0
  0
LINE
  5
F8
100
AcDbEntity
  8
LY_3
  6
CONTINUOUS
 62
       251
100
AcDbLine
 10
429.447572
 20
-336.615895
 30
0.0
 11
403.794589
 21
-343.489591
 31
0.0
  0
LINE
  5
F9
100
AcDbEntity
  8
LY_3
  6
CONTINUOUS
 62
       251
100
AcDbLine
 10
441.353233
 20
-381.048424
 30
0.0
 11
415.700249
 21
-387.92212
 31
0.0
  0
LINE
  5
FA
100
AcDbEntity
  8
LY_3
  6
CONTINUOUS
 62
       251
100
AcDbLine
 10
403.794805
 20
-343.489795
 30
0.0
 11
396.921078
 21
-369.142896
 31
0.0
  0
LINE
  5
FB
100
AcDbEntity
  8
LY_3
  6
CONTINUOUS
 62
       251
100
AcDbLine
 10
448.227334
 20
-355.395455
 30
0.0
 11
441.353607
 21
-381.048556
 31
0.0
  0
LINE
  5
FC
100
AcDbEntity
  8
LY_3
  6
CONTINUOUS
 62
       251
100
AcDbLine
 10
338.093994
 20
-393.509811
 30
0.0
 11
338.093994
 21
-420.067795
 31
0.0
  0
LINE
  5
FD
100
AcDbEntity
  8
LY_3
  6
CONTINUOUS
 62
       251
100
AcDbLine
 10
292.094055
 20
-393.509811
 30
0.0
 11
292.094055
 21
-420.067795
 31
0.0
  0
LINE
  5
FE
100
AcDbEntity
  8
LY_3
  6
CONTINUOUS
 62
       251
100
AcDbLine
 10
338.093798
 20
-393.509941
 30
0.0
 11
315.093962
 21
-380.230981
 31
0.0
  0
LINE
  5
FF
100
AcDbEntity
  8
LY_3
  6
CONTINUOUS
 62
       251
100
AcDbLine
 10
315.093831
 20
-433.347058
 30
0.0
 11
292.093995
 21
-420.068098
 31
0.0
  0
LINE
  5
100
100
AcDbEntity
  8
LY_3
  6
CONTINUOUS
 62
       251
100
AcDbLine
 10
315.093719
 20
-380.230853
 30
0.0
 11
292.093724
 21
-393.509905
 31
0.0
  0
LINE
  5
101
100
AcDbEntity
  8
LY_3
  6
CONTINUOUS
 62
       251
100
AcDbLine
 10
338.093686
 20
-420.06797
 30
0.0
 11
315.093692
 21
-433.347022
 31
0.0
  0
LINE
  5
102
100
AcDbEntity
  8
LY_3
  6
CONTINUOUS
 62
       251
100
AcDbLine
 10
233.266775
 20
-369.142799
 30
0.0
 11
214.487445
 21
-387.92213
 31
0.0
  0
LINE
  5
103
100
AcDbEntity
  8
LY_3
  6
CONTINUOUS
 62
       251
100
AcDbLine
 10
200.739906
 20
-336.615931
 30
0.0
 11
181.960576
 21
-355.395261
 31
0.0
  0
LINE
  5
104
100
AcDbEntity
  8
LY_3
  6
CONTINUOUS
 62
       251
100
AcDbLine
 10
233.266602
 20
-369.142593
 30
0.0
 11
226.392905
 21
-343.489609
 31
0.0
  0
LINE
  5
105
100
AcDbEntity
  8
LY_3
  6
CONTINUOUS
 62
       251
100
AcDbLine
 10
188.834073
 20
-381.048253
 30
0.0
 11
181.960376
 21
-355.39527
 31
0.0
  0
LINE
  5
106
100
AcDbEntity
  8
LY_3
  6
CONTINUOUS
 62
       251
100
AcDbLine
 10
226.393181
 20
-343.489792
 30
0.0
 11
200.740021
 21
-336.616049
 31
0.0
  0
LINE
  5
107
100
AcDbEntity
  8
LY_3
  6
CONTINUOUS
 62
       251
100
AcDbLine
 10
214.48754
 20
-387.922248
 30
0.0
 11
188.83438
 21
-381.048504
 31
0.0
  0
LINE
  5
108
100
AcDbEntity
  8
LY_3
  6
CONTINUOUS
 62
       251
100
AcDbLine
 10
176.373108
 20
-277.788887
 30
0.0
 11
149.815125
 21
-277.788887
 31
0.0
  0
LINE
  5
109
100
AcDbEntity
  8
LY_3
  6
CONTINUOUS
 62
       251
100
AcDbLine
 10
176.373108
 20
-231.788986
 30
0.0
 11
149.815125
 21
-231.788986
 31
0.0
  0
LINE
  5
10A
100
AcDbEntity
  8
LY_3
  6
CONTINUOUS
 62
       251
100
AcDbLine
 10
176.37305
 20
-277.788902
 30
0.0
 11
189.652011
 21
-254.789066
 31
0.0
  0
LINE
  5
10B
100
AcDbEntity
  8
LY_3
  6
CONTINUOUS
 62
       251
100
AcDbLine
 10
136.535934
 20
-254.788934
 30
0.0
 11
149.814894
 21
-231.789098
 31
0.0
  0
LINE
  5
10C
100
AcDbEntity
  8
LY_3
  6
CONTINUOUS
 62
       251
100
AcDbLine
 10
189.651781
 20
-254.788985
 30
0.0
 11
176.372729
 21
-231.78899
 31
0.0
  0
LINE
  5
10D
100
AcDbEntity
  8
LY_3
  6
CONTINUOUS
 62
       251
100
AcDbLine
 10
149.814664
 20
-277.788953
 30
0.0
 11
136.535612
 21
-254.788958
 31
0.0
  0
LINE
  5
10E
100
AcDbEntity
  8
LY_3
  6
CONTINUOUS
 62
       251
100
AcDbLine
 10
200.739906
 20
-172.961798
 30
0.0
 11
181.960576
 21
-154.182467
 31
0.0
  0
LINE
  5
10F
100
AcDbEntity
  8
LY_3
  6
CONTINUOUS
 62
       251
100
AcDbLine
 10
233.266775
 20
-140.434929
 30
0.0
 11
214.487445
 21
-121.655599
 31
0.0
  0
LINE
  5
110
100
AcDbEntity
  8
LY_3
  6
CONTINUOUS
 62
       251
100
AcDbLine
 10
200.739974
 20
-172.961884
 30
0.0
 11
226.392957
 21
-166.088187
 31
0.0
  0
LINE
  5
111
100
AcDbEntity
  8
LY_3
  6
CONTINUOUS
 62
       251
100
AcDbLine
 10
188.834307
 20
-128.529329
 30
0.0
 11
214.48729
 21
-121.655633
 31
0.0
  0
LINE
  5
112
100
AcDbEntity
  8
LY_3
  6
CONTINUOUS
 62
       251
100
AcDbLine
 10
226.393124
 20
-166.088152
 30
0.0
 11
233.266868
 21
-140.434992
 31
0.0
  0
LINE
  5
113
100
AcDbEntity
  8
LY_3
  6
CONTINUOUS
 62
       251
100
AcDbLine
 10
181.960595
 20
-154.182492
 30
0.0
 11
188.834339
 21
-128.529332
 31
0.0
  0
LINE
  5
114
100
AcDbEntity
  8
LY_3
  6
CONTINUOUS
 62
       251
100
AcDbLine
 10
292.093811
 20
-116.068039
 30
0.0
 11
292.093811
 21
-89.510056
 31
0.0
  0
LINE
  5
115
100
AcDbEntity
  8
LY_3
  6
CONTINUOUS
 62
       251
100
AcDbLine
 10
338.09375
 20
-116.068039
 30
0.0
 11
338.09375
 21
-89.510056
 31
0.0
  0
LINE
  5
116
100
AcDbEntity
  8
LY_3
  6
CONTINUOUS
 62
       251
100
AcDbLine
 10
292.09409
 20
-116.068154
 30
0.0
 11
315.093926
 21
-129.347114
 31
0.0
  0
LINE
  5
117
100
AcDbEntity
  8
LY_3
  6
CONTINUOUS
 62
       251
100
AcDbLine
 10
315.094088
 20
-76.230984
 30
0.0
 11
338.093924
 21
-89.509945
 31
0.0
  0
LINE
  5
118
100
AcDbEntity
  8
LY_3
  6
CONTINUOUS
 62
       251
100
AcDbLine
 10
315.093702
 20
-129.347017
 30
0.0
 11
338.093697
 21
-116.067965
 31
0.0
  0
LINE
  5
119
100
AcDbEntity
  8
LY_3
  6
CONTINUOUS
 62
       251
100
AcDbLine
 10
292.093752
 20
-89.50993
 30
0.0
 11
315.093746
 21
-76.230878
 31
0.0
  0
LINE
  5
11A
100
AcDbEntity
  8
LY_3
  6
CONTINUOUS
 62
       251
100
AcDbLine
 10
396.920908
 20
-140.434929
 30
0.0
 11
415.700238
 21
-121.655599
 31
0.0
  0
LINE
  5
11B
100
AcDbEntity
  8
LY_3
  6
CONTINUOUS
 62
       251
100
AcDbLine
 10
429.447777
 20
-172.961798
 30
0.0
 11
448.227107
 21
-154.182467
 31
0.0
  0
LINE
  5
11C
100
AcDbEntity
  8
LY_3
  6
CONTINUOUS
 62
       251
100
AcDbLine
 10
396.920943
 20
-140.435179
 30
0.0
 11
403.794619
 21
-166.088087
 31
0.0
  0
LINE
  5
11D
100
AcDbEntity
  8
LY_3
  6
CONTINUOUS
 62
       251
100
AcDbLine
 10
441.353472
 20
-128.529518
 30
0.0
 11
448.227148
 21
-154.182427
 31
0.0
  0
LINE
  5
11E
100
AcDbEntity
  8
LY_3
  6
CONTINUOUS
 62
       251
100
AcDbLine
 10
403.794808
 20
-166.08817
 30
0.0
 11
429.447909
 21
-172.961898
 31
0.0
  0
LINE
  5
11F
100
AcDbEntity
  8
LY_3
  6
CONTINUOUS
 62
       251
100
AcDbLine
 10
415.700468
 20
-121.655641
 30
0.0
 11
441.353569
 21
-128.529369
 31
0.0
  0
LINE
  5
120
100
AcDbEntity
  8
LY_3
  6
CONTINUOUS
 62
       251
100
AcDbLine
 10
-194.905827
 20
-85.289317
 30
0.0
 11
-194.405857
 21
-84.789393
 31
0.0
  0
LINE
  5
121
100
AcDbEntity
  8
LY_3
  6
CONTINUOUS
 62
       251
100
AcDbLine
 10
-219.405999
 20
-84.789437
 30
0.0
 11
-218.906034
 21
-85.289451
 31
0.0
  0
LINE
  5
122
100
AcDbEntity
  8
LY_3
  6
CONTINUOUS
 62
       251
100
AcDbLine
 10
-194.90602
 20
-120.289471
 30
0.0
 11
-194.406029
 21
-120.789545
 31
0.0
  0
LINE
  5
123
100
AcDbEntity
  8
LY_3
  6
CONTINUOUS
 62
       251
100
AcDbLine
 10
-218.905782
 20
-120.289313
 30
0.0
 11
-219.405776
 21
-120.789385
 31
0.0
  0
LINE
  5
124
100
AcDbEntity
  8
LY_3
  6
CONTINUOUS
 62
       251
100
AcDbLine
 10
-195.405813
 20
-131.78928
 30
0.0
 11
-194.405851
 21
-130.78937
 31
0.0
  0
LINE
  5
125
100
AcDbEntity
  8
LY_3
  6
CONTINUOUS
 62
       251
100
AcDbLine
 10
-219.405737
 20
-130.789136
 30
0.0
 11
-218.405786
 21
-131.789144
 31
0.0
  0
LINE
  5
126
100
AcDbEntity
  8
LY_3
  6
CONTINUOUS
 62
       251
100
AcDbLine
 10
-195.40572
 20
-73.789642
 30
0.0
 11
-194.405736
 21
-74.789702
 31
0.0
  0
LINE
  5
127
100
AcDbEntity
  8
LY_3
  6
CONTINUOUS
 62
       251
100
AcDbLine
 10
-218.40591
 20
-73.789551
 30
0.0
 11
-219.405897
 21
-74.78961
 31
0.0
  0
LINE
  5
128
100
AcDbEntity
  8
LY_3
  6
CONTINUOUS
 62
       251
100
AcDbLine
 10
-218.905823
 20
-120.288864
 30
0.0
 11
-194.905945
 21
-120.288864
 31
0.0
  0
LINE
  5
129
100
AcDbEntity
  8
LY_3
  6
CONTINUOUS
 62
       251
100
AcDbLine
 10
-218.905945
 20
-85.288864
 30
0.0
 11
-194.905884
 21
-85.288864
 31
0.0
  0
LINE
  5
12A
100
AcDbEntity
  8
LY_3
  6
CONTINUOUS
 62
       251
100
AcDbLine
 10
-219.405884
 20
-130.788864
 30
0.0
 11
-219.405884
 21
-120.288864
 31
0.0
  0
LINE
  5
12B
100
AcDbEntity
  8
LY_3
  6
CONTINUOUS
 62
       251
100
AcDbLine
 10
-195.405884
 20
-131.788864
 30
0.0
 11
-218.405884
 21
-131.788864
 31
0.0
  0
LINE
  5
12C
100
AcDbEntity
  8
LY_3
  6
CONTINUOUS
 62
       251
100
AcDbLine
 10
-218.405884
 20
-73.788864
 30
0.0
 11
-195.405884
 21
-73.788864
 31
0.0
  0
LINE
  5
12D
100
AcDbEntity
  8
LY_3
  6
CONTINUOUS
 62
       251
100
AcDbLine
 10
-394.905289
 20
-389.2888
 30
0.0
 11
-394.40532
 21
-388.788876
 31
0.0
  0
LINE
  5
12E
100
AcDbEntity
  8
LY_3
  6
CONTINUOUS
 62
       251
100
AcDbLine
 10
-419.40549
 20
-388.788943
 30
0.0
 11
-418.905525
 21
-389.288957
 31
0.0
  0
LINE
  5
12F
100
AcDbEntity
  8
LY_3
  6
CONTINUOUS
 62
       251
100
AcDbLine
 10
-394.905551
 20
-424.28907
 30
0.0
 11
-394.405559
 21
-424.789144
 31
0.0
  0
LINE
  5
130
100
AcDbEntity
  8
LY_3
  6
CONTINUOUS
 62
       251
100
AcDbLine
 10
-418.905418
 20
-424.288926
 30
0.0
 11
-419.405411
 21
-424.788999
 31
0.0
  0
LINE
  5
131
100
AcDbEntity
  8
LY_3
  6
CONTINUOUS
 62
       251
100
AcDbLine
 10
-395.405423
 20
-435.788715
 30
0.0
 11
-394.40546
 21
-434.788805
 31
0.0
  0
LINE
  5
132
100
AcDbEntity
  8
LY_3
  6
CONTINUOUS
 62
       251
100
AcDbLine
 10
-419.405352
 20
-434.788618
 30
0.0
 11
-418.405401
 21
-435.788626
 31
0.0
  0
LINE
  5
133
100
AcDbEntity
  8
LY_3
  6
CONTINUOUS
 62
       251
100
AcDbLine
 10
-395.405188
 20
-377.78916
 30
0.0
 11
-394.405204
 21
-378.789221
 31
0.0
  0
LINE
  5
134
100
AcDbEntity
  8
LY_3
  6
CONTINUOUS
 62
       251
100
AcDbLine
 10
-418.405377
 20
-377.78906
 30
0.0
 11
-419.405364
 21
-378.789119
 31
0.0
  0
LINE
  5
135
100
AcDbEntity
  8
LY_3
  6
CONTINUOUS
 62
       251
100
AcDbLine
 10
-418.905823
 20
-424.288864
 30
0.0
 11
-394.905945
 21
-424.288864
 31
0.0
  0
LINE
  5
136
100
AcDbEntity
  8
LY_3
  6
CONTINUOUS
 62
       251
100
AcDbLine
 10
-418.905945
 20
-389.288864
 30
0.0
 11
-394.905884
 21
-389.288864
 31
0.0
  0
LINE
  5
137
100
AcDbEntity
  8
LY_3
  6
CONTINUOUS
 62
       251
100
AcDbLine
 10
-419.405884
 20
-434.788864
 30
0.0
 11
-419.405884
 21
-378.788986
 31
0.0
  0
LINE
  5
138
100
AcDbEntity
  8
LY_3
  6
CONTINUOUS
 62
       251
100
AcDbLine
 10
-395.405884
 20
-435.788864
 30
0.0
 11
-418.405884
 21
-435.788864
 31
0.0
  0
LINE
  5
139
100
AcDbEntity
  8
LY_3
  6
CONTINUOUS
 62
       251
100
AcDbLine
 10
-418.405884
 20
-377.788864
 30
0.0
 11
-395.405884
 21
-377.788864
 31
0.0
  0
LINE
  5
13A
100
AcDbEntity
  8
LY_3
  6
CONTINUOUS
 62
       251
100
AcDbLine
 10
-345.905679
 20
-85.289061
 30
0.0
 11
-345.405715
 21
-84.789142
 31
0.0
  0
LINE
  5
13B
100
AcDbEntity
  8
LY_3
  6
CONTINUOUS
 62
       251
100
AcDbLine
 10
-370.40569
 20
-84.789096
 30
0.0
 11
-369.905725
 21
-85.289111
 31
0.0
  0
LINE
  5
13C
100
AcDbEntity
  8
LY_3
  6
CONTINUOUS
 62
       251
100
AcDbLine
 10
-345.905674
 20
-120.289107
 30
0.0
 11
-345.405682
 21
-120.789181
 31
0.0
  0
LINE
  5
13D
100
AcDbEntity
  8
LY_3
  6
CONTINUOUS
 62
       251
100
AcDbLine
 10
-369.905662
 20
-120.28909
 30
0.0
 11
-370.405656
 21
-120.789162
 31
0.0
  0
LINE
  5
13E
100
AcDbEntity
  8
LY_3
  6
CONTINUOUS
 62
       251
100
AcDbLine
 10
-346.405623
 20
-131.789083
 30
0.0
 11
-345.40566
 21
-130.789173
 31
0.0
  0
LINE
  5
13F
100
AcDbEntity
  8
LY_3
  6
CONTINUOUS
 62
       251
100
AcDbLine
 10
-370.405643
 20
-130.789032
 30
0.0
 11
-369.405693
 21
-131.78904
 31
0.0
  0
LINE
  5
140
100
AcDbEntity
  8
LY_3
  6
CONTINUOUS
 62
       251
100
AcDbLine
 10
-346.40547
 20
-73.789317
 30
0.0
 11
-345.405486
 21
-74.789378
 31
0.0
  0
LINE
  5
141
100
AcDbEntity
  8
LY_3
  6
CONTINUOUS
 62
       251
100
AcDbLine
 10
-369.405649
 20
-73.789164
 30
0.0
 11
-370.405636
 21
-74.789223
 31
0.0
  0
LINE
  5
142
100
AcDbEntity
  8
LY_3
  6
CONTINUOUS
 62
       251
100
AcDbLine
 10
-369.905823
 20
-120.288864
 30
0.0
 11
-345.905945
 21
-120.288864
 31
0.0
  0
LINE
  5
143
100
AcDbEntity
  8
LY_3
  6
CONTINUOUS
 62
       251
100
AcDbLine
 10
-369.905945
 20
-85.288864
 30
0.0
 11
-345.905884
 21
-85.288864
 31
0.0
  0
LINE
  5
144
100
AcDbEntity
  8
LY_3
  6
CONTINUOUS
 62
       251
100
AcDbLine
 10
-346.405884
 20
-131.788864
 30
0.0
 11
-369.405884
 21
-131.788864
 31
0.0
  0
LINE
  5
145
100
AcDbEntity
  8
LY_3
  6
CONTINUOUS
 62
       251
100
AcDbLine
 10
-345.405884
 20
-74.788986
 30
0.0
 11
-345.405884
 21
-130.788925
 31
0.0
  0
LINE
  5
146
100
AcDbEntity
  8
LY_3
  6
CONTINUOUS
 62
       251
100
AcDbLine
 10
-369.405884
 20
-73.788864
 30
0.0
 11
-346.405884
 21
-73.788864
 31
0.0
  0
LINE
  5
147
100
AcDbEntity
  8
LY_3
  6
CONTINUOUS
 62
       251
100
AcDbLine
 10
-145.905749
 20
-389.288565
 30
0.0
 11
-145.40578
 21
-388.788641
 31
0.0
  0
LINE
  5
148
100
AcDbEntity
  8
LY_3
  6
CONTINUOUS
 62
       251
100
AcDbLine
 10
-170.405841
 20
-388.788502
 30
0.0
 11
-169.905876
 21
-389.288517
 31
0.0
  0
LINE
  5
149
100
AcDbEntity
  8
LY_3
  6
CONTINUOUS
 62
       251
100
AcDbLine
 10
-145.906077
 20
-424.288542
 30
0.0
 11
-145.406086
 21
-424.788617
 31
0.0
  0
LINE
  5
14A
100
AcDbEntity
  8
LY_3
  6
CONTINUOUS
 62
       251
100
AcDbLine
 10
-169.905869
 20
-424.288445
 30
0.0
 11
-170.405862
 21
-424.788518
 31
0.0
  0
LINE
  5
14B
100
AcDbEntity
  8
LY_3
  6
CONTINUOUS
 62
       251
100
AcDbLine
 10
-146.40581
 20
-435.788318
 30
0.0
 11
-145.405847
 21
-434.788408
 31
0.0
  0
LINE
  5
14C
100
AcDbEntity
  8
LY_3
  6
CONTINUOUS
 62
       251
100
AcDbLine
 10
-170.405664
 20
-434.788356
 30
0.0
 11
-169.405753
 21
-435.788323
 31
0.0
  0
LINE
  5
14D
100
AcDbEntity
  8
LY_3
  6
CONTINUOUS
 62
       251
100
AcDbLine
 10
-146.40573
 20
-377.788736
 30
0.0
 11
-145.405745
 21
-378.788796
 31
0.0
  0
LINE
  5
14E
100
AcDbEntity
  8
LY_3
  6
CONTINUOUS
 62
       251
100
AcDbLine
 10
-169.405734
 20
-377.788685
 30
0.0
 11
-170.405721
 21
-378.788744
 31
0.0
  0
LINE
  5
14F
100
AcDbEntity
  8
LY_3
  6
CONTINUOUS
 62
       251
100
AcDbLine
 10
-169.905823
 20
-424.288864
 30
0.0
 11
-145.905945
 21
-424.288864
 31
0.0
  0
LINE
  5
150
100
AcDbEntity
  8
LY_3
  6
CONTINUOUS
 62
       251
100
AcDbLine
 10
-169.905945
 20
-389.288864
 30
0.0
 11
-145.905884
 21
-389.288864
 31
0.0
  0
LINE
  5
151
100
AcDbEntity
  8
LY_3
  6
CONTINUOUS
 62
       251
100
AcDbLine
 10
-146.405884
 20
-435.788864
 30
0.0
 11
-169.405884
 21
-435.788864
 31
0.0
  0
LINE
  5
152
100
AcDbEntity
  8
LY_3
  6
CONTINUOUS
 62
       251
100
AcDbLine
 10
-145.405884
 20
-378.788986
 30
0.0
 11
-145.405884
 21
-434.788925
 31
0.0
  0
LINE
  5
153
100
AcDbEntity
  8
LY_3
  6
CONTINUOUS
 62
       251
100
AcDbLine
 10
-169.405884
 20
-377.788864
 30
0.0
 11
-146.405884
 21
-377.788864
 31
0.0
  0
LINE
  5
154
100
AcDbEntity
  8
LY_3
  6
CONTINUOUS
 62
       251
100
AcDbLine
 10
-375.205811
 20
-145.288986
 30
0.0
 11
-389.605774
 21
-145.288986
 31
0.0
  0
LINE
  5
155
100
AcDbEntity
  8
LY_3
  6
CONTINUOUS
 62
       251
100
AcDbLine
 10
-374.637271
 20
-120.28914
 30
0.0
 11
-372.137236
 21
-122.789175
 31
0.0
  0
LINE
  5
156
100
AcDbEntity
  8
LY_3
  6
CONTINUOUS
 62
       251
100
AcDbLine
 10
-372.90558
 20
-122.789141
 30
0.0
 11
-370.405588
 21
-125.289132
 31
0.0
  0
LINE
  5
157
100
AcDbEntity
  8
LY_3
  6
CONTINUOUS
 62
       251
100
AcDbLine
 10
-370.905503
 20
-130.789043
 30
0.0
 11
-370.405514
 21
-130.289053
 31
0.0
  0
LINE
  5
158
100
AcDbEntity
  8
LY_3
  6
CONTINUOUS
 62
       251
100
AcDbLine
 10
-374.20575
 20
-130.788925
 30
0.0
 11
-370.905762
 21
-130.788925
 31
0.0
  0
LINE
  5
159
100
AcDbEntity
  8
LY_3
  6
CONTINUOUS
 62
       251
100
AcDbLine
 10
-394.405479
 20
-130.288989
 30
0.0
 11
-393.90549
 21
-130.78898
 31
0.0
  0
LINE
  5
15A
100
AcDbEntity
  8
LY_3
  6
CONTINUOUS
 62
       251
100
AcDbLine
 10
-393.905823
 20
-130.788925
 30
0.0
 11
-390.605835
 21
-130.788925
 31
0.0
  0
LINE
  5
15B
100
AcDbEntity
  8
LY_3
  6
CONTINUOUS
 62
       251
100
AcDbLine
 10
-394.405823
 20
-120.288925
 30
0.0
 11
-374.637573
 21
-120.288925
 31
0.0
  0
LINE
  5
15C
100
AcDbEntity
  8
LY_3
  6
CONTINUOUS
 62
       251
100
AcDbLine
 10
-389.605774
 20
-122.788925
 30
0.0
 11
-372.137512
 21
-122.788925
 31
0.0
  0
LINE
  5
15D
100
AcDbEntity
  8
LY_3
  6
CONTINUOUS
 62
       251
100
AcDbLine
 10
-375.205811
 20
-122.788925
 30
0.0
 11
-375.205811
 21
-254.788864
 31
0.0
  0
LINE
  5
15E
100
AcDbEntity
  8
LY_3
  6
CONTINUOUS
 62
       251
100
AcDbLine
 10
-389.605774
 20
-122.788925
 30
0.0
 11
-389.605774
 21
-254.788864
 31
0.0
  0
LINE
  5
15F
100
AcDbEntity
  8
LY_3
  6
CONTINUOUS
 62
       251
100
AcDbLine
 10
-372.137268
 20
-82.78925
 30
0.0
 11
-374.63726
 21
-85.289242
 31
0.0
  0
LINE
  5
160
100
AcDbEntity
  8
LY_3
  6
CONTINUOUS
 62
       251
100
AcDbLine
 10
-370.405531
 20
-80.289291
 30
0.0
 11
-372.90552
 21
-82.789279
 31
0.0
  0
LINE
  5
161
100
AcDbEntity
  8
LY_3
  6
CONTINUOUS
 62
       251
100
AcDbLine
 10
-370.4056
 20
-75.289189
 30
0.0
 11
-370.905589
 21
-74.789199
 31
0.0
  0
LINE
  5
162
100
AcDbEntity
  8
LY_3
  6
CONTINUOUS
 62
       251
100
AcDbLine
 10
-370.905762
 20
-74.788986
 30
0.0
 11
-374.20575
 21
-74.788986
 31
0.0
  0
LINE
  5
163
100
AcDbEntity
  8
LY_3
  6
CONTINUOUS
 62
       251
100
AcDbLine
 10
-393.905562
 20
-74.7892
 30
0.0
 11
-394.405551
 21
-75.28919
 31
0.0
  0
LINE
  5
164
100
AcDbEntity
  8
LY_3
  6
CONTINUOUS
 62
       251
100
AcDbLine
 10
-390.605835
 20
-74.788986
 30
0.0
 11
-393.905823
 21
-74.788986
 31
0.0
  0
LINE
  5
165
100
AcDbEntity
  8
LY_3
  6
CONTINUOUS
 62
       251
100
AcDbLine
 10
-374.637573
 20
-85.288986
 30
0.0
 11
-394.405823
 21
-85.288986
 31
0.0
  0
LINE
  5
166
100
AcDbEntity
  8
LY_3
  6
CONTINUOUS
 62
       251
100
AcDbLine
 10
-372.137512
 20
-82.788986
 30
0.0
 11
-389.605774
 21
-82.788986
 31
0.0
  0
LINE
  5
167
100
AcDbEntity
  8
LY_3
  6
CONTINUOUS
 62
       251
100
AcDbLine
 10
-375.205811
 20
-71.212936
 30
0.0
 11
-389.605774
 21
-71.212936
 31
0.0
  0
LINE
  5
168
100
AcDbEntity
  8
LY_3
  6
CONTINUOUS
 62
       251
100
AcDbLine
 10
-375.205811
 20
-71.212936
 30
0.0
 11
-375.205811
 21
-82.788986
 31
0.0
  0
LINE
  5
169
100
AcDbEntity
  8
LY_3
  6
CONTINUOUS
 62
       251
100
AcDbLine
 10
-389.605774
 20
-71.212936
 30
0.0
 11
-389.605774
 21
-82.788986
 31
0.0
  0
LINE
  5
16A
100
AcDbEntity
  8
LY_3
  6
CONTINUOUS
 62
       251
100
AcDbLine
 10
-389.605469
 20
-364.288315
 30
0.0
 11
-375.205505
 21
-364.288315
 31
0.0
  0
LINE
  5
16B
100
AcDbEntity
  8
LY_3
  6
CONTINUOUS
 62
       251
100
AcDbLine
 10
-390.17353
 20
-389.288653
 30
0.0
 11
-392.673522
 21
-386.788661
 31
0.0
  0
LINE
  5
16C
100
AcDbEntity
  8
LY_3
  6
CONTINUOUS
 62
       251
100
AcDbLine
 10
-391.905292
 20
-386.788723
 30
0.0
 11
-394.405284
 21
-384.288731
 31
0.0
  0
LINE
  5
16D
100
AcDbEntity
  8
LY_3
  6
CONTINUOUS
 62
       251
100
AcDbLine
 10
-393.90536
 20
-378.788889
 30
0.0
 11
-394.405349
 21
-379.288879
 31
0.0
  0
LINE
  5
16E
100
AcDbEntity
  8
LY_3
  6
CONTINUOUS
 62
       251
100
AcDbLine
 10
-390.605469
 20
-378.788315
 30
0.0
 11
-393.905457
 21
-378.788315
 31
0.0
  0
LINE
  5
16F
100
AcDbEntity
  8
LY_3
  6
CONTINUOUS
 62
       251
100
AcDbLine
 10
-370.405344
 20
-379.288662
 30
0.0
 11
-370.905333
 21
-378.788671
 31
0.0
  0
LINE
  5
170
100
AcDbEntity
  8
LY_3
  6
CONTINUOUS
 62
       251
100
AcDbLine
 10
-370.905457
 20
-378.788315
 30
0.0
 11
-374.205444
 21
-378.788315
 31
0.0
  0
LINE
  5
171
100
AcDbEntity
  8
LY_3
  6
CONTINUOUS
 62
       251
100
AcDbLine
 10
-370.405457
 20
-389.288376
 30
0.0
 11
-390.173706
 21
-389.288376
 31
0.0
  0
LINE
  5
172
100
AcDbEntity
  8
LY_3
  6
CONTINUOUS
 62
       251
100
AcDbLine
 10
-375.205505
 20
-386.788376
 30
0.0
 11
-392.673767
 21
-386.788376
 31
0.0
  0
LINE
  5
173
100
AcDbEntity
  8
LY_3
  6
CONTINUOUS
 62
       251
100
AcDbLine
 10
-389.60553
 20
-386.788376
 30
0.0
 11
-389.60553
 21
-254.788925
 31
0.0
  0
LINE
  5
174
100
AcDbEntity
  8
LY_3
  6
CONTINUOUS
 62
       251
100
AcDbLine
 10
-375.205505
 20
-386.788376
 30
0.0
 11
-375.205505
 21
-254.788925
 31
0.0
  0
LINE
  5
175
100
AcDbEntity
  8
LY_3
  6
CONTINUOUS
 62
       251
100
AcDbLine
 10
-392.673608
 20
-426.788532
 30
0.0
 11
-390.173616
 21
-424.28854
 31
0.0
  0
LINE
  5
176
100
AcDbEntity
  8
LY_3
  6
CONTINUOUS
 62
       251
100
AcDbLine
 10
-394.405358
 20
-429.288591
 30
0.0
 11
-391.905365
 21
-426.7886
 31
0.0
  0
LINE
  5
177
100
AcDbEntity
  8
LY_3
  6
CONTINUOUS
 62
       251
100
AcDbLine
 10
-394.405419
 20
-434.288487
 30
0.0
 11
-393.90543
 21
-434.788477
 31
0.0
  0
LINE
  5
178
100
AcDbEntity
  8
LY_3
  6
CONTINUOUS
 62
       251
100
AcDbLine
 10
-393.905457
 20
-434.788315
 30
0.0
 11
-390.605469
 21
-434.788315
 31
0.0
  0
LINE
  5
179
100
AcDbEntity
  8
LY_3
  6
CONTINUOUS
 62
       251
100
AcDbLine
 10
-370.905478
 20
-434.788651
 30
0.0
 11
-370.405489
 21
-434.288661
 31
0.0
  0
LINE
  5
17A
100
AcDbEntity
  8
LY_3
  6
CONTINUOUS
 62
       251
100
AcDbLine
 10
-374.205444
 20
-434.788315
 30
0.0
 11
-370.905457
 21
-434.788315
 31
0.0
  0
LINE
  5
17B
100
AcDbEntity
  8
LY_3
  6
CONTINUOUS
 62
       251
100
AcDbLine
 10
-390.173706
 20
-424.288254
 30
0.0
 11
-370.405457
 21
-424.288254
 31
0.0
  0
LINE
  5
17C
100
AcDbEntity
  8
LY_3
  6
CONTINUOUS
 62
       251
100
AcDbLine
 10
-392.673767
 20
-426.788254
 30
0.0
 11
-375.205505
 21
-426.788254
 31
0.0
  0
LINE
  5
17D
100
AcDbEntity
  8
LY_3
  6
CONTINUOUS
 62
       251
100
AcDbLine
 10
-389.605469
 20
-438.364304
 30
0.0
 11
-375.205505
 21
-438.364304
 31
0.0
  0
LINE
  5
17E
100
AcDbEntity
  8
LY_3
  6
CONTINUOUS
 62
       251
100
AcDbLine
 10
-389.60553
 20
-438.364304
 30
0.0
 11
-389.60553
 21
-426.788254
 31
0.0
  0
LINE
  5
17F
100
AcDbEntity
  8
LY_3
  6
CONTINUOUS
 62
       251
100
AcDbLine
 10
-375.205505
 20
-438.364304
 30
0.0
 11
-375.205505
 21
-426.788254
 31
0.0
  0
LINE
  5
180
100
AcDbEntity
  8
LY_3
  6
CONTINUOUS
 62
       251
100
AcDbLine
 10
-189.605957
 20
-145.288986
 30
0.0
 11
-175.205933
 21
-145.288986
 31
0.0
  0
LINE
  5
181
100
AcDbEntity
  8
LY_3
  6
CONTINUOUS
 62
       251
100
AcDbLine
 10
-193.905954
 20
-130.78922
 30
0.0
 11
-194.405943
 21
-130.28923
 31
0.0
  0
LINE
  5
182
100
AcDbEntity
  8
LY_3
  6
CONTINUOUS
 62
       251
100
AcDbLine
 10
-190.605957
 20
-130.788925
 30
0.0
 11
-193.905945
 21
-130.788925
 31
0.0
  0
LINE
  5
183
100
AcDbEntity
  8
LY_3
  6
CONTINUOUS
 62
       251
100
AcDbLine
 10
-170.406045
 20
-130.289463
 30
0.0
 11
-170.906034
 21
-130.789453
 31
0.0
  0
LINE
  5
184
100
AcDbEntity
  8
LY_3
  6
CONTINUOUS
 62
       251
100
AcDbLine
 10
-170.905945
 20
-130.788925
 30
0.0
 11
-174.205872
 21
-130.788925
 31
0.0
  0
LINE
  5
185
100
AcDbEntity
  8
LY_3
  6
CONTINUOUS
 62
       251
100
AcDbLine
 10
-170.405945
 20
-120.288925
 30
0.0
 11
-190.174194
 21
-120.288925
 31
0.0
  0
LINE
  5
186
100
AcDbEntity
  8
LY_3
  6
CONTINUOUS
 62
       251
100
AcDbLine
 10
-175.205933
 20
-122.788925
 30
0.0
 11
-192.674194
 21
-122.788925
 31
0.0
  0
LINE
  5
187
100
AcDbEntity
  8
LY_3
  6
CONTINUOUS
 62
       251
100
AcDbLine
 10
-189.605957
 20
-122.788925
 30
0.0
 11
-189.605957
 21
-254.788864
 31
0.0
  0
LINE
  5
188
100
AcDbEntity
  8
LY_3
  6
CONTINUOUS
 62
       251
100
AcDbLine
 10
-175.205933
 20
-122.788925
 30
0.0
 11
-175.205933
 21
-254.788864
 31
0.0
  0
LINE
  5
189
100
AcDbEntity
  8
LY_3
  6
CONTINUOUS
 62
       251
100
AcDbLine
 10
-192.674212
 20
-82.789499
 30
0.0
 11
-190.17422
 21
-85.289491
 31
0.0
  0
LINE
  5
18A
100
AcDbEntity
  8
LY_3
  6
CONTINUOUS
 62
       251
100
AcDbLine
 10
-194.406039
 20
-80.289527
 30
0.0
 11
-191.906046
 21
-82.789518
 31
0.0
  0
LINE
  5
18B
100
AcDbEntity
  8
LY_3
  6
CONTINUOUS
 62
       251
100
AcDbLine
 10
-194.406034
 20
-75.289552
 30
0.0
 11
-193.906045
 21
-74.789561
 31
0.0
  0
LINE
  5
18C
100
AcDbEntity
  8
LY_3
  6
CONTINUOUS
 62
       251
100
AcDbLine
 10
-193.905945
 20
-74.788986
 30
0.0
 11
-190.605957
 21
-74.788986
 31
0.0
  0
LINE
  5
18D
100
AcDbEntity
  8
LY_3
  6
CONTINUOUS
 62
       251
100
AcDbLine
 10
-170.905985
 20
-74.789371
 30
0.0
 11
-170.405997
 21
-75.289362
 31
0.0
  0
LINE
  5
18E
100
AcDbEntity
  8
LY_3
  6
CONTINUOUS
 62
       251
100
AcDbLine
 10
-174.205872
 20
-74.788986
 30
0.0
 11
-170.905945
 21
-74.788986
 31
0.0
  0
LINE
  5
18F
100
AcDbEntity
  8
LY_3
  6
CONTINUOUS
 62
       251
100
AcDbLine
 10
-190.174194
 20
-85.288986
 30
0.0
 11
-170.405945
 21
-85.288986
 31
0.0
  0
LINE
  5
190
100
AcDbEntity
  8
LY_3
  6
CONTINUOUS
 62
       251
100
AcDbLine
 10
-192.674194
 20
-82.788986
 30
0.0
 11
-175.205933
 21
-82.788986
 31
0.0
  0
LINE
  5
191
100
AcDbEntity
  8
LY_3
  6
CONTINUOUS
 62
       251
100
AcDbLine
 10
-189.605957
 20
-71.212936
 30
0.0
 11
-175.205933
 21
-71.212936
 31
0.0
  0
LINE
  5
192
100
AcDbEntity
  8
LY_3
  6
CONTINUOUS
 62
       251
100
AcDbLine
 10
-189.605957
 20
-71.212936
 30
0.0
 11
-189.605957
 21
-82.788986
 31
0.0
  0
LINE
  5
193
100
AcDbEntity
  8
LY_3
  6
CONTINUOUS
 62
       251
100
AcDbLine
 10
-175.205933
 20
-71.212936
 30
0.0
 11
-175.205933
 21
-82.788986
 31
0.0
  0
LINE
  5
194
100
AcDbEntity
  8
LY_3
  6
CONTINUOUS
 62
       251
100
AcDbLine
 10
-175.205933
 20
-364.288742
 30
0.0
 11
-189.605896
 21
-364.288742
 31
0.0
  0
LINE
  5
195
100
AcDbEntity
  8
LY_3
  6
CONTINUOUS
 62
       251
100
AcDbLine
 10
-174.637527
 20
-389.288462
 30
0.0
 11
-172.137535
 21
-386.78847
 31
0.0
  0
LINE
  5
196
100
AcDbEntity
  8
LY_3
  6
CONTINUOUS
 62
       251
100
AcDbLine
 10
-172.905771
 20
-386.788449
 30
0.0
 11
-170.405778
 21
-384.288458
 31
0.0
  0
LINE
  5
197
100
AcDbEntity
  8
LY_3
  6
CONTINUOUS
 62
       251
100
AcDbLine
 10
-170.905729
 20
-378.788483
 30
0.0
 11
-170.40574
 21
-379.288473
 31
0.0
  0
LINE
  5
198
100
AcDbEntity
  8
LY_3
  6
CONTINUOUS
 62
       251
100
AcDbLine
 10
-174.205872
 20
-378.788742
 30
0.0
 11
-170.905945
 21
-378.788742
 31
0.0
  0
LINE
  5
199
100
AcDbEntity
  8
LY_3
  6
CONTINUOUS
 62
       251
100
AcDbLine
 10
-194.405808
 20
-379.288558
 30
0.0
 11
-193.905819
 21
-378.788568
 31
0.0
  0
LINE
  5
19A
100
AcDbEntity
  8
LY_3
  6
CONTINUOUS
 62
       251
100
AcDbLine
 10
-193.905945
 20
-378.788742
 30
0.0
 11
-190.605957
 21
-378.788742
 31
0.0
  0
LINE
  5
19B
100
AcDbEntity
  8
LY_3
  6
CONTINUOUS
 62
       251
100
AcDbLine
 10
-194.405945
 20
-389.288742
 30
0.0
 11
-174.637695
 21
-389.288742
 31
0.0
  0
LINE
  5
19C
100
AcDbEntity
  8
LY_3
  6
CONTINUOUS
 62
       251
100
AcDbLine
 10
-189.605896
 20
-386.788742
 30
0.0
 11
-172.137634
 21
-386.788742
 31
0.0
  0
LINE
  5
19D
100
AcDbEntity
  8
LY_3
  6
CONTINUOUS
 62
       251
100
AcDbLine
 10
-175.205933
 20
-386.788742
 30
0.0
 11
-175.205933
 21
-254.788925
 31
0.0
  0
LINE
  5
19E
100
AcDbEntity
  8
LY_3
  6
CONTINUOUS
 62
       251
100
AcDbLine
 10
-189.605896
 20
-386.788742
 30
0.0
 11
-189.605896
 21
-254.788925
 31
0.0
  0
LINE
  5
19F
100
AcDbEntity
  8
LY_3
  6
CONTINUOUS
 62
       251
100
AcDbLine
 10
-172.137603
 20
-426.788273
 30
0.0
 11
-174.637595
 21
-424.288281
 31
0.0
  0
LINE
  5
1A0
100
AcDbEntity
  8
LY_3
  6
CONTINUOUS
 62
       251
100
AcDbLine
 10
-170.405883
 20
-429.288293
 30
0.0
 11
-172.905851
 21
-426.788326
 31
0.0
  0
LINE
  5
1A1
100
AcDbEntity
  8
LY_3
  6
CONTINUOUS
 62
       251
100
AcDbLine
 10
-170.405991
 20
-434.288296
 30
0.0
 11
-170.90598
 21
-434.788287
 31
0.0
  0
LINE
  5
1A2
100
AcDbEntity
  8
LY_3
  6
CONTINUOUS
 62
       251
100
AcDbLine
 10
-170.905945
 20
-434.788742
 30
0.0
 11
-174.205872
 21
-434.788742
 31
0.0
  0
LINE
  5
1A3
100
AcDbEntity
  8
LY_3
  6
CONTINUOUS
 62
       251
100
AcDbLine
 10
-193.905786
 20
-434.788329
 30
0.0
 11
-194.405774
 21
-434.28834
 31
0.0
  0
LINE
  5
1A4
100
AcDbEntity
  8
LY_3
  6
CONTINUOUS
 62
       251
100
AcDbLine
 10
-190.605957
 20
-434.788742
 30
0.0
 11
-193.905945
 21
-434.788742
 31
0.0
  0
LINE
  5
1A5
100
AcDbEntity
  8
LY_3
  6
CONTINUOUS
 62
       251
100
AcDbLine
 10
-174.637695
 20
-424.288681
 30
0.0
 11
-194.405945
 21
-424.288681
 31
0.0
  0
LINE
  5
1A6
100
AcDbEntity
  8
LY_3
  6
CONTINUOUS
 62
       251
100
AcDbLine
 10
-172.137634
 20
-426.788681
 30
0.0
 11
-189.605896
 21
-426.788681
 31
0.0
  0
LINE
  5
1A7
100
AcDbEntity
  8
LY_3
  6
CONTINUOUS
 62
       251
100
AcDbLine
 10
-175.205933
 20
-438.364731
 30
0.0
 11
-189.605896
 21
-438.364731
 31
0.0
  0
LINE
  5
1A8
100
AcDbEntity
  8
LY_3
  6
CONTINUOUS
 62
       251
100
AcDbLine
 10
-175.205933
 20
-438.364731
 30
0.0
 11
-175.205933
 21
-426.788681
 31
0.0
  0
LINE
  5
1A9
100
AcDbEntity
  8
LY_3
  6
CONTINUOUS
 62
       251
100
AcDbLine
 10
-189.605896
 20
-438.364731
 30
0.0
 11
-189.605896
 21
-426.788681
 31
0.0
  0
LINE
  5
1AA
100
AcDbEntity
  8
LY_3
  6
CONTINUOUS
 62
       251
100
AcDbLine
 10
-222.405884
 20
-389.288864
 30
0.0
 11
-194.405884
 21
-389.288864
 31
0.0
  0
LINE
  5
1AB
100
AcDbEntity
  8
LY_3
  6
CONTINUOUS
 62
       251
100
AcDbLine
 10
-222.405884
 20
-424.288864
 30
0.0
 11
-194.405884
 21
-424.288864
 31
0.0
  0
LINE
  5
1AC
100
AcDbEntity
  8
LY_3
  6
CONTINUOUS
 62
       251
100
AcDbLine
 10
-370.405884
 20
-424.288864
 30
0.0
 11
-342.405884
 21
-424.288864
 31
0.0
  0
LINE
  5
1AD
100
AcDbEntity
  8
LY_3
  6
CONTINUOUS
 62
       251
100
AcDbLine
 10
-370.405884
 20
-389.288864
 30
0.0
 11
-342.405884
 21
-389.288864
 31
0.0
  0
LINE
  5
1AE
100
AcDbEntity
  8
LY_3
  6
CONTINUOUS
 62
       251
100
AcDbLine
 10
-222.405884
 20
-132.788864
 30
0.0
 11
-194.405884
 21
-132.788864
 31
0.0
  0
LINE
  5
1AF
100
AcDbEntity
  8
LY_3
  6
CONTINUOUS
 62
       251
100
AcDbLine
 10
-222.405884
 20
-72.788864
 30
0.0
 11
-194.405884
 21
-72.788864
 31
0.0
  0
LINE
  5
1B0
100
AcDbEntity
  8
LY_3
  6
CONTINUOUS
 62
       251
100
AcDbLine
 10
-370.405884
 20
-132.788864
 30
0.0
 11
-342.405884
 21
-132.788864
 31
0.0
  0
LINE
  5
1B1
100
AcDbEntity
  8
LY_3
  6
CONTINUOUS
 62
       251
100
AcDbLine
 10
-370.405884
 20
-72.788864
 30
0.0
 11
-342.405884
 21
-72.788864
 31
0.0
  0
LINE
  5
1B2
100
AcDbEntity
  8
LY_3
  6
CONTINUOUS
 62
       251
100
AcDbLine
 10
-196.405825
 20
-155.789242
 30
0.0
 11
-194.405794
 21
-153.789268
 31
0.0
  0
LINE
  5
1B3
100
AcDbEntity
  8
LY_3
  6
CONTINUOUS
 62
       251
100
AcDbLine
 10
-368.405578
 20
-155.788918
 30
0.0
 11
-370.405559
 21
-153.788895
 31
0.0
  0
LINE
  5
1B4
100
AcDbEntity
  8
LY_3
  6
CONTINUOUS
 62
       251
100
AcDbLine
 10
-196.405514
 20
-353.788495
 30
0.0
 11
-194.405515
 21
-355.788436
 31
0.0
  0
LINE
  5
1B5
100
AcDbEntity
  8
LY_3
  6
CONTINUOUS
 62
       251
100
AcDbLine
 10
-368.405539
 20
-353.788915
 30
0.0
 11
-370.40552
 21
-355.788939
 31
0.0
  0
LINE
  5
1B6
100
AcDbEntity
  8
LY_3
  6
CONTINUOUS
 62
       251
100
AcDbLine
 10
-195.405859
 20
-67.289176
 30
0.0
 11
-194.405839
 21
-68.289201
 31
0.0
  0
LINE
  5
1B7
100
AcDbEntity
  8
LY_3
  6
CONTINUOUS
 62
       251
100
AcDbLine
 10
-221.405685
 20
-67.289501
 30
0.0
 11
-222.405703
 21
-68.289528
 31
0.0
  0
LINE
  5
1B8
100
AcDbEntity
  8
LY_3
  6
CONTINUOUS
 62
       251
100
AcDbLine
 10
-368.405823
 20
-155.788864
 30
0.0
 11
-196.405823
 21
-155.788864
 31
0.0
  0
LINE
  5
1B9
100
AcDbEntity
  8
LY_3
  6
CONTINUOUS
 62
       251
100
AcDbLine
 10
-368.405823
 20
-353.788864
 30
0.0
 11
-196.405823
 21
-353.788864
 31
0.0
  0
LINE
  5
1BA
100
AcDbEntity
  8
LY_3
  6
CONTINUOUS
 62
       251
100
AcDbLine
 10
-342.405884
 20
-67.288864
 30
0.0
 11
-370.405884
 21
-67.288864
 31
0.0
  0
LINE
  5
1BB
100
AcDbEntity
  8
LY_3
  6
CONTINUOUS
 62
       251
100
AcDbLine
 10
-342.405884
 20
-139.788864
 30
0.0
 11
-342.405884
 21
-129.347031
 31
0.0
  0
LINE
  5
1BC
100
AcDbEntity
  8
LY_3
  6
CONTINUOUS
 62
       251
100
AcDbLine
 10
-224.405884
 20
-139.788864
 30
0.0
 11
-342.405884
 21
-139.788864
 31
0.0
  0
LINE
  5
1BD
100
AcDbEntity
  8
LY_3
  6
CONTINUOUS
 62
       251
100
AcDbLine
 10
-222.405884
 20
-68.288925
 30
0.0
 11
-222.405884
 21
-76.230759
 31
0.0
  0
LINE
  5
1BE
100
AcDbEntity
  8
LY_3
  6
CONTINUOUS
 62
       251
100
AcDbLine
 10
-195.405884
 20
-67.288864
 30
0.0
 11
-221.405884
 21
-67.288864
 31
0.0
  0
LINE
  5
1BF
100
AcDbEntity
  8
LY_3
  6
CONTINUOUS
 62
       251
100
AcDbLine
 10
-194.405884
 20
-442.288864
 30
0.0
 11
-194.405884
 21
-424.288864
 31
0.0
  0
LINE
  5
1C0
100
AcDbEntity
  8
LY_3
  6
CONTINUOUS
 62
       251
100
AcDbLine
 10
-222.405884
 20
-442.288864
 30
0.0
 11
-194.405884
 21
-442.288864
 31
0.0
  0
LINE
  5
1C1
100
AcDbEntity
  8
LY_3
  6
CONTINUOUS
 62
       251
100
AcDbLine
 10
-222.405884
 20
-369.788864
 30
0.0
 11
-222.405884
 21
-442.288864
 31
0.0
  0
LINE
  5
1C2
100
AcDbEntity
  8
LY_3
  6
CONTINUOUS
 62
       251
100
AcDbLine
 10
-342.405884
 20
-369.788864
 30
0.0
 11
-222.405884
 21
-369.788864
 31
0.0
  0
LINE
  5
1C3
100
AcDbEntity
  8
LY_3
  6
CONTINUOUS
 62
       251
100
AcDbLine
 10
-342.405884
 20
-442.288864
 30
0.0
 11
-342.405884
 21
-369.788864
 31
0.0
  0
LINE
  5
1C4
100
AcDbEntity
  8
LY_3
  6
CONTINUOUS
 62
       251
100
AcDbLine
 10
-370.405884
 20
-442.288864
 30
0.0
 11
-342.405884
 21
-442.288864
 31
0.0
  0
LINE
  5
1C5
100
AcDbEntity
  8
LY_3
  6
CONTINUOUS
 62
       251
100
AcDbLine
 10
-370.405884
 20
-67.288864
 30
0.0
 11
-370.405884
 21
-85.288864
 31
0.0
  0
LINE
  5
1C6
100
AcDbEntity
  8
LY_3
  6
CONTINUOUS
 62
       251
100
AcDbLine
 10
-422.405884
 20
-436.788864
 30
0.0
 11
-394.405884
 21
-436.788864
 31
0.0
  0
LINE
  5
1C7
100
AcDbEntity
  8
LY_3
  6
CONTINUOUS
 62
       251
100
AcDbLine
 10
-422.405884
 20
-376.788864
 30
0.0
 11
-394.405884
 21
-376.788864
 31
0.0
  0
LINE
  5
1C8
100
AcDbEntity
  8
LY_3
  6
CONTINUOUS
 62
       251
100
AcDbLine
 10
-422.405884
 20
-120.288864
 30
0.0
 11
-394.405884
 21
-120.288864
 31
0.0
  0
LINE
  5
1C9
100
AcDbEntity
  8
LY_3
  6
CONTINUOUS
 62
       251
100
AcDbLine
 10
-422.405884
 20
-85.288864
 30
0.0
 11
-394.405884
 21
-85.288864
 31
0.0
  0
LINE
  5
1CA
100
AcDbEntity
  8
LY_3
  6
CONTINUOUS
 62
       251
100
AcDbLine
 10
-394.405884
 20
-67.288864
 30
0.0
 11
-422.405884
 21
-67.288864
 31
0.0
  0
LINE
  5
1CB
100
AcDbEntity
  8
LY_3
  6
CONTINUOUS
 62
       251
100
AcDbLine
 10
-422.405884
 20
-67.288864
 30
0.0
 11
-422.405884
 21
-134.788864
 31
0.0
  0
LINE
  5
1CC
100
AcDbEntity
  8
LY_3
  6
CONTINUOUS
 62
       251
100
AcDbLine
 10
-422.405884
 20
-134.788864
 30
0.0
 11
-565.405884
 21
-134.788864
 31
0.0
  0
LINE
  5
1CD
100
AcDbEntity
  8
LY_3
  6
CONTINUOUS
 62
       251
100
AcDbLine
 10
-565.405884
 20
-134.788864
 30
0.0
 11
-565.405884
 21
-374.788864
 31
0.0
  0
LINE
  5
1CE
100
AcDbEntity
  8
LY_3
  6
CONTINUOUS
 62
       251
100
AcDbLine
 10
-565.405884
 20
-374.788864
 30
0.0
 11
-422.405884
 21
-374.788864
 31
0.0
  0
LINE
  5
1CF
100
AcDbEntity
  8
LY_3
  6
CONTINUOUS
 62
       251
100
AcDbLine
 10
-422.405884
 20
-374.788864
 30
0.0
 11
-422.405884
 21
-380.230698
 31
0.0
  0
LINE
  5
1D0
100
AcDbEntity
  8
LY_3
  6
CONTINUOUS
 62
       251
100
AcDbLine
 10
-422.405884
 20
-442.288864
 30
0.0
 11
-394.405884
 21
-442.288864
 31
0.0
  0
LINE
  5
1D1
100
AcDbEntity
  8
LY_3
  6
CONTINUOUS
 62
       251
100
AcDbLine
 10
-394.405884
 20
-442.288864
 30
0.0
 11
-394.405884
 21
-424.288864
 31
0.0
  0
LINE
  5
1D2
100
AcDbEntity
  8
LY_3
  6
CONTINUOUS
 62
       251
100
AcDbLine
 10
-170.405884
 20
-436.788864
 30
0.0
 11
-142.405884
 21
-436.788864
 31
0.0
  0
LINE
  5
1D3
100
AcDbEntity
  8
LY_3
  6
CONTINUOUS
 62
       251
100
AcDbLine
 10
-170.405884
 20
-376.788864
 30
0.0
 11
-142.405884
 21
-376.788864
 31
0.0
  0
LINE
  5
1D4
100
AcDbEntity
  8
LY_3
  6
CONTINUOUS
 62
       251
100
AcDbLine
 10
-170.405884
 20
-120.288864
 30
0.0
 11
-142.405884
 21
-120.288864
 31
0.0
  0
LINE
  5
1D5
100
AcDbEntity
  8
LY_3
  6
CONTINUOUS
 62
       251
100
AcDbLine
 10
-170.405884
 20
-85.288864
 30
0.0
 11
-142.405884
 21
-85.288864
 31
0.0
  0
LINE
  5
1D6
100
AcDbEntity
  8
LY_3
  6
CONTINUOUS
 62
       251
100
AcDbLine
 10
-142.405884
 20
-67.288864
 30
0.0
 11
-170.405884
 21
-67.288864
 31
0.0
  0
LINE
  5
1D7
100
AcDbEntity
  8
LY_3
  6
CONTINUOUS
 62
       251
100
AcDbLine
 10
-142.405884
 20
-134.788864
 30
0.0
 11
-142.405884
 21
-67.288864
 31
0.0
  0
LINE
  5
1D8
100
AcDbEntity
  8
LY_3
  6
CONTINUOUS
 62
       251
100
AcDbLine
 10
0.594116
 20
-134.788864
 30
0.0
 11
-142.405884
 21
-134.788864
 31
0.0
  0
LINE
  5
1D9
100
AcDbEntity
  8
LY_3
  6
CONTINUOUS
 62
       251
100
AcDbLine
 10
0.594116
 20
-374.788864
 30
0.0
 11
0.594116
 21
-134.788864
 31
0.0
  0
LINE
  5
1DA
100
AcDbEntity
  8
LY_3
  6
CONTINUOUS
 62
       251
100
AcDbLine
 10
-142.405884
 20
-374.788864
 30
0.0
 11
0.594116
 21
-374.788864
 31
0.0
  0
LINE
  5
1DB
100
AcDbEntity
  8
LY_3
  6
CONTINUOUS
 62
       251
100
AcDbLine
 10
-142.405884
 20
-442.288864
 30
0.0
 11
-142.405884
 21
-433.346848
 31
0.0
  0
LINE
  5
1DC
100
AcDbEntity
  8
LY_3
  6
CONTINUOUS
 62
       251
100
AcDbLine
 10
-170.405884
 20
-442.288864
 30
0.0
 11
-142.405884
 21
-442.288864
 31
0.0
  0
LINE
  5
1DD
100
AcDbEntity
  8
LY_3
  6
CONTINUOUS
 62
       251
100
AcDbLine
 10
-170.405884
 20
-67.288864
 30
0.0
 11
-170.405884
 21
-85.288864
 31
0.0
  0
LINE
  5
1DE
100
AcDbEntity
  8
LY_3
  6
CONTINUOUS
 62
       251
100
AcDbLine
 10
493.652055
 20
-254.788934
 30
0.0
 11
480.373094
 21
-231.789098
 31
0.0
  0
LINE
  5
1DF
100
AcDbEntity
  8
LY_3
  6
CONTINUOUS
 62
       251
100
AcDbLine
 10
480.373324
 20
-277.788953
 30
0.0
 11
493.652376
 21
-254.788958
 31
0.0
  0
CIRCLE
  5
1E1
100
AcDbEntity
  8
LY_3
  6
PHANTOM
 62
         7
100
AcDbCircle
 10
315.093994
 20
-254.788864
 30
0.0
 40
60.0
  0
CIRCLE
  5
1E2
100
AcDbEntity
  8
LY_3
  6
PHANTOM
 62
         7
100
AcDbCircle
 10
315.093994
 20
-254.788864
 30
0.0
 40
82.5
  0
LINE
  5
1E3
100
AcDbEntity
  8
LY_3
  6
PHANTOM
 62
         7
100
AcDbLine
 10
6.927839
 20
-172.288864
 30
0.0
 11
-172.812177
 21
-172.288864
 31
0.0
  0
LINE
  5
1E4
100
AcDbEntity
  8
LY_3
  6
PHANTOM
 62
         7
100
AcDbLine
 10
6.262135
 20
-194.788864
 30
0.0
 11
-172.146473
 21
-194.788864
 31
0.0
  0
LINE
  5
1E5
100
AcDbEntity
  8
LY_3
  6
PHANTOM
 62
         7
100
AcDbLine
 10
-393.825825
 20
-172.288864
 30
0.0
 11
-572.971554
 21
-172.288864
 31
0.0
  0
LINE
  5
1E6
100
AcDbEntity
  8
LY_3
  6
PHANTOM
 62
         7
100
AcDbLine
 10
-393.160122
 20
-194.788864
 30
0.0
 11
-574.285107
 21
-194.788864
 31
0.0
  0
LINE
  5
1E7
100
AcDbEntity
  8
LY_3
  6
PHANTOM
 62
         7
100
AcDbLine
 10
6.927839
 20
-337.288864
 30
0.0
 11
-172.812177
 21
-337.288864
 31
0.0
  0
LINE
  5
1E8
100
AcDbEntity
  8
LY_3
  6
PHANTOM
 62
         7
100
AcDbLine
 10
6.262135
 20
-314.788864
 30
0.0
 11
-172.146473
 21
-314.788864
 31
0.0
  0
LINE
  5
1E9
100
AcDbEntity
  8
LY_3
  6
PHANTOM
 62
         7
100
AcDbLine
 10
-393.825825
 20
-337.288864
 30
0.0
 11
-572.971554
 21
-337.288864
 31
0.0
  0
LINE
  5
1EA
100
AcDbEntity
  8
LY_3
  6
PHANTOM
 62
         7
100
AcDbLine
 10
-393.160122
 20
-314.788864
 30
0.0
 11
-574.285107
 21
-314.788864
 31
0.0
  0
ENDSEC
  0
SECTION
  2
OBJECTS
  0
DICTIONARY
  5
19
100
AcDbDictionary
  3
ACAD_GROUP
350
1A
  3
ACAD_MLINESTYLE
350
1B
  0
DICTIONARY
  5
1A
102
{ACAD_REACTORS
330
19
102
}
100
AcDbDictionary
  0
DICTIONARY
  5
1B
102
{ACAD_REACTORS
330
19
102
}
100
AcDbDictionary
  3
STANDARD
350
1C
  0
MLINESTYLE
  5
1C
102
{ACAD_REACTORS
330
1B
102
}
100
AcDbMlineStyle
  2
Standard
 70
         0
  3

 62
         0
 51
90.0
 52
90.0
 71
         2
 49
0.5
 62
       256
  6
ByLayer
 49
-0.5
 62
       256
  6
ByLayer
  0
ENDSEC
  0
EOF
