  0
SECTION
  2
HEADER
  9
$ACADVER
  1
AC1014
  9
$ACADMAINTVER
 70
         0
  9
$DWGCODEPAGE
  3
ANSI_932
  9
$INSBASE
 10
0.0
 20
0.0
 30
0.0
  9
$EXTMIN
 10
-149.7476530076
 20
-108.8677520752
 30
0.0
  9
$EXTMAX
 10
150.31640625
 20
122.1256914138
 30
0.0
  9
$LIMMIN
 10
-149.7476530076
 20
-108.8677520752
  9
$LIMMAX
 10
150.31640625
 20
122.1256914138
  9
$ORTHOMODE
 70
         0
  9
$REGENMODE
 70
         1
  9
$FILLMODE
 70
         1
  9
$QTEXTMODE
 70
         0
  9
$MIRRTEXT
 70
         1
  9
$DRAGMODE
 70
         2
  9
$LTSCALE
 40
1.0
  9
$OSMODE
 70
         0
  9
$ATTMODE
 70
         1
  9
$TEXTSIZE
 40
3.2000000477
  9
$TRACEWID
 40
0.05
  9
$TEXTSTYLE
  7
MX_NOTE_STANDARD
  9
$CLAYER
  8
0
  9
$CELTYPE
  6
CONTINUOUS
  9
$CECOLOR
 62
       256
  9
$CELTSCALE
 40
1.0
  9
$DELOBJ
 70
         1
  9
$DISPSILH
 70
         0
  9
$DIMSCALE
 40
1.0
  9
$DIMASZ
 40
2.5
  9
$DIMEXO
 40
0.0
  9
$DIMDLI
 40
3.75
  9
$DIMRND
 40
0.0
  9
$DIMDLE
 40
0.0
  9
$DIMEXE
 40
2.5
  9
$DIMTP
 40
0.0
  9
$DIMTM
 40
0.0
  9
$DIMTXT
 40
3.2000000477
  9
$DIMCEN
 40
2.5
  9
$DIMTSZ
 40
0.0
  9
$DIMTOL
 70
         0
  9
$DIMLIM
 70
         0
  9
$DIMTIH
 70
         0
  9
$DIMTOH
 70
         0
  9
$DIMSE1
 70
         0
  9
$DIMSE2
 70
         0
  9
$DIMTAD
 70
         1
  9
$DIMZIN
 70
         8
  9
$DIMBLK
  1

  9
$DIMASO
 70
         1
  9
$DIMSHO
 70
         1
  9
$DIMPOST
  1

  9
$DIMAPOST
  1

  9
$DIMALT
 70
         0
  9
$DIMALTD
 70
         4
  9
$DIMALTF
 40
0.0393700787
  9
$DIMLFAC
 40
1.0
  9
$DIMTOFL
 70
         1
  9
$DIMTVP
 40
0.0
  9
$DIMTIX
 70
         0
  9
$DIMSOXD
 70
         0
  9
$DIMSAH
 70
         1
  9
$DIMBLK1
  1
_OPEN30
  9
$DIMBLK2
  1
_OPEN30
  9
$DIMSTYLE
  2
MXDIMSTYLE
  9
$DIMCLRD
 70
         0
  9
$DIMCLRE
 70
         0
  9
$DIMCLRT
 70
         0
  9
$DIMTFAC
 40
1.0
  9
$DIMGAP
 40
1.0
  9
$DIMJUST
 70
         0
  9
$DIMSD1
 70
         0
  9
$DIMSD2
 70
         0
  9
$DIMTOLJ
 70
         0
  9
$DIMTZIN
 70
         0
  9
$DIMALTZ
 70
         0
  9
$DIMALTTZ
 70
         0
  9
$DIMFIT
 70
         3
  9
$DIMUPT
 70
         0
  9
$DIMUNIT
 70
         2
  9
$DIMDEC
 70
         2
  9
$DIMTDEC
 70
         2
  9
$DIMALTU
 70
         2
  9
$DIMALTTD
 70
         4
  9
$DIMTXSTY
  7
MX_NOTE_STANDARD
  9
$DIMAUNIT
 70
         0
  9
$LUNITS
 70
         2
  9
$LUPREC
 70
         4
  9
$SKETCHINC
 40
0.1
  9
$FILLETRAD
 40
0.0
  9
$AUNITS
 70
         0
  9
$AUPREC
 70
         0
  9
$MENU
  1
acad
  9
$ELEVATION
 40
0.0
  9
$PELEVATION
 40
0.0
  9
$THICKNESS
 40
0.0
  9
$LIMCHECK
 70
         0
  9
$BLIPMODE
 70
         1
  9
$CHAMFERA
 40
0.0
  9
$CHAMFERB
 40
0.0
  9
$CHAMFERC
 40
0.0
  9
$CHAMFERD
 40
0.0
  9
$SKPOLY
 70
         0
  9
$TDCREATE
 40
2456603.469965278
  9
$TDUPDATE
 40
2456603.469965278
  9
$TDINDWG
 40
0.0000000000
  9
$TDUSRTIMER
 40
0.0000000000
  9
$USRTIMER
 70
         1
  9
$ANGBASE
 50
0.0
  9
$ANGDIR
 70
         0
  9
$PDMODE
 70
         0
  9
$PDSIZE
 40
0.0
  9
$PLINEWID
 40
0.0
  9
$COORDS
 70
         1
  9
$SPLFRAME
 70
         0
  9
$SPLINETYPE
 70
         6
  9
$SPLINESEGS
 70
         8
  9
$ATTDIA
 70
         0
  9
$ATTREQ
 70
         1
  9
$HANDLING
 70
         1
  9
$HANDSEED
  5
5D
  9
$SURFTAB1
 70
         6
  9
$SURFTAB2
 70
         6
  9
$SURFTYPE
 70
         6
  9
$SURFU
 70
         6
  9
$SURFV
 70
         6
  9
$UCSNAME
  2

  9
$UCSORG
 10
0.0
 20
0.0
 30
0.0
  9
$UCSXDIR
 10
1.0
 20
0.0
 30
0.0
  9
$UCSYDIR
 10
0.0
 20
1.0
 30
0.0
  9
$PUCSNAME
  2

  9
$PUCSORG
 10
0.0
 20
0.0
 30
0.0
  9
$PUCSXDIR
 10
1.0
 20
0.0
 30
0.0
  9
$PUCSYDIR
 10
0.0
 20
1.0
 30
0.0
  9
$USERI1
 70
         0
  9
$USERI2
 70
         0
  9
$USERI3
 70
         0
  9
$USERI4
 70
         0
  9
$USERI5
 70
         0
  9
$USERR1
 40
0.0
  9
$USERR2
 40
0.0
  9
$USERR3
 40
0.0
  9
$USERR4
 40
0.0
  9
$USERR5
 40
0.0
  9
$WORLDVIEW
 70
         1
  9
$SHADEDGE
 70
         3
  9
$SHADEDIF
 70
        70
  9
$TILEMODE
 70
         1
  9
$MAXACTVP
 70
        16
  9
$PINSBASE
 10
0.0
 20
0.0
 30
0.0
  9
$PLIMCHECK
 70
         0
  9
$PEXTMIN
 10
1.0000000000E+20
 20
1.0000000000E+20
 30
1.0000000000E+20
  9
$PEXTMAX
 10
-1.0000000000E+20
 20
-1.0000000000E+20
 30
-1.0000000000E+20
  9
$PLIMMIN
 10
0.0
 20
0.0
  9
$PLIMMAX
 10
12.0
 20
9.0
  9
$UNITMODE
 70
         0
  9
$VISRETAIN
 70
         0
  9
$PLINEGEN
 70
         1
  9
$PSLTSCALE
 70
         0
  9
$TREEDEPTH
 70
      3020
  9
$PICKSTYLE
 70
         1
  9
$CMLSTYLE
  2
Standard
  9
$CMLJUST
 70
         0
  9
$CMLSCALE
 40
1.0
  9
$PROXYGRAPHICS
 70
         0
  9
$MEASUREMENT
 70
         1
  0
ENDSEC
  0
SECTION
  2
CLASSES
  0
CLASS
  1
LWPOLYLINE
  2
AcDbPolyline
  3
"AutoCAD"
 90
        0
280
         0
281
         1
  0
CLASS
  1
IMAGE
  2
AcDbRasterImage
  3
ISM
 90
      127
280
         0
281
         1
  0
CLASS
  1
OLE2FRAME
  2
AcDbOle2Frame
  3
""
 90
        0
280
         0
281
         1
  0
CLASS
  1
HATCH
  2
AcDbHatch
  3
"ACAD_SEDONA"
 90
        0
280
         0
281
         1
  0
CLASS
  1
DICTIONARYVAR
  2
AcDbDictionaryVar
  3
"AutoCAD"
 90
        0
280
         0
281
         0
  0
CLASS
  1
RASTERVARIABLES
  2
AcDbRasterVariables
  3
ISM
 90
        0
280
         0
281
         0
  0
CLASS
  1
IMAGEDEF
  2
AcDbRasterImageDef
  3
ISM
 90
        0
280
         0
281
         0
  0
CLASS
  1
IMAGEDEF_REACTOR
  2
AcDbRasterImageDefReactor
  3
ISM
 90
        1
280
         0
281
         0
  0
CLASS
  1
IDBUFFER
  2
AcDbIdBuffer
  3
"Acad"
 90
        0
280
         0
281
         0
  0
CLASS
  1
SPATIAL_FILTER
  2
AcDbSpatialFilter
  3
"Acad"
 90
        0
280
         0
281
         0
  0
CLASS
  1
XRECORD
  2
AcDbXrecord
  3
"<Built In>"
 90
        0
280
         0
281
         0
  0
CLASS
  1
SORTENTSTABLE
  2
AcDbSortentsTable
  3
"AutoCAD"
 90
        0
280
         0
281
         0
  0
CLASS
  1
LAYER_INDEX
  2
AcDbLayerIndex
  3
"Acad"
 90
        0
280
         0
281
         0
  0
CLASS
  1
SPATIAL_INDEX
  2
AcDbSpatialIndex
  3
"Acad"
 90
        0
280
         0
281
         0
  0
CLASS
  1
OBJECT_PTR
  2
CAseDLPNTableRecord
  3
"ASE-LPNTableRecord"
 90
        1
280
         0
281
         0
  0
CLASS
  1
LAYOUT
  2
AcDbLayout
  3
"AutoCAD 2000"
 90
        0
280
         0
281
         0
  0
CLASS
  1
PLOTSETTINGS
  2
AcDbPlotSettings
  3
"AutoCAD 2000"
 90
        0
280
         0
281
         0
  0
CLASS
  1
ACDBDICTIONARYWDFLT
  2
AcDbDictionaryWithDefault
  3
"AutoCAD 2000"
 90
        0
280
         0
281
         0
  0
CLASS
  1
ACDBPLACEHOLDER
  2
AcDbPlaceHolder
  3
"AutoCAD 2000"
 90
        0
280
         0
281
         0
  0
ENDSEC
  0
SECTION
  2
TABLES
  0
TABLE
  2
VPORT
  5
7
100
AcDbSymbolTable
 70
         1
  0
VPORT
  5
15
100
AcDbSymbolTableRecord
100
AcDbViewportTableRecord
  2
*ACTIVE
 70
         0
 10
0.0
 20
0.0
 11
1.0
 21
1.0
 12
0.2843766212
 22
6.6289696693
 13
0.0
 23
0.0
 14
1.0
 24
1.0
 15
0.0
 25
0.0
 16
0.0
 26
0.0
 36
1.0
 17
0.0
 27
0.0
 37
0.0
 40
233.3033779239
 41
1.7320508076
 42
50.0
 43
0.0
 44
0.0
 50
0.0
 51
0.0
 71
         0
 72
       100
 73
         1
 74
         1
 75
         0
 76
         0
 77
         0
 78
         0
  0
ENDTAB
  0
TABLE
  2
LTYPE
  5
4
100
AcDbSymbolTable
 70
         5
  0
LTYPE
  5
11
100
AcDbSymbolTableRecord
100
AcDbLinetypeTableRecord
  2
BYBLOCK
 70
        64
  3

 72
        65
 73
         0
 40
0.0
  0
LTYPE
  5
12
100
AcDbSymbolTableRecord
100
AcDbLinetypeTableRecord
  2
BYLAYER
 70
        64
  3

 72
        65
 73
         0
 40
0.0
  0
LTYPE
  5
13
100
AcDbSymbolTableRecord
100
AcDbLinetypeTableRecord
  2
CONTINUOUS
 70
        64
  3
Solid line
 72
        65
 73
         0
 40
0.0
  0
LTYPE
  5
29
100
AcDbSymbolTableRecord
100
AcDbLinetypeTableRecord
  2
PHANTOM
 70
        64
  3
Phantom ______  __  __  ______  __  __  ______
 72
        65
 73
         6
 40
63.5
 49
31.75
 74
         0
 49
-6.35
 74
         0
 49
6.35
 74
         0
 49
-6.35
 74
         0
 49
6.35
 74
         0
 49
-6.35
 74
         0
  0
LTYPE
  5
41
100
AcDbSymbolTableRecord
100
AcDbLinetypeTableRecord
  2
CENTER
 70
        64
  3
Center ____ _ ____ _ ____ _ ____ _ ____ _ ____
 72
        65
 73
         4
 40
50.8
 49
31.75
 74
         0
 49
-6.35
 74
         0
 49
6.35
 74
         0
 49
-6.35
 74
         0
  0
ENDTAB
  0
TABLE
  2
LAYER
  5
2
100
AcDbSymbolTable
 70
         3
  0
LAYER
  5
14
100
AcDbSymbolTableRecord
100
AcDbLayerTableRecord
  2
0
 70
         0
 62
         7
  6
CONTINUOUS
  0
LAYER
  5
1D
100
AcDbSymbolTableRecord
100
AcDbLayerTableRecord
  2
DEFPOINTS
 70
         0
 62
         7
  6
CONTINUOUS
  0
LAYER
  5
1E
100
AcDbSymbolTableRecord
100
AcDbLayerTableRecord
  2
LY_3
 70
         0
 62
         7
  6
CONTINUOUS
  0
ENDTAB
  0
TABLE
  2
STYLE
  5
3
100
AcDbSymbolTable
 70
         1
  0
STYLE
  5
17
100
AcDbSymbolTableRecord
100
AcDbTextStyleTableRecord
  2
MX_NOTE_STANDARD
 70
         0
 40
0.0
 41
1.0
 50
0.0
 71
         0
 42
3.2000000477
  3
txt.shx
  4
extfont.shx
  0
ENDTAB
  0
TABLE
  2
VIEW
  5
5
100
AcDbSymbolTable
 70
         0
  0
ENDTAB
  0
TABLE
  2
UCS
  5
6
100
AcDbSymbolTable
 70
         0
  0
ENDTAB
  0
TABLE
  2
APPID
  5
8
100
AcDbSymbolTable
 70
         1
  0
APPID
  5
16
100
AcDbSymbolTableRecord
100
AcDbRegAppTableRecord
  2
ACAD
 70
         0
  0
ENDTAB
  0
TABLE
  2
DIMSTYLE
  5
9
100
AcDbSymbolTable
 70
         1
  0
DIMSTYLE
105
18
100
AcDbSymbolTableRecord
100
AcDbDimStyleTableRecord
  2
MXDIMSTYLE
 70
         0
  3

  4

  5

  6
_OPEN30
  7
_OPEN30
 40
1.0
 41
2.5
 42
0.0
 43
3.75
 44
2.5
 45
0.0
 46
0.0
 47
0.0
 48
0.0
 71
         0
 72
         0
 73
         0
 74
         0
 75
         0
 76
         0
 77
         1
 78
         8
140
3.2000000477
141
2.5
142
0.0
143
0.0393700787
144
1.0
145
0.0
146
1.0
147
1.0
170
         0
171
         4
172
         1
173
         1
174
         0
175
         0
176
         0
177
         0
178
         0
270
         2
271
         2
272
         2
273
         2
274
         4
275
         0
280
         0
281
         0
282
         0
283
         0
284
         0
285
         0
286
         0
287
         3
288
         0
340
17
  0
ENDTAB
  0
TABLE
  2
BLOCK_RECORD
  5
1
100
AcDbSymbolTable
 70
         1
  0
BLOCK_RECORD
  5
A
100
AcDbSymbolTableRecord
100
AcDbBlockTableRecord
  2
*MODEL_SPACE
  0
BLOCK_RECORD
  5
B
100
AcDbSymbolTableRecord
100
AcDbBlockTableRecord
  2
*PAPER_SPACE
  0
BLOCK_RECORD
  5
1F
100
AcDbSymbolTableRecord
100
AcDbBlockTableRecord
  2
_OPEN30
  0
ENDTAB
  0
ENDSEC
  0
SECTION
  2
BLOCKS
  0
BLOCK
  5
D
100
AcDbEntity
  8
0
100
AcDbBlockBegin
  2
*MODEL_SPACE
 70
         0
 10
0.0
 20
0.0
 30
0.0
  3
*MODEL_SPACE
  1

  0
ENDBLK
  5
E
100
AcDbEntity
  8
0
100
AcDbBlockEnd
  0
BLOCK
  5
F
100
AcDbEntity
 67
         1
  8
0
100
AcDbBlockBegin
  2
*PAPER_SPACE
 70
         0
 10
0.0
 20
0.0
 30
0.0
  3
*PAPER_SPACE
  1

  0
ENDBLK
  5
10
100
AcDbEntity
 67
         1
  8
0
100
AcDbBlockEnd
  0
BLOCK
  5
20
100
AcDbEntity
  8
0
  6
ByBlock
 62
         0
100
AcDbBlockBegin
  2
_OPEN30
 70
         2
 10
0.0
 20
0.0
 30
0.0
  3
_OPEN30
  1

  0
LINE
  5
21
100
AcDbEntity
  8
0
  6
ByBlock
 62
         0
100
AcDbLine
 10
-1.0
 20
0.267949
 30
0.0
 11
0.0
 21
0.0
 31
0.0
  0
LINE
  5
22
100
AcDbEntity
  8
0
  6
ByBlock
 62
         0
100
AcDbLine
 10
0.0
 20
0.0
 30
0.0
 11
-1.0
 21
-0.267949
 31
0.0
  0
LINE
  5
23
100
AcDbEntity
  8
0
  6
ByBlock
 62
         0
100
AcDbLine
 10
0.0
 20
0.0
 30
0.0
 11
-1.0
 21
0.0
 31
0.0
  0
ENDBLK
  5
24
100
AcDbEntity
  8
0
  6
ByBlock
 62
         0
100
AcDbBlockEnd
  0
ENDSEC
  0
SECTION
  2
ENTITIES
  0
MTEXT
  5
25
100
AcDbEntity
  8
0
  6
CONTINUOUS
 62
       110
100
AcDbMText
 10
-147.4464030812
 20
117.7423582077
 30
0.0
 40
13.1499996185
 41
0.0
 71
         1
 72
         1
  1
\W1.050;\A1;TSUBAKI
  0
POINT
  5
26
100
AcDbEntity
  8
LY_3
  6
CONTINUOUS
 62
       172
100
AcDbPoint
 10
-145.8262939453
 20
-51.7177734375
 30
0.0
  0
POINT
  5
27
100
AcDbEntity
  8
LY_3
  6
CONTINUOUS
 62
       172
100
AcDbPoint
 10
-11.7462759018
 20
-51.7177734375
 30
0.0
  0
POINT
  5
28
100
AcDbEntity
  8
LY_3
  6
CONTINUOUS
 62
       172
100
AcDbPoint
 10
93.1663970947
 20
-51.7177734375
 30
0.0
  0
LINE
  5
2A
100
AcDbEntity
  8
LY_3
  6
PHANTOM
 62
        80
100
AcDbLine
 10
-148.8262634277
 20
-22.7177886963
 30
0.0
 11
-90.78515625
 21
-22.7177886963
 31
0.0
  0
LINE
  5
2B
100
AcDbEntity
  8
LY_3
  6
PHANTOM
 62
        80
100
AcDbLine
 10
-148.8262634277
 20
-41.2177734375
 30
0.0
 11
-90.78515625
 21
-41.2177734375
 31
0.0
  0
LINE
  5
2C
100
AcDbEntity
  8
LY_3
  6
PHANTOM
 62
        80
100
AcDbLine
 10
-148.8262634277
 20
-62.2177581787
 30
0.0
 11
-90.78515625
 21
-62.2177581787
 31
0.0
  0
LINE
  5
2D
100
AcDbEntity
  8
LY_3
  6
PHANTOM
 62
        80
100
AcDbLine
 10
-148.8262634277
 20
-80.7177429199
 30
0.0
 11
-90.78515625
 21
-80.7177429199
 31
0.0
  0
LINE
  5
2E
100
AcDbEntity
  8
LY_3
  6
PHANTOM
 62
        80
100
AcDbLine
 10
-66.674987793
 20
-22.7177886963
 30
0.0
 11
-9.7050018311
 21
-22.7177886963
 31
0.0
  0
LINE
  5
2F
100
AcDbEntity
  8
LY_3
  6
PHANTOM
 62
        80
100
AcDbLine
 10
-66.674987793
 20
-41.2177734375
 30
0.0
 11
-9.7050018311
 21
-41.2177734375
 31
0.0
  0
LINE
  5
30
100
AcDbEntity
  8
LY_3
  6
PHANTOM
 62
        80
100
AcDbLine
 10
-66.674987793
 20
-62.2177581787
 30
0.0
 11
-9.7050018311
 21
-62.2177581787
 31
0.0
  0
LINE
  5
31
100
AcDbEntity
  8
LY_3
  6
PHANTOM
 62
        80
100
AcDbLine
 10
-66.674987793
 20
-80.7177429199
 30
0.0
 11
-9.7050018311
 21
-80.7177429199
 31
0.0
  0
LINE
  5
32
100
AcDbEntity
  8
LY_3
  6
CONTINUOUS
 62
         3
100
AcDbLine
 10
-11.7462759018
 20
-100.9276885986
 30
0.0
 11
-11.7462759018
 21
-2.5078582764
 31
0.0
  0
LINE
  5
33
100
AcDbEntity
  8
LY_3
  6
CONTINUOUS
 62
         3
100
AcDbLine
 10
-13.3362722397
 20
-0.9178161621
 30
0.0
 11
-46.6762390137
 21
-0.9178161621
 31
0.0
  0
LINE
  5
34
100
AcDbEntity
  8
LY_3
  6
CONTINUOUS
 62
         3
100
AcDbLine
 10
-46.6762390137
 20
5.4321889877
 30
0.0
 11
-65.7362365723
 21
5.4321889877
 31
0.0
  0
LINE
  5
35
100
AcDbEntity
  8
LY_3
  6
CONTINUOUS
 62
         3
100
AcDbLine
 10
-46.6762390137
 20
-108.8677368164
 30
0.0
 11
-46.6762390137
 21
5.4321889877
 31
0.0
  0
LINE
  5
36
100
AcDbEntity
  8
LY_3
  6
CONTINUOUS
 62
         3
100
AcDbLine
 10
-89.536239624
 20
-43.9677886963
 30
0.0
 11
-89.536239624
 21
-6.5567626953
 31
0.0
  0
LINE
  5
37
100
AcDbEntity
  8
LY_3
  6
CONTINUOUS
 62
         3
100
AcDbLine
 10
-65.7362365723
 20
-43.9677886963
 30
0.0
 11
-89.536239624
 21
-43.9677886963
 31
0.0
  0
LINE
  5
38
100
AcDbEntity
  8
LY_3
  6
CONTINUOUS
 62
         3
100
AcDbLine
 10
-65.7362365723
 20
-6.5567626953
 30
0.0
 11
-89.536239624
 21
-6.5567626953
 31
0.0
  0
LINE
  5
39
100
AcDbEntity
  8
LY_3
  6
CONTINUOUS
 62
         3
100
AcDbLine
 10
-91.836227417
 20
-59.4677734375
 30
0.0
 11
-91.836227417
 21
-0.1418457031
 31
0.0
  0
LINE
  5
3A
100
AcDbEntity
  8
LY_3
  6
CONTINUOUS
 62
         3
100
AcDbLine
 10
-145.8262329102
 20
-100.9399414063
 30
0.0
 11
-145.8262329102
 21
-2.5078582764
 31
0.0
  0
LINE
  5
3B
100
AcDbEntity
  8
LY_3
  6
CONTINUOUS
 62
         3
100
AcDbLine
 10
-110.8962249756
 20
-0.9178161621
 30
0.0
 11
-144.2362060547
 21
-0.9178161621
 31
0.0
  0
LINE
  5
3C
100
AcDbEntity
  8
LY_3
  6
CONTINUOUS
 62
         3
100
AcDbLine
 10
-110.8962249756
 20
-108.8677368164
 30
0.0
 11
-110.8962249756
 21
5.4321889877
 31
0.0
  0
LINE
  5
3D
100
AcDbEntity
  8
LY_3
  6
CONTINUOUS
 62
         3
100
AcDbLine
 10
-89.8362121582
 20
-59.4677734375
 30
0.0
 11
-89.8362121582
 21
-0.1418457031
 31
0.0
  0
LINE
  5
3E
100
AcDbEntity
  8
LY_3
  6
CONTINUOUS
 62
         3
100
AcDbLine
 10
-67.7362365723
 20
-0.1418457031
 30
0.0
 11
-91.836227417
 21
-0.1418457031
 31
0.0
  0
LINE
  5
3F
100
AcDbEntity
  8
LY_3
  6
CONTINUOUS
 62
         3
100
AcDbLine
 10
-67.7362365723
 20
-6.5567626953
 30
0.0
 11
-67.7362365723
 21
-0.1418457031
 31
0.0
  0
LINE
  5
40
100
AcDbEntity
  8
LY_3
  6
CONTINUOUS
 62
         3
100
AcDbLine
 10
-68.0362243652
 20
-0.1418457031
 30
0.0
 11
-68.0362243652
 21
5.4321889877
 31
0.0
  0
LINE
  5
42
100
AcDbEntity
  8
LY_3
  6
CENTER
 62
        80
100
AcDbLine
 10
-37.2462463379
 20
-47.2178039551
 30
0.0
 11
-37.2462463379
 21
3.5821523666
 31
0.0
  0
LINE
  5
43
100
AcDbEntity
  8
LY_3
  6
CONTINUOUS
 62
         3
100
AcDbLine
 10
-68.0362243652
 20
5.4321889877
 30
0.0
 11
-110.8962249756
 21
5.4321889877
 31
0.0
  0
LINE
  5
44
100
AcDbEntity
  8
LY_3
  6
CONTINUOUS
 62
         3
100
AcDbLine
 10
-65.7362365723
 20
-6.5567626953
 30
0.0
 11
-65.7362365723
 21
5.4321889877
 31
0.0
  0
LINE
  5
45
100
AcDbEntity
  8
LY_3
  6
CONTINUOUS
 62
         3
100
AcDbLine
 10
-144.2362976074
 20
-102.5177459717
 30
0.0
 11
-110.8963165283
 21
-102.5177459717
 31
0.0
  0
LINE
  5
46
100
AcDbEntity
  8
LY_3
  6
CONTINUOUS
 62
         3
100
AcDbLine
 10
-110.8963165283
 20
-108.8677520752
 30
0.0
 11
-91.8363189697
 21
-108.8677520752
 31
0.0
  0
LINE
  5
47
100
AcDbEntity
  8
LY_3
  6
CONTINUOUS
 62
         3
100
AcDbLine
 10
-68.036315918
 20
-59.4677886963
 30
0.0
 11
-68.036315918
 21
-96.8788146973
 31
0.0
  0
LINE
  5
48
100
AcDbEntity
  8
LY_3
  6
CONTINUOUS
 62
         3
100
AcDbLine
 10
-91.8363189697
 20
-59.4677886963
 30
0.0
 11
-68.036315918
 21
-59.4677886963
 31
0.0
  0
LINE
  5
49
100
AcDbEntity
  8
LY_3
  6
CONTINUOUS
 62
         3
100
AcDbLine
 10
-91.8363189697
 20
-96.8788146973
 30
0.0
 11
-68.036315918
 21
-96.8788146973
 31
0.0
  0
LINE
  5
4A
100
AcDbEntity
  8
LY_3
  6
CONTINUOUS
 62
         3
100
AcDbLine
 10
-65.736328125
 20
-43.9677886963
 30
0.0
 11
-65.736328125
 21
-103.2937316895
 31
0.0
  0
LINE
  5
4B
100
AcDbEntity
  8
LY_3
  6
CONTINUOUS
 62
         3
100
AcDbLine
 10
-46.6763305664
 20
-102.5177459717
 30
0.0
 11
-13.3363494873
 21
-102.5177459717
 31
0.0
  0
LINE
  5
4C
100
AcDbEntity
  8
LY_3
  6
CONTINUOUS
 62
         3
100
AcDbLine
 10
-67.7363433838
 20
-43.9677886963
 30
0.0
 11
-67.7363433838
 21
-103.2937316895
 31
0.0
  0
LINE
  5
4D
100
AcDbEntity
  8
LY_3
  6
CONTINUOUS
 62
         3
100
AcDbLine
 10
-89.8363189697
 20
-103.2937316895
 30
0.0
 11
-65.736328125
 21
-103.2937316895
 31
0.0
  0
LINE
  5
4E
100
AcDbEntity
  8
LY_3
  6
CONTINUOUS
 62
         3
100
AcDbLine
 10
-89.8363189697
 20
-96.8788146973
 30
0.0
 11
-89.8363189697
 21
-103.2937316895
 31
0.0
  0
LINE
  5
4F
100
AcDbEntity
  8
LY_3
  6
CONTINUOUS
 62
         3
100
AcDbLine
 10
-89.5363311768
 20
-103.2937316895
 30
0.0
 11
-89.5363311768
 21
-108.8677520752
 31
0.0
  0
LINE
  5
50
100
AcDbEntity
  8
LY_3
  6
CENTER
 62
        80
100
AcDbLine
 10
-120.3263092041
 20
-56.2177734375
 30
0.0
 11
-120.3263092041
 21
-107.0177307129
 31
0.0
  0
LINE
  5
51
100
AcDbEntity
  8
LY_3
  6
CONTINUOUS
 62
         3
100
AcDbLine
 10
-89.5363311768
 20
-108.8677520752
 30
0.0
 11
-46.6763305664
 21
-108.8677520752
 31
0.0
  0
LINE
  5
52
100
AcDbEntity
  8
LY_3
  6
CONTINUOUS
 62
         3
100
AcDbLine
 10
-91.8363189697
 20
-96.8788146973
 30
0.0
 11
-91.8363189697
 21
-108.8677520752
 31
0.0
  0
CIRCLE
  5
53
100
AcDbEntity
  8
LY_3
  6
PHANTOM
 62
        80
100
AcDbCircle
 10
93.1663970947
 20
-51.7177734375
 30
0.0
 40
10.4999980927
  0
CIRCLE
  5
54
100
AcDbEntity
  8
LY_3
  6
PHANTOM
 62
        80
100
AcDbCircle
 10
93.1663970947
 20
-51.7177734375
 30
0.0
 40
28.9999847412
  0
ARC
  5
55
100
AcDbEntity
  8
LY_3
  6
CONTINUOUS
 62
         3
100
AcDbCircle
 10
-13.3363037109
 20
-2.5078582764
 30
0.0
 40
1.5899972916
100
AcDbArc
 50
0.0000359722
 51
89.9999820139
  0
ARC
  5
56
100
AcDbEntity
  8
LY_3
  6
CONTINUOUS
 62
         3
100
AcDbCircle
 10
-144.2362213135
 20
-2.5078430176
 30
0.0
 40
1.5899972916
100
AcDbArc
 50
89.9999820139
 51
179.9999640278
  0
ARC
  5
57
100
AcDbEntity
  8
LY_3
  6
CONTINUOUS
 62
         3
100
AcDbCircle
 10
-144.2362976074
 20
-100.9277038574
 30
0.0
 40
1.5899972916
100
AcDbArc
 50
180.0000359722
 51
270.0000179861
  0
ARC
  5
58
100
AcDbEntity
  8
LY_3
  6
CONTINUOUS
 62
         3
100
AcDbCircle
 10
-13.3363494873
 20
-100.9277038574
 30
0.0
 40
1.5899972916
100
AcDbArc
 50
270.0000179861
 51
0.0
  0
CIRCLE
  5
59
100
AcDbEntity
  8
LY_3
  6
CONTINUOUS
 62
         3
100
AcDbCircle
 10
93.1664276123
 20
-51.7177429199
 30
0.0
 40
57.1499786377
  0
CIRCLE
  5
5A
100
AcDbEntity
  8
LY_3
  6
CONTINUOUS
 62
         3
100
AcDbCircle
 10
93.1664276123
 20
-51.7177429199
 30
0.0
 40
50.7999725342
  0
MTEXT
  5
5B
100
AcDbEntity
  8
LY_3
  6
CONTINUOUS
 62
       110
100
AcDbMText
 10
-108.5553398787
 20
92.6673583984
 30
0.0
 40
13.0
 41
0.0
 71
         1
 72
         1
  1
\W1.024;\A1;JAW-FLEX COUPLING
  0
MTEXT
  5
5C
100
AcDbEntity
  8
LY_3
  6
CONTINUOUS
 62
       110
100
AcDbMText
 10
-72.0705422793
 20
68.6673583984
 30
0.0
 40
15.0
 41
0.0
 71
         1
 72
         1
  1
\W1.176;\A1;L190-S,M,H
  0
ENDSEC
  0
SECTION
  2
OBJECTS
  0
DICTIONARY
  5
19
100
AcDbDictionary
  3
ACAD_GROUP
350
1A
  3
ACAD_MLINESTYLE
350
1B
  0
DICTIONARY
  5
1A
102
{ACAD_REACTORS
330
19
102
}
100
AcDbDictionary
  0
DICTIONARY
  5
1B
102
{ACAD_REACTORS
330
19
102
}
100
AcDbDictionary
  3
STANDARD
350
1C
  0
MLINESTYLE
  5
1C
102
{ACAD_REACTORS
330
1B
102
}
100
AcDbMlineStyle
  2
Standard
 70
         0
  3

 62
         0
 51
90.0
 52
90.0
 71
         2
 49
0.5
 62
       256
  6
ByLayer
 49
-0.5
 62
       256
  6
ByLayer
  0
ENDSEC
  0
EOF
