  0
SECTION
  2
HEADER
  9
$ACADVER
  1
AC1014
  9
$ACADMAINTVER
 70
         0
  9
$DWGCODEPAGE
  3
ANSI_932
  9
$INSBASE
 10
0.0
 20
0.0
 30
0.0
  9
$EXTMIN
 10
-149.7476530076
 20
-188.3208802964
 30
0.0
  9
$EXTMAX
 10
138.5000457764
 20
122.1256914138
 30
0.0
  9
$LIMMIN
 10
-149.7476530076
 20
-188.3208802964
  9
$LIMMAX
 10
138.5000457764
 20
122.1256914138
  9
$ORTHOMODE
 70
         0
  9
$REGENMODE
 70
         1
  9
$FILLMODE
 70
         1
  9
$QTEXTMODE
 70
         0
  9
$MIRRTEXT
 70
         1
  9
$DRAGMODE
 70
         2
  9
$LTSCALE
 40
1.0
  9
$OSMODE
 70
         0
  9
$ATTMODE
 70
         1
  9
$TEXTSIZE
 40
3.2000000477
  9
$TRACEWID
 40
0.05
  9
$TEXTSTYLE
  7
MX_NOTE_STANDARD
  9
$CLAYER
  8
0
  9
$CELTYPE
  6
CONTINUOUS
  9
$CECOLOR
 62
       256
  9
$CELTSCALE
 40
1.0
  9
$DELOBJ
 70
         1
  9
$DISPSILH
 70
         0
  9
$DIMSCALE
 40
1.0
  9
$DIMASZ
 40
2.5
  9
$DIMEXO
 40
0.0
  9
$DIMDLI
 40
3.75
  9
$DIMRND
 40
0.0
  9
$DIMDLE
 40
0.0
  9
$DIMEXE
 40
2.5
  9
$DIMTP
 40
0.0
  9
$DIMTM
 40
0.0
  9
$DIMTXT
 40
3.2000000477
  9
$DIMCEN
 40
2.5
  9
$DIMTSZ
 40
0.0
  9
$DIMTOL
 70
         0
  9
$DIMLIM
 70
         0
  9
$DIMTIH
 70
         0
  9
$DIMTOH
 70
         0
  9
$DIMSE1
 70
         0
  9
$DIMSE2
 70
         0
  9
$DIMTAD
 70
         1
  9
$DIMZIN
 70
         8
  9
$DIMBLK
  1

  9
$DIMASO
 70
         1
  9
$DIMSHO
 70
         1
  9
$DIMPOST
  1

  9
$DIMAPOST
  1

  9
$DIMALT
 70
         0
  9
$DIMALTD
 70
         4
  9
$DIMALTF
 40
0.0393700787
  9
$DIMLFAC
 40
1.0
  9
$DIMTOFL
 70
         1
  9
$DIMTVP
 40
0.0
  9
$DIMTIX
 70
         0
  9
$DIMSOXD
 70
         0
  9
$DIMSAH
 70
         1
  9
$DIMBLK1
  1
_OPEN30
  9
$DIMBLK2
  1
_OPEN30
  9
$DIMSTYLE
  2
MXDIMSTYLE
  9
$DIMCLRD
 70
         0
  9
$DIMCLRE
 70
         0
  9
$DIMCLRT
 70
         0
  9
$DIMTFAC
 40
1.0
  9
$DIMGAP
 40
1.0
  9
$DIMJUST
 70
         0
  9
$DIMSD1
 70
         0
  9
$DIMSD2
 70
         0
  9
$DIMTOLJ
 70
         0
  9
$DIMTZIN
 70
         0
  9
$DIMALTZ
 70
         0
  9
$DIMALTTZ
 70
         0
  9
$DIMFIT
 70
         3
  9
$DIMUPT
 70
         0
  9
$DIMUNIT
 70
         2
  9
$DIMDEC
 70
         2
  9
$DIMTDEC
 70
         2
  9
$DIMALTU
 70
         2
  9
$DIMALTTD
 70
         4
  9
$DIMTXSTY
  7
MX_NOTE_STANDARD
  9
$DIMAUNIT
 70
         0
  9
$LUNITS
 70
         2
  9
$LUPREC
 70
         4
  9
$SKETCHINC
 40
0.1
  9
$FILLETRAD
 40
0.0
  9
$AUNITS
 70
         0
  9
$AUPREC
 70
         0
  9
$MENU
  1
acad
  9
$ELEVATION
 40
0.0
  9
$PELEVATION
 40
0.0
  9
$THICKNESS
 40
0.0
  9
$LIMCHECK
 70
         0
  9
$BLIPMODE
 70
         1
  9
$CHAMFERA
 40
0.0
  9
$CHAMFERB
 40
0.0
  9
$CHAMFERC
 40
0.0
  9
$CHAMFERD
 40
0.0
  9
$SKPOLY
 70
         0
  9
$TDCREATE
 40
2456603.469965278
  9
$TDUPDATE
 40
2456603.469965278
  9
$TDINDWG
 40
0.0000000000
  9
$TDUSRTIMER
 40
0.0000000000
  9
$USRTIMER
 70
         1
  9
$ANGBASE
 50
0.0
  9
$ANGDIR
 70
         0
  9
$PDMODE
 70
         0
  9
$PDSIZE
 40
0.0
  9
$PLINEWID
 40
0.0
  9
$COORDS
 70
         1
  9
$SPLFRAME
 70
         0
  9
$SPLINETYPE
 70
         6
  9
$SPLINESEGS
 70
         8
  9
$ATTDIA
 70
         0
  9
$ATTREQ
 70
         1
  9
$HANDLING
 70
         1
  9
$HANDSEED
  5
B8
  9
$SURFTAB1
 70
         6
  9
$SURFTAB2
 70
         6
  9
$SURFTYPE
 70
         6
  9
$SURFU
 70
         6
  9
$SURFV
 70
         6
  9
$UCSNAME
  2

  9
$UCSORG
 10
0.0
 20
0.0
 30
0.0
  9
$UCSXDIR
 10
1.0
 20
0.0
 30
0.0
  9
$UCSYDIR
 10
0.0
 20
1.0
 30
0.0
  9
$PUCSNAME
  2

  9
$PUCSORG
 10
0.0
 20
0.0
 30
0.0
  9
$PUCSXDIR
 10
1.0
 20
0.0
 30
0.0
  9
$PUCSYDIR
 10
0.0
 20
1.0
 30
0.0
  9
$USERI1
 70
         0
  9
$USERI2
 70
         0
  9
$USERI3
 70
         0
  9
$USERI4
 70
         0
  9
$USERI5
 70
         0
  9
$USERR1
 40
0.0
  9
$USERR2
 40
0.0
  9
$USERR3
 40
0.0
  9
$USERR4
 40
0.0
  9
$USERR5
 40
0.0
  9
$WORLDVIEW
 70
         1
  9
$SHADEDGE
 70
         3
  9
$SHADEDIF
 70
        70
  9
$TILEMODE
 70
         1
  9
$MAXACTVP
 70
        16
  9
$PINSBASE
 10
0.0
 20
0.0
 30
0.0
  9
$PLIMCHECK
 70
         0
  9
$PEXTMIN
 10
1.0000000000E+20
 20
1.0000000000E+20
 30
1.0000000000E+20
  9
$PEXTMAX
 10
-1.0000000000E+20
 20
-1.0000000000E+20
 30
-1.0000000000E+20
  9
$PLIMMIN
 10
0.0
 20
0.0
  9
$PLIMMAX
 10
12.0
 20
9.0
  9
$UNITMODE
 70
         0
  9
$VISRETAIN
 70
         0
  9
$PLINEGEN
 70
         1
  9
$PSLTSCALE
 70
         0
  9
$TREEDEPTH
 70
      3020
  9
$PICKSTYLE
 70
         1
  9
$CMLSTYLE
  2
Standard
  9
$CMLJUST
 70
         0
  9
$CMLSCALE
 40
1.0
  9
$PROXYGRAPHICS
 70
         0
  9
$MEASUREMENT
 70
         1
  0
ENDSEC
  0
SECTION
  2
CLASSES
  0
CLASS
  1
LWPOLYLINE
  2
AcDbPolyline
  3
"AutoCAD"
 90
        0
280
         0
281
         1
  0
CLASS
  1
IMAGE
  2
AcDbRasterImage
  3
ISM
 90
      127
280
         0
281
         1
  0
CLASS
  1
OLE2FRAME
  2
AcDbOle2Frame
  3
""
 90
        0
280
         0
281
         1
  0
CLASS
  1
HATCH
  2
AcDbHatch
  3
"ACAD_SEDONA"
 90
        0
280
         0
281
         1
  0
CLASS
  1
DICTIONARYVAR
  2
AcDbDictionaryVar
  3
"AutoCAD"
 90
        0
280
         0
281
         0
  0
CLASS
  1
RASTERVARIABLES
  2
AcDbRasterVariables
  3
ISM
 90
        0
280
         0
281
         0
  0
CLASS
  1
IMAGEDEF
  2
AcDbRasterImageDef
  3
ISM
 90
        0
280
         0
281
         0
  0
CLASS
  1
IMAGEDEF_REACTOR
  2
AcDbRasterImageDefReactor
  3
ISM
 90
        1
280
         0
281
         0
  0
CLASS
  1
IDBUFFER
  2
AcDbIdBuffer
  3
"Acad"
 90
        0
280
         0
281
         0
  0
CLASS
  1
SPATIAL_FILTER
  2
AcDbSpatialFilter
  3
"Acad"
 90
        0
280
         0
281
         0
  0
CLASS
  1
XRECORD
  2
AcDbXrecord
  3
"<Built In>"
 90
        0
280
         0
281
         0
  0
CLASS
  1
SORTENTSTABLE
  2
AcDbSortentsTable
  3
"AutoCAD"
 90
        0
280
         0
281
         0
  0
CLASS
  1
LAYER_INDEX
  2
AcDbLayerIndex
  3
"Acad"
 90
        0
280
         0
281
         0
  0
CLASS
  1
SPATIAL_INDEX
  2
AcDbSpatialIndex
  3
"Acad"
 90
        0
280
         0
281
         0
  0
CLASS
  1
OBJECT_PTR
  2
CAseDLPNTableRecord
  3
"ASE-LPNTableRecord"
 90
        1
280
         0
281
         0
  0
CLASS
  1
LAYOUT
  2
AcDbLayout
  3
"AutoCAD 2000"
 90
        0
280
         0
281
         0
  0
CLASS
  1
PLOTSETTINGS
  2
AcDbPlotSettings
  3
"AutoCAD 2000"
 90
        0
280
         0
281
         0
  0
CLASS
  1
ACDBDICTIONARYWDFLT
  2
AcDbDictionaryWithDefault
  3
"AutoCAD 2000"
 90
        0
280
         0
281
         0
  0
CLASS
  1
ACDBPLACEHOLDER
  2
AcDbPlaceHolder
  3
"AutoCAD 2000"
 90
        0
280
         0
281
         0
  0
ENDSEC
  0
SECTION
  2
TABLES
  0
TABLE
  2
VPORT
  5
7
100
AcDbSymbolTable
 70
         1
  0
VPORT
  5
15
100
AcDbSymbolTableRecord
100
AcDbViewportTableRecord
  2
*ACTIVE
 70
         0
 10
0.0
 20
0.0
 11
1.0
 21
1.0
 12
-5.6238036156
 22
-33.0975944413
 13
0.0
 23
0.0
 14
1.0
 24
1.0
 15
0.0
 25
0.0
 16
0.0
 26
0.0
 36
1.0
 17
0.0
 27
0.0
 37
0.0
 40
313.5510374273
 41
1.7320508076
 42
50.0
 43
0.0
 44
0.0
 50
0.0
 51
0.0
 71
         0
 72
       100
 73
         1
 74
         1
 75
         0
 76
         0
 77
         0
 78
         0
  0
ENDTAB
  0
TABLE
  2
LTYPE
  5
4
100
AcDbSymbolTable
 70
         6
  0
LTYPE
  5
11
100
AcDbSymbolTableRecord
100
AcDbLinetypeTableRecord
  2
BYBLOCK
 70
        64
  3

 72
        65
 73
         0
 40
0.0
  0
LTYPE
  5
12
100
AcDbSymbolTableRecord
100
AcDbLinetypeTableRecord
  2
BYLAYER
 70
        64
  3

 72
        65
 73
         0
 40
0.0
  0
LTYPE
  5
13
100
AcDbSymbolTableRecord
100
AcDbLinetypeTableRecord
  2
CONTINUOUS
 70
        64
  3
Solid line
 72
        65
 73
         0
 40
0.0
  0
LTYPE
  5
45
100
AcDbSymbolTableRecord
100
AcDbLinetypeTableRecord
  2
CENTER
 70
        64
  3
Center ____ _ ____ _ ____ _ ____ _ ____ _ ____
 72
        65
 73
         4
 40
50.8
 49
31.75
 74
         0
 49
-6.35
 74
         0
 49
6.35
 74
         0
 49
-6.35
 74
         0
  0
LTYPE
  5
55
100
AcDbSymbolTableRecord
100
AcDbLinetypeTableRecord
  2
PHANTOM
 70
        64
  3
Phantom ______  __  __  ______  __  __  ______
 72
        65
 73
         6
 40
63.5
 49
31.75
 74
         0
 49
-6.35
 74
         0
 49
6.35
 74
         0
 49
-6.35
 74
         0
 49
6.35
 74
         0
 49
-6.35
 74
         0
  0
LTYPE
  5
5E
100
AcDbSymbolTableRecord
100
AcDbLinetypeTableRecord
  2
DASHED
 70
        64
  3
Dashed __ __ __ __ __ __ __ __ __ __ __ __ __ _
 72
        65
 73
         2
 40
19.05
 49
12.7
 74
         0
 49
-6.35
 74
         0
  0
ENDTAB
  0
TABLE
  2
LAYER
  5
2
100
AcDbSymbolTable
 70
         3
  0
LAYER
  5
14
100
AcDbSymbolTableRecord
100
AcDbLayerTableRecord
  2
0
 70
         0
 62
         7
  6
CONTINUOUS
  0
LAYER
  5
1D
100
AcDbSymbolTableRecord
100
AcDbLayerTableRecord
  2
DEFPOINTS
 70
         0
 62
         7
  6
CONTINUOUS
  0
LAYER
  5
1E
100
AcDbSymbolTableRecord
100
AcDbLayerTableRecord
  2
LY_3
 70
         0
 62
         7
  6
CONTINUOUS
  0
ENDTAB
  0
TABLE
  2
STYLE
  5
3
100
AcDbSymbolTable
 70
         1
  0
STYLE
  5
17
100
AcDbSymbolTableRecord
100
AcDbTextStyleTableRecord
  2
MX_NOTE_STANDARD
 70
         0
 40
0.0
 41
1.0
 50
0.0
 71
         0
 42
3.2000000477
  3
txt.shx
  4
extfont.shx
  0
ENDTAB
  0
TABLE
  2
VIEW
  5
5
100
AcDbSymbolTable
 70
         0
  0
ENDTAB
  0
TABLE
  2
UCS
  5
6
100
AcDbSymbolTable
 70
         0
  0
ENDTAB
  0
TABLE
  2
APPID
  5
8
100
AcDbSymbolTable
 70
         1
  0
APPID
  5
16
100
AcDbSymbolTableRecord
100
AcDbRegAppTableRecord
  2
ACAD
 70
         0
  0
ENDTAB
  0
TABLE
  2
DIMSTYLE
  5
9
100
AcDbSymbolTable
 70
         1
  0
DIMSTYLE
105
18
100
AcDbSymbolTableRecord
100
AcDbDimStyleTableRecord
  2
MXDIMSTYLE
 70
         0
  3

  4

  5

  6
_OPEN30
  7
_OPEN30
 40
1.0
 41
2.5
 42
0.0
 43
3.75
 44
2.5
 45
0.0
 46
0.0
 47
0.0
 48
0.0
 71
         0
 72
         0
 73
         0
 74
         0
 75
         0
 76
         0
 77
         1
 78
         8
140
3.2000000477
141
2.5
142
0.0
143
0.0393700787
144
1.0
145
0.0
146
1.0
147
1.0
170
         0
171
         4
172
         1
173
         1
174
         0
175
         0
176
         0
177
         0
178
         0
270
         2
271
         2
272
         2
273
         2
274
         4
275
         0
280
         0
281
         0
282
         0
283
         0
284
         0
285
         0
286
         0
287
         3
288
         0
340
17
  0
ENDTAB
  0
TABLE
  2
BLOCK_RECORD
  5
1
100
AcDbSymbolTable
 70
         1
  0
BLOCK_RECORD
  5
A
100
AcDbSymbolTableRecord
100
AcDbBlockTableRecord
  2
*MODEL_SPACE
  0
BLOCK_RECORD
  5
B
100
AcDbSymbolTableRecord
100
AcDbBlockTableRecord
  2
*PAPER_SPACE
  0
BLOCK_RECORD
  5
1F
100
AcDbSymbolTableRecord
100
AcDbBlockTableRecord
  2
_OPEN30
  0
ENDTAB
  0
ENDSEC
  0
SECTION
  2
BLOCKS
  0
BLOCK
  5
D
100
AcDbEntity
  8
0
100
AcDbBlockBegin
  2
*MODEL_SPACE
 70
         0
 10
0.0
 20
0.0
 30
0.0
  3
*MODEL_SPACE
  1

  0
ENDBLK
  5
E
100
AcDbEntity
  8
0
100
AcDbBlockEnd
  0
BLOCK
  5
F
100
AcDbEntity
 67
         1
  8
0
100
AcDbBlockBegin
  2
*PAPER_SPACE
 70
         0
 10
0.0
 20
0.0
 30
0.0
  3
*PAPER_SPACE
  1

  0
ENDBLK
  5
10
100
AcDbEntity
 67
         1
  8
0
100
AcDbBlockEnd
  0
BLOCK
  5
20
100
AcDbEntity
  8
0
  6
ByBlock
 62
         0
100
AcDbBlockBegin
  2
_OPEN30
 70
         2
 10
0.0
 20
0.0
 30
0.0
  3
_OPEN30
  1

  0
LINE
  5
21
100
AcDbEntity
  8
0
  6
ByBlock
 62
         0
100
AcDbLine
 10
-1.0
 20
0.267949
 30
0.0
 11
0.0
 21
0.0
 31
0.0
  0
LINE
  5
22
100
AcDbEntity
  8
0
  6
ByBlock
 62
         0
100
AcDbLine
 10
0.0
 20
0.0
 30
0.0
 11
-1.0
 21
-0.267949
 31
0.0
  0
LINE
  5
23
100
AcDbEntity
  8
0
  6
ByBlock
 62
         0
100
AcDbLine
 10
0.0
 20
0.0
 30
0.0
 11
-1.0
 21
0.0
 31
0.0
  0
ENDBLK
  5
24
100
AcDbEntity
  8
0
  6
ByBlock
 62
         0
100
AcDbBlockEnd
  0
ENDSEC
  0
SECTION
  2
ENTITIES
  0
MTEXT
  5
25
100
AcDbEntity
  8
0
  6
CONTINUOUS
 62
       110
100
AcDbMText
 10
-147.4464030812
 20
117.7423582077
 30
0.0
 40
13.1499996185
 41
0.0
 71
         1
 72
         1
  1
\W1.050;\A1;TSUBAKI
  0
POINT
  5
26
100
AcDbEntity
  8
LY_3
  6
CONTINUOUS
 62
       172
100
AcDbPoint
 10
36.0760650635
 20
-87.6708984375
 30
0.0
  0
POINT
  5
27
100
AcDbEntity
  8
LY_3
  6
CONTINUOUS
 62
       172
100
AcDbPoint
 10
-36.7239074707
 20
-87.6708984375
 30
0.0
  0
POINT
  5
28
100
AcDbEntity
  8
LY_3
  6
CONTINUOUS
 62
       172
100
AcDbPoint
 10
138.5000152588
 20
-12.547454834
 30
0.0
  0
POINT
  5
29
100
AcDbEntity
  8
LY_3
  6
CONTINUOUS
 62
       172
100
AcDbPoint
 10
-111.4999847412
 20
-12.547454834
 30
0.0
  0
POINT
  5
2A
100
AcDbEntity
  8
LY_3
  6
CONTINUOUS
 62
       172
100
AcDbPoint
 10
-61.4999847412
 20
-12.547454834
 30
0.0
  0
POINT
  5
2B
100
AcDbEntity
  8
LY_3
  6
CONTINUOUS
 62
       172
100
AcDbPoint
 10
-11.4999847412
 20
-12.547454834
 30
0.0
  0
POINT
  5
2C
100
AcDbEntity
  8
LY_3
  6
CONTINUOUS
 62
       172
100
AcDbPoint
 10
38.5000152588
 20
-12.547454834
 30
0.0
  0
POINT
  5
2D
100
AcDbEntity
  8
LY_3
  6
CONTINUOUS
 62
       172
100
AcDbPoint
 10
88.5000152588
 20
-12.547454834
 30
0.0
  0
POINT
  5
2E
100
AcDbEntity
  8
LY_3
  6
CONTINUOUS
 62
       172
100
AcDbPoint
 10
138.5000457764
 20
-169.820892334
 30
0.0
  0
POINT
  5
2F
100
AcDbEntity
  8
LY_3
  6
CONTINUOUS
 62
       172
100
AcDbPoint
 10
-111.4999542236
 20
-169.820892334
 30
0.0
  0
POINT
  5
30
100
AcDbEntity
  8
LY_3
  6
CONTINUOUS
 62
       172
100
AcDbPoint
 10
-61.4999542236
 20
-169.820892334
 30
0.0
  0
POINT
  5
31
100
AcDbEntity
  8
LY_3
  6
CONTINUOUS
 62
       172
100
AcDbPoint
 10
-11.4999542236
 20
-169.820892334
 30
0.0
  0
POINT
  5
32
100
AcDbEntity
  8
LY_3
  6
CONTINUOUS
 62
       172
100
AcDbPoint
 10
38.5000457764
 20
-169.820892334
 30
0.0
  0
POINT
  5
33
100
AcDbEntity
  8
LY_3
  6
CONTINUOUS
 62
       172
100
AcDbPoint
 10
88.5000457764
 20
-169.820892334
 30
0.0
  0
LINE
  5
34
100
AcDbEntity
  8
LY_3
  6
CONTINUOUS
 62
         3
100
AcDbLine
 10
36.0760345459
 20
-117.7423706055
 30
0.0
 11
36.0760345459
 21
-57.5993652344
 31
0.0
  0
LINE
  5
35
100
AcDbEntity
  8
LY_3
  6
CONTINUOUS
 62
         3
100
AcDbLine
 10
34.8760528564
 20
-55.520904541
 30
0.0
 11
9.0760784149
 21
-55.520904541
 31
0.0
  0
LINE
  5
36
100
AcDbEntity
  8
LY_3
  6
CONTINUOUS
 62
         3
100
AcDbLine
 10
9.0760784149
 20
-82.0708618164
 30
0.0
 11
-8.1988954544
 21
-82.0708618164
 31
0.0
  0
LINE
  5
37
100
AcDbEntity
  8
LY_3
  6
CONTINUOUS
 62
         3
100
AcDbLine
 10
9.0760784149
 20
-64.4556274414
 30
0.0
 11
-8.1988954544
 21
-64.4556274414
 31
0.0
  0
LINE
  5
38
100
AcDbEntity
  8
LY_3
  6
CONTINUOUS
 62
         3
100
AcDbLine
 10
-8.0239076614
 20
-82.0708618164
 30
0.0
 11
-8.0239076614
 21
-64.4556274414
 31
0.0
  0
LINE
  5
39
100
AcDbEntity
  8
LY_3
  6
CONTINUOUS
 62
         3
100
AcDbLine
 10
34.8760375977
 20
-119.8208312988
 30
0.0
 11
34.8760375977
 21
-55.520904541
 31
0.0
  0
LINE
  5
3A
100
AcDbEntity
  8
LY_3
  6
CONTINUOUS
 62
         3
100
AcDbLine
 10
36.0760171011
 20
-57.5993240645
 30
0.0
 11
34.8760201367
 21
-55.5208683905
 31
0.0
  0
LINE
  5
3B
100
AcDbEntity
  8
LY_3
  6
CONTINUOUS
 62
         3
100
AcDbLine
 10
-9.7239046097
 20
-93.2708892822
 30
0.0
 11
-9.7239046097
 21
-58.5213470459
 31
0.0
  0
LINE
  5
3C
100
AcDbEntity
  8
LY_3
  6
CONTINUOUS
 62
         3
100
AcDbLine
 10
-36.7238616943
 20
-117.7423858643
 30
0.0
 11
-36.7238616943
 21
-57.599395752
 31
0.0
  0
LINE
  5
3D
100
AcDbEntity
  8
LY_3
  6
CONTINUOUS
 62
         3
100
AcDbLine
 10
7.3760967255
 20
-55.520904541
 30
0.0
 11
-35.5238494873
 21
-55.520904541
 31
0.0
  0
LINE
  5
3E
100
AcDbEntity
  8
LY_3
  6
CONTINUOUS
 62
         3
100
AcDbLine
 10
7.3760967255
 20
-58.5213470459
 30
0.0
 11
7.3760967255
 21
-55.520904541
 31
0.0
  0
LINE
  5
3F
100
AcDbEntity
  8
LY_3
  6
CONTINUOUS
 62
         3
100
AcDbLine
 10
-35.5238494873
 20
-119.8208618164
 30
0.0
 11
-35.5238494873
 21
-55.520904541
 31
0.0
  0
LINE
  5
40
100
AcDbEntity
  8
LY_3
  6
CONTINUOUS
 62
         3
100
AcDbLine
 10
-35.523860836
 20
-55.5208605619
 30
0.0
 11
-36.7238730592
 21
-57.5993426648
 31
0.0
  0
LINE
  5
41
100
AcDbEntity
  8
LY_3
  6
CONTINUOUS
 62
         3
100
AcDbLine
 10
9.0760784149
 20
-64.4556274414
 30
0.0
 11
9.0760784149
 21
-55.520904541
 31
0.0
  0
LINE
  5
42
100
AcDbEntity
  8
LY_3
  6
CONTINUOUS
 62
         3
100
AcDbLine
 10
7.5510845184
 20
-58.5213470459
 30
0.0
 11
-9.7239046097
 21
-58.5213470459
 31
0.0
  0
LINE
  5
43
100
AcDbEntity
  8
LY_3
  6
CONTINUOUS
 62
         3
100
AcDbLine
 10
-8.1989107132
 20
-93.2708892822
 30
0.0
 11
-8.1989107132
 21
-58.5213317871
 31
0.0
  0
LINE
  5
44
100
AcDbEntity
  8
LY_3
  6
CONTINUOUS
 62
         3
100
AcDbLine
 10
7.5510845184
 20
-64.4556274414
 30
0.0
 11
7.5510845184
 21
-58.5213470459
 31
0.0
  0
LINE
  5
46
100
AcDbEntity
  8
LY_3
  6
CENTER
 62
        80
100
AcDbLine
 10
22.5760345459
 20
-90.6708831787
 30
0.0
 11
22.5760345459
 21
-52.520904541
 31
0.0
  0
LINE
  5
47
100
AcDbEntity
  8
LY_3
  6
CONTINUOUS
 62
         3
100
AcDbLine
 10
-35.5239257813
 20
-119.820892334
 30
0.0
 11
-9.7239217758
 21
-119.820892334
 31
0.0
  0
LINE
  5
48
100
AcDbEntity
  8
LY_3
  6
CONTINUOUS
 62
         3
100
AcDbLine
 10
-9.7239217758
 20
-93.270904541
 30
0.0
 11
7.551071167
 21
-93.270904541
 31
0.0
  0
LINE
  5
49
100
AcDbEntity
  8
LY_3
  6
CONTINUOUS
 62
         3
100
AcDbLine
 10
-9.7239217758
 20
-110.8861541748
 30
0.0
 11
7.551071167
 21
-110.8861541748
 31
0.0
  0
LINE
  5
4A
100
AcDbEntity
  8
LY_3
  6
CONTINUOUS
 62
         3
100
AcDbLine
 10
7.3760681152
 20
-93.270904541
 30
0.0
 11
7.3760681152
 21
-110.8861541748
 31
0.0
  0
LINE
  5
4B
100
AcDbEntity
  8
LY_3
  6
CONTINUOUS
 62
         3
100
AcDbLine
 10
-36.723939232
 20
-117.7423677527
 30
0.0
 11
-35.5239422676
 21
-119.8208234267
 31
0.0
  0
LINE
  5
4C
100
AcDbEntity
  8
LY_3
  6
CONTINUOUS
 62
         3
100
AcDbLine
 10
9.0760650635
 20
-82.0708770752
 30
0.0
 11
9.0760650635
 21
-116.8204498291
 31
0.0
  0
LINE
  5
4D
100
AcDbEntity
  8
LY_3
  6
CONTINUOUS
 62
         3
100
AcDbLine
 10
-8.0239400864
 20
-119.820892334
 30
0.0
 11
34.8760528564
 21
-119.820892334
 31
0.0
  0
LINE
  5
4E
100
AcDbEntity
  8
LY_3
  6
CONTINUOUS
 62
         3
100
AcDbLine
 10
-8.0239400864
 20
-116.8204498291
 30
0.0
 11
-8.0239400864
 21
-119.820892334
 31
0.0
  0
LINE
  5
4F
100
AcDbEntity
  8
LY_3
  6
CONTINUOUS
 62
         3
100
AcDbLine
 10
34.8760598805
 20
-119.8208267683
 30
0.0
 11
36.0760721037
 21
-117.7423446653
 31
0.0
  0
LINE
  5
50
100
AcDbEntity
  8
LY_3
  6
CONTINUOUS
 62
         3
100
AcDbLine
 10
-9.7239217758
 20
-110.8861541748
 30
0.0
 11
-9.7239217758
 21
-119.820892334
 31
0.0
  0
LINE
  5
51
100
AcDbEntity
  8
LY_3
  6
CONTINUOUS
 62
         3
100
AcDbLine
 10
-8.1989278793
 20
-116.8204498291
 30
0.0
 11
9.0760650635
 21
-116.8204498291
 31
0.0
  0
LINE
  5
52
100
AcDbEntity
  8
LY_3
  6
CONTINUOUS
 62
         3
100
AcDbLine
 10
7.551071167
 20
-82.0708770752
 30
0.0
 11
7.551071167
 21
-116.8204498291
 31
0.0
  0
LINE
  5
53
100
AcDbEntity
  8
LY_3
  6
CONTINUOUS
 62
         3
100
AcDbLine
 10
-8.1989278793
 20
-110.8861541748
 30
0.0
 11
-8.1989278793
 21
-116.8204498291
 31
0.0
  0
LINE
  5
54
100
AcDbEntity
  8
LY_3
  6
CENTER
 62
        80
100
AcDbLine
 10
-23.2239074707
 20
-84.6708984375
 30
0.0
 11
-23.2239074707
 21
-122.820892334
 31
0.0
  0
LINE
  5
56
100
AcDbEntity
  8
LY_3
  6
PHANTOM
 62
        80
100
AcDbLine
 10
-37.7239074707
 20
-70.1708984375
 30
0.0
 11
-8.9219045639
 21
-70.1708984375
 31
0.0
  0
LINE
  5
57
100
AcDbEntity
  8
LY_3
  6
PHANTOM
 62
        80
100
AcDbLine
 10
-37.7239074707
 20
-80.6708984375
 30
0.0
 11
-8.9219045639
 21
-80.6708984375
 31
0.0
  0
LINE
  5
58
100
AcDbEntity
  8
LY_3
  6
PHANTOM
 62
        80
100
AcDbLine
 10
-37.7239074707
 20
-94.6708984375
 30
0.0
 11
-8.9219045639
 21
-94.6708984375
 31
0.0
  0
LINE
  5
59
100
AcDbEntity
  8
LY_3
  6
PHANTOM
 62
        80
100
AcDbLine
 10
-37.7239074707
 20
-105.1708984375
 30
0.0
 11
-8.9219045639
 21
-105.1708984375
 31
0.0
  0
LINE
  5
5A
100
AcDbEntity
  8
LY_3
  6
PHANTOM
 62
        80
100
AcDbLine
 10
8.2831573486
 20
-70.1708984375
 30
0.0
 11
37.0390472412
 21
-70.1708984375
 31
0.0
  0
LINE
  5
5B
100
AcDbEntity
  8
LY_3
  6
PHANTOM
 62
        80
100
AcDbLine
 10
8.2831573486
 20
-80.6708984375
 30
0.0
 11
37.0390472412
 21
-80.6708984375
 31
0.0
  0
LINE
  5
5C
100
AcDbEntity
  8
LY_3
  6
PHANTOM
 62
        80
100
AcDbLine
 10
8.2831573486
 20
-94.6708984375
 30
0.0
 11
37.0390472412
 21
-94.6708984375
 31
0.0
  0
LINE
  5
5D
100
AcDbEntity
  8
LY_3
  6
PHANTOM
 62
        80
100
AcDbLine
 10
8.2831573486
 20
-105.1708984375
 30
0.0
 11
37.0390472412
 21
-105.1708984375
 31
0.0
  0
LINE
  5
5F
100
AcDbEntity
  8
LY_3
  6
DASHED
 62
        80
100
AcDbLine
 10
111.4999694824
 20
4.9525146484
 30
0.0
 11
137.4999389648
 21
4.9525146484
 31
0.0
  0
LINE
  5
60
100
AcDbEntity
  8
LY_3
  6
DASHED
 62
        80
100
AcDbLine
 10
137.4999694824
 20
4.9524993896
 30
0.0
 11
137.4999694824
 21
-30.047454834
 31
0.0
  0
LINE
  5
61
100
AcDbEntity
  8
LY_3
  6
DASHED
 62
        80
100
AcDbLine
 10
111.4999694824
 20
-30.0474395752
 30
0.0
 11
137.4999542236
 21
-30.0474395752
 31
0.0
  0
LINE
  5
62
100
AcDbEntity
  8
LY_3
  6
DASHED
 62
        80
100
AcDbLine
 10
137.4999325299
 20
4.9524772354
 30
0.0
 11
138.499922819
 21
5.9524675245
 31
0.0
  0
LINE
  5
63
100
AcDbEntity
  8
LY_3
  6
DASHED
 62
        80
100
AcDbLine
 10
137.4999325299
 20
-30.0474742025
 30
0.0
 11
138.499922819
 21
-31.0474644916
 31
0.0
  0
LINE
  5
64
100
AcDbEntity
  8
LY_3
  6
DASHED
 62
        80
100
AcDbLine
 10
111.4999694824
 20
8.2525177002
 30
0.0
 11
138.4999542236
 21
8.2525177002
 31
0.0
  0
LINE
  5
65
100
AcDbEntity
  8
LY_3
  6
DASHED
 62
        80
100
AcDbLine
 10
-138.4999542236
 20
-0.5474710464
 30
0.0
 11
-112.4999847412
 21
-0.5474710464
 31
0.0
  0
LINE
  5
66
100
AcDbEntity
  8
LY_3
  6
DASHED
 62
        80
100
AcDbLine
 10
-112.4999694824
 20
-0.5474710464
 30
0.0
 11
-112.4999694824
 21
-24.5474395752
 31
0.0
  0
LINE
  5
67
100
AcDbEntity
  8
LY_3
  6
DASHED
 62
        80
100
AcDbLine
 10
-138.4999542236
 20
-24.5474395752
 30
0.0
 11
-112.4999847412
 21
-24.5474395752
 31
0.0
  0
LINE
  5
68
100
AcDbEntity
  8
LY_3
  6
DASHED
 62
        80
100
AcDbLine
 10
-112.4999595103
 20
-0.5474855391
 30
0.0
 11
-111.4999692212
 21
0.45250475
 31
0.0
  0
LINE
  5
69
100
AcDbEntity
  8
LY_3
  6
DASHED
 62
        80
100
AcDbLine
 10
-112.4999487207
 20
-24.54745748
 30
0.0
 11
-111.4999584316
 21
-25.5474477691
 31
0.0
  0
LINE
  5
6A
100
AcDbEntity
  8
LY_3
  6
DASHED
 62
        80
100
AcDbLine
 10
-138.4999542236
 20
2.7525320053
 30
0.0
 11
-111.4999694824
 21
2.7525320053
 31
0.0
  0
LINE
  5
6B
100
AcDbEntity
  8
LY_3
  6
DASHED
 62
        80
100
AcDbLine
 10
-88.4999694824
 20
-0.0474710464
 30
0.0
 11
-62.5
 21
-0.0474710464
 31
0.0
  0
LINE
  5
6C
100
AcDbEntity
  8
LY_3
  6
DASHED
 62
        80
100
AcDbLine
 10
-62.4999847412
 20
-0.0474863052
 30
0.0
 11
-62.4999847412
 21
-25.047454834
 31
0.0
  0
LINE
  5
6D
100
AcDbEntity
  8
LY_3
  6
DASHED
 62
        80
100
AcDbLine
 10
-88.4999694824
 20
-25.0474395752
 30
0.0
 11
-62.5
 21
-25.0474395752
 31
0.0
  0
LINE
  5
6E
100
AcDbEntity
  8
LY_3
  6
DASHED
 62
        80
100
AcDbLine
 10
-62.4999595231
 20
-0.0474849998
 30
0.0
 11
-61.4999692339
 21
0.9525052894
 31
0.0
  0
LINE
  5
6F
100
AcDbEntity
  8
LY_3
  6
DASHED
 62
        80
100
AcDbLine
 10
-62.4999379439
 20
-25.0474472298
 30
0.0
 11
-61.4999476548
 21
-26.0474375189
 31
0.0
  0
LINE
  5
70
100
AcDbEntity
  8
LY_3
  6
DASHED
 62
        80
100
AcDbLine
 10
-88.4999694824
 20
3.2525320053
 30
0.0
 11
-61.4999847412
 21
3.2525320053
 31
0.0
  0
LINE
  5
71
100
AcDbEntity
  8
LY_3
  6
DASHED
 62
        80
100
AcDbLine
 10
-38.4999694824
 20
1.4525289536
 30
0.0
 11
-12.4999990463
 21
1.4525289536
 31
0.0
  0
LINE
  5
72
100
AcDbEntity
  8
LY_3
  6
DASHED
 62
        80
100
AcDbLine
 10
-12.4999990463
 20
1.4525136948
 30
0.0
 11
-12.4999990463
 21
-26.547454834
 31
0.0
  0
LINE
  5
73
100
AcDbEntity
  8
LY_3
  6
DASHED
 62
        80
100
AcDbLine
 10
-38.4999694824
 20
-26.5474395752
 30
0.0
 11
-12.4999837875
 21
-26.5474395752
 31
0.0
  0
LINE
  5
74
100
AcDbEntity
  8
LY_3
  6
DASHED
 62
        80
100
AcDbLine
 10
-12.5000026942
 20
1.4524707625
 30
0.0
 11
-11.5000124051
 21
2.4524610516
 31
0.0
  0
LINE
  5
75
100
AcDbEntity
  8
LY_3
  6
DASHED
 62
        80
100
AcDbLine
 10
-12.4999649306
 20
-26.5474434531
 30
0.0
 11
-11.4999746415
 21
-27.5474337422
 31
0.0
  0
LINE
  5
76
100
AcDbEntity
  8
LY_3
  6
DASHED
 62
        80
100
AcDbLine
 10
-38.4999694824
 20
4.7525177002
 30
0.0
 11
-11.4999837875
 21
4.7525177002
 31
0.0
  0
LINE
  5
77
100
AcDbEntity
  8
LY_3
  6
DASHED
 62
        80
100
AcDbLine
 10
11.5000133514
 20
2.4525289536
 30
0.0
 11
37.4999389648
 21
2.4525289536
 31
0.0
  0
LINE
  5
78
100
AcDbEntity
  8
LY_3
  6
DASHED
 62
        80
100
AcDbLine
 10
37.4999694824
 20
2.4525136948
 30
0.0
 11
37.4999694824
 21
-27.547454834
 31
0.0
  0
LINE
  5
79
100
AcDbEntity
  8
LY_3
  6
DASHED
 62
        80
100
AcDbLine
 10
11.5000133514
 20
-27.5474395752
 30
0.0
 11
37.4999542236
 21
-27.5474395752
 31
0.0
  0
LINE
  5
7A
100
AcDbEntity
  8
LY_3
  6
DASHED
 62
        80
100
AcDbLine
 10
37.4999541346
 20
2.452463749
 30
0.0
 11
38.4999444238
 21
3.4524540381
 31
0.0
  0
LINE
  5
7B
100
AcDbEntity
  8
LY_3
  6
DASHED
 62
        80
100
AcDbLine
 10
37.4999945956
 20
-27.5474418344
 30
0.0
 11
38.4999848847
 21
-28.5474321235
 31
0.0
  0
LINE
  5
7C
100
AcDbEntity
  8
LY_3
  6
DASHED
 62
        80
100
AcDbLine
 10
11.5000133514
 20
5.7525177002
 30
0.0
 11
38.4999542236
 21
5.7525177002
 31
0.0
  0
LINE
  5
7D
100
AcDbEntity
  8
LY_3
  6
DASHED
 62
        80
100
AcDbLine
 10
61.4999694824
 20
3.4525289536
 30
0.0
 11
87.4999389648
 21
3.4525289536
 31
0.0
  0
LINE
  5
7E
100
AcDbEntity
  8
LY_3
  6
DASHED
 62
        80
100
AcDbLine
 10
87.4999694824
 20
3.4525136948
 30
0.0
 11
87.4999694824
 21
-28.547454834
 31
0.0
  0
LINE
  5
7F
100
AcDbEntity
  8
LY_3
  6
DASHED
 62
        80
100
AcDbLine
 10
61.4999694824
 20
-28.5474395752
 30
0.0
 11
87.4999542236
 21
-28.5474395752
 31
0.0
  0
LINE
  5
80
100
AcDbEntity
  8
LY_3
  6
DASHED
 62
        80
100
AcDbLine
 10
87.4999433323
 20
3.4524648277
 30
0.0
 11
88.4999336214
 21
4.4524551169
 31
0.0
  0
LINE
  5
81
100
AcDbEntity
  8
LY_3
  6
DASHED
 62
        80
100
AcDbLine
 10
87.4999541219
 20
-28.5474725844
 30
0.0
 11
88.499944411
 21
-29.5474628736
 31
0.0
  0
LINE
  5
82
100
AcDbEntity
  8
LY_3
  6
DASHED
 62
        80
100
AcDbLine
 10
61.4999694824
 20
6.7525177002
 30
0.0
 11
88.4999542236
 21
6.7525177002
 31
0.0
  0
LINE
  5
83
100
AcDbEntity
  8
LY_3
  6
DASHED
 62
        80
100
AcDbLine
 10
111.4999847412
 20
-152.3209075928
 30
0.0
 11
137.4997711182
 21
-152.3209075928
 31
0.0
  0
LINE
  5
84
100
AcDbEntity
  8
LY_3
  6
DASHED
 62
        80
100
AcDbLine
 10
137.4997711182
 20
-152.3209228516
 30
0.0
 11
137.4997711182
 21
-187.320892334
 31
0.0
  0
LINE
  5
85
100
AcDbEntity
  8
LY_3
  6
DASHED
 62
        80
100
AcDbLine
 10
111.4999847412
 20
-187.3208770752
 30
0.0
 11
137.4997711182
 21
-187.3208770752
 31
0.0
  0
LINE
  5
86
100
AcDbEntity
  8
LY_3
  6
DASHED
 62
        80
100
AcDbLine
 10
137.4999810831
 20
-152.3209439642
 30
0.0
 11
138.4999713722
 21
-151.3209536751
 31
0.0
  0
LINE
  5
87
100
AcDbEntity
  8
LY_3
  6
DASHED
 62
        80
100
AcDbLine
 10
137.4999864779
 20
-187.3208900073
 30
0.0
 11
138.499976767
 21
-188.3208802964
 31
0.0
  0
LINE
  5
88
100
AcDbEntity
  8
LY_3
  6
DASHED
 62
        80
100
AcDbLine
 10
111.4999847412
 20
-148.8209075928
 30
0.0
 11
138.4997711182
 21
-148.8209075928
 31
0.0
  0
LINE
  5
89
100
AcDbEntity
  8
LY_3
  6
DASHED
 62
        80
100
AcDbLine
 10
-138.4999389648
 20
-157.8209075928
 30
0.0
 11
-112.4999542236
 21
-157.8209075928
 31
0.0
  0
LINE
  5
8A
100
AcDbEntity
  8
LY_3
  6
DASHED
 62
        80
100
AcDbLine
 10
-112.4999389648
 20
-157.8209075928
 30
0.0
 11
-112.4999389648
 21
-181.8208770752
 31
0.0
  0
LINE
  5
8B
100
AcDbEntity
  8
LY_3
  6
DASHED
 62
        80
100
AcDbLine
 10
-138.4999389648
 20
-181.8208770752
 30
0.0
 11
-112.4999542236
 21
-181.8208770752
 31
0.0
  0
LINE
  5
8C
100
AcDbEntity
  8
LY_3
  6
DASHED
 62
        80
100
AcDbLine
 10
-112.4999595103
 20
-157.8208905543
 30
0.0
 11
-111.4999692212
 21
-156.8209002652
 31
0.0
  0
LINE
  5
8D
100
AcDbEntity
  8
LY_3
  6
DASHED
 62
        80
100
AcDbLine
 10
-112.4999379311
 20
-181.8208517056
 30
0.0
 11
-111.499947642
 21
-182.8208419947
 31
0.0
  0
LINE
  5
8E
100
AcDbEntity
  8
LY_3
  6
DASHED
 62
        80
100
AcDbLine
 10
-138.4999389648
 20
-154.820892334
 30
0.0
 11
-111.4999389648
 21
-154.820892334
 31
0.0
  0
LINE
  5
8F
100
AcDbEntity
  8
LY_3
  6
DASHED
 62
        80
100
AcDbLine
 10
-88.4999542236
 20
-157.3209075928
 30
0.0
 11
-62.4999542236
 21
-157.3209075928
 31
0.0
  0
LINE
  5
90
100
AcDbEntity
  8
LY_3
  6
DASHED
 62
        80
100
AcDbLine
 10
-62.4999389648
 20
-157.3209228516
 30
0.0
 11
-62.4999389648
 21
-182.320892334
 31
0.0
  0
LINE
  5
91
100
AcDbEntity
  8
LY_3
  6
DASHED
 62
        80
100
AcDbLine
 10
-88.4999542236
 20
-182.3208770752
 30
0.0
 11
-62.4999542236
 21
-182.3208770752
 31
0.0
  0
LINE
  5
92
100
AcDbEntity
  8
LY_3
  6
DASHED
 62
        80
100
AcDbLine
 10
-62.4999487335
 20
-157.3209008045
 30
0.0
 11
-61.4999584444
 21
-156.3209105154
 31
0.0
  0
LINE
  5
93
100
AcDbEntity
  8
LY_3
  6
DASHED
 62
        80
100
AcDbLine
 10
-62.4999271543
 20
-182.3208630346
 30
0.0
 11
-61.4999368652
 21
-183.3208533237
 31
0.0
  0
LINE
  5
94
100
AcDbEntity
  8
LY_3
  6
DASHED
 62
        80
100
AcDbLine
 10
-88.4999542236
 20
-154.320892334
 30
0.0
 11
-61.4999389648
 21
-154.320892334
 31
0.0
  0
LINE
  5
95
100
AcDbEntity
  8
LY_3
  6
DASHED
 62
        80
100
AcDbLine
 10
-38.4999542236
 20
-155.8209075928
 30
0.0
 11
-12.49995327
 21
-155.8209075928
 31
0.0
  0
LINE
  5
96
100
AcDbEntity
  8
LY_3
  6
DASHED
 62
        80
100
AcDbLine
 10
-12.49995327
 20
-155.8209228516
 30
0.0
 11
-12.49995327
 21
-183.820892334
 31
0.0
  0
LINE
  5
97
100
AcDbEntity
  8
LY_3
  6
DASHED
 62
        80
100
AcDbLine
 10
-38.4999542236
 20
-183.8208770752
 30
0.0
 11
-12.4999380112
 21
-183.8208770752
 31
0.0
  0
LINE
  5
98
100
AcDbEntity
  8
LY_3
  6
DASHED
 62
        80
100
AcDbLine
 10
-12.4999595358
 20
-155.8209531344
 30
0.0
 11
-11.4999692467
 21
-154.8209628453
 31
0.0
  0
LINE
  5
99
100
AcDbEntity
  8
LY_3
  6
DASHED
 62
        80
100
AcDbLine
 10
-12.4999379566
 20
-183.8208754422
 30
0.0
 11
-11.4999476675
 21
-184.8208657313
 31
0.0
  0
LINE
  5
9A
100
AcDbEntity
  8
LY_3
  6
DASHED
 62
        80
100
AcDbLine
 10
-38.4999542236
 20
-152.8209075928
 30
0.0
 11
-11.4999380112
 21
-152.8209075928
 31
0.0
  0
LINE
  5
9B
100
AcDbEntity
  8
LY_3
  6
DASHED
 62
        80
100
AcDbLine
 10
11.5000286102
 20
-154.8209075928
 30
0.0
 11
37.4999694824
 21
-154.8209075928
 31
0.0
  0
LINE
  5
9C
100
AcDbEntity
  8
LY_3
  6
DASHED
 62
        80
100
AcDbLine
 10
37.4999847412
 20
-154.8209228516
 30
0.0
 11
37.4999847412
 21
-184.820892334
 31
0.0
  0
LINE
  5
9D
100
AcDbEntity
  8
LY_3
  6
DASHED
 62
        80
100
AcDbLine
 10
11.5000286102
 20
-184.8208770752
 30
0.0
 11
37.4999694824
 21
-184.8208770752
 31
0.0
  0
LINE
  5
9E
100
AcDbEntity
  8
LY_3
  6
DASHED
 62
        80
100
AcDbLine
 10
37.5000188722
 20
-154.8209412661
 30
0.0
 11
38.5000091613
 21
-153.820950977
 31
0.0
  0
LINE
  5
9F
100
AcDbEntity
  8
LY_3
  6
DASHED
 62
        80
100
AcDbLine
 10
37.5000404514
 20
-184.8208657313
 30
0.0
 11
38.5000307405
 21
-185.8208560204
 31
0.0
  0
LINE
  5
A0
100
AcDbEntity
  8
LY_3
  6
DASHED
 62
        80
100
AcDbLine
 10
11.5000286102
 20
-151.8209075928
 30
0.0
 11
38.4999847412
 21
-151.8209075928
 31
0.0
  0
LINE
  5
A1
100
AcDbEntity
  8
LY_3
  6
DASHED
 62
        80
100
AcDbLine
 10
61.4999847412
 20
-153.8209075928
 30
0.0
 11
87.4999542236
 21
-153.8209075928
 31
0.0
  0
LINE
  5
A2
100
AcDbEntity
  8
LY_3
  6
DASHED
 62
        80
100
AcDbLine
 10
87.4999847412
 20
-153.8209228516
 30
0.0
 11
87.4999847412
 21
-185.820892334
 31
0.0
  0
LINE
  5
A3
100
AcDbEntity
  8
LY_3
  6
DASHED
 62
        80
100
AcDbLine
 10
61.4999847412
 20
-185.8208770752
 30
0.0
 11
87.4999694824
 21
-185.8208770752
 31
0.0
  0
LINE
  5
A4
100
AcDbEntity
  8
LY_3
  6
DASHED
 62
        80
100
AcDbLine
 10
87.4999972802
 20
-153.820950977
 30
0.0
 11
88.4999875694
 21
-152.8209606879
 31
0.0
  0
LINE
  5
A5
100
AcDbEntity
  8
LY_3
  6
DASHED
 62
        80
100
AcDbLine
 10
87.5000188594
 20
-185.8208775996
 30
0.0
 11
88.5000091485
 21
-186.8208678887
 31
0.0
  0
LINE
  5
A6
100
AcDbEntity
  8
LY_3
  6
DASHED
 62
        80
100
AcDbLine
 10
61.4999847412
 20
-150.3209075928
 30
0.0
 11
88.4999694824
 21
-150.3209075928
 31
0.0
  0
MTEXT
  5
A7
100
AcDbEntity
  8
LY_3
  6
CONTINUOUS
 62
       110
100
AcDbMText
 10
-108.5553398787
 20
92.6673583984
 30
0.0
 40
13.0
 41
0.0
 71
         1
 72
         1
  1
\W1.024;\A1;JAW-FLEX COUPLING
  0
MTEXT
  5
A8
100
AcDbEntity
  8
LY_3
  6
CONTINUOUS
 62
       110
100
AcDbMText
 10
-72.1815300643
 20
68.6673583984
 30
0.0
 40
15.0
 41
0.0
 71
         1
 72
         1
  1
\W1.132;\A1;L099-S,M,H
  0
MTEXT
  5
A9
100
AcDbEntity
  8
LY_3
  6
CONTINUOUS
 62
       110
100
AcDbMText
 10
-27.736478561
 20
40.8627471923
 30
0.0
 40
3.1499938965
 41
0.0
 71
         1
 72
         1
  1
\W1.230;\A1;J: JIS B 1301-1976
  0
MTEXT
  5
AA
100
AcDbEntity
  8
LY_3
  6
CONTINUOUS
 62
       110
100
AcDbMText
 10
-33.8472875479
 20
46.6423797607
 30
0.0
 40
3.1499938965
 41
0.0
 71
         1
 72
         1
  1
\W1.010;\A1;KEY WAY
  0
MTEXT
  5
AB
100
AcDbEntity
  8
LY_3
  6
CONTINUOUS
 62
       110
100
AcDbMText
 10
-27.736478561
 20
32.9153747558
 30
0.0
 40
3.1499938965
 41
0.0
 71
         1
 72
         1
  1
\W1.230;\A1;E: JIS B 1301-1959
  0
MTEXT
  5
AC
100
AcDbEntity
  8
LY_3
  6
CONTINUOUS
 62
       110
100
AcDbMText
 10
118.0125020345
 20
17.0072231292
 30
0.0
 40
3.1499938965
 41
0.0
 71
         1
 72
         1
  1
\A1;35J
  0
MTEXT
  5
AD
100
AcDbEntity
  8
LY_3
  6
CONTINUOUS
 62
       110
100
AcDbMText
 10
-130.5304667155
 20
17.0072231292
 30
0.0
 40
3.1499938965
 41
0.0
 71
         1
 72
         1
  1
\A1;24JN
  0
MTEXT
  5
AE
100
AcDbEntity
  8
LY_3
  6
CONTINUOUS
 62
       110
100
AcDbMText
 10
-78.1429545085
 20
17.0072231292
 30
0.0
 40
3.1499938965
 41
0.0
 71
         1
 72
         1
  1
\A1;25J
  0
MTEXT
  5
AF
100
AcDbEntity
  8
LY_3
  6
CONTINUOUS
 62
       110
100
AcDbMText
 10
-31.410929362
 20
17.0072231292
 30
0.0
 40
3.1499938965
 41
0.0
 71
         1
 72
         1
  1
\A1;28JN
  0
MTEXT
  5
B0
100
AcDbEntity
  8
LY_3
  6
CONTINUOUS
 62
       110
100
AcDbMText
 10
21.0074346245
 20
17.0072231292
 30
0.0
 40
3.1499938965
 41
0.0
 71
         1
 72
         1
  1
\W1.059;\A1;30J
  0
MTEXT
  5
B1
100
AcDbEntity
  8
LY_3
  6
CONTINUOUS
 62
       110
100
AcDbMText
 10
70.982808431
 20
17.0072231292
 30
0.0
 40
3.1499938965
 41
0.0
 71
         1
 72
         1
  1
\A1;32J
  0
MTEXT
  5
B2
100
AcDbEntity
  8
LY_3
  6
CONTINUOUS
 62
       110
100
AcDbMText
 10
119.5513356527
 20
-139.8937835694
 30
0.0
 40
3.1499938965
 41
0.0
 71
         1
 72
         1
  1
\A1;35E
  0
MTEXT
  5
B3
100
AcDbEntity
  8
LY_3
  6
CONTINUOUS
 62
       110
100
AcDbMText
 10
-79.245493571
 20
-139.8937835694
 30
0.0
 40
3.1499938965
 41
0.0
 71
         1
 72
         1
  1
\A1;25E
  0
MTEXT
  5
B4
100
AcDbEntity
  8
LY_3
  6
CONTINUOUS
 62
       110
100
AcDbMText
 10
-30.929377238
 20
-139.8937835694
 30
0.0
 40
3.1499938965
 41
0.0
 71
         1
 72
         1
  1
\A1;28EN
  0
MTEXT
  5
B5
100
AcDbEntity
  8
LY_3
  6
CONTINUOUS
 62
       110
100
AcDbMText
 10
18.8929021538
 20
-139.8937835694
 30
0.0
 40
3.1499938965
 41
0.0
 71
         1
 72
         1
  1
\W1.059;\A1;30E
  0
MTEXT
  5
B6
100
AcDbEntity
  8
LY_3
  6
CONTINUOUS
 62
       110
100
AcDbMText
 10
69.0222676595
 20
-139.8937835694
 30
0.0
 40
3.1499938965
 41
0.0
 71
         1
 72
         1
  1
\A1;32E
  0
MTEXT
  5
B7
100
AcDbEntity
  8
LY_3
  6
CONTINUOUS
 62
       110
100
AcDbMText
 10
-131.6186930339
 20
-139.8937835694
 30
0.0
 40
3.1499938965
 41
0.0
 71
         1
 72
         1
  1
\A1;24EN
  0
ENDSEC
  0
SECTION
  2
OBJECTS
  0
DICTIONARY
  5
19
100
AcDbDictionary
  3
ACAD_GROUP
350
1A
  3
ACAD_MLINESTYLE
350
1B
  0
DICTIONARY
  5
1A
102
{ACAD_REACTORS
330
19
102
}
100
AcDbDictionary
  0
DICTIONARY
  5
1B
102
{ACAD_REACTORS
330
19
102
}
100
AcDbDictionary
  3
STANDARD
350
1C
  0
MLINESTYLE
  5
1C
102
{ACAD_REACTORS
330
1B
102
}
100
AcDbMlineStyle
  2
Standard
 70
         0
  3

 62
         0
 51
90.0
 52
90.0
 71
         2
 49
0.5
 62
       256
  6
ByLayer
 49
-0.5
 62
       256
  6
ByLayer
  0
ENDSEC
  0
EOF
