  0
SECTION
  2
HEADER
  9
$ACADVER
  1
AC1014
  9
$ACADMAINTVER
 70
         0
  9
$DWGCODEPAGE
  3
ANSI_932
  9
$INSBASE
 10
0.0
 20
0.0
 30
0.0
  9
$EXTMIN
 10
-149.7476530076
 20
-165.5271455127
 30
0.0
  9
$EXTMAX
 10
135.59765625
 20
122.1256914138
 30
0.0
  9
$LIMMIN
 10
-149.7476530076
 20
-165.5271455127
  9
$LIMMAX
 10
135.59765625
 20
122.1256914138
  9
$ORTHOMODE
 70
         0
  9
$REGENMODE
 70
         1
  9
$FILLMODE
 70
         1
  9
$QTEXTMODE
 70
         0
  9
$MIRRTEXT
 70
         1
  9
$DRAGMODE
 70
         2
  9
$LTSCALE
 40
1.0
  9
$OSMODE
 70
         0
  9
$ATTMODE
 70
         1
  9
$TEXTSIZE
 40
3.2000000477
  9
$TRACEWID
 40
0.05
  9
$TEXTSTYLE
  7
MX_NOTE_STANDARD
  9
$CLAYER
  8
0
  9
$CELTYPE
  6
CONTINUOUS
  9
$CECOLOR
 62
       256
  9
$CELTSCALE
 40
1.0
  9
$DELOBJ
 70
         1
  9
$DISPSILH
 70
         0
  9
$DIMSCALE
 40
1.0
  9
$DIMASZ
 40
2.5
  9
$DIMEXO
 40
0.0
  9
$DIMDLI
 40
3.75
  9
$DIMRND
 40
0.0
  9
$DIMDLE
 40
0.0
  9
$DIMEXE
 40
2.5
  9
$DIMTP
 40
0.0
  9
$DIMTM
 40
0.0
  9
$DIMTXT
 40
3.2000000477
  9
$DIMCEN
 40
2.5
  9
$DIMTSZ
 40
0.0
  9
$DIMTOL
 70
         0
  9
$DIMLIM
 70
         0
  9
$DIMTIH
 70
         0
  9
$DIMTOH
 70
         0
  9
$DIMSE1
 70
         0
  9
$DIMSE2
 70
         0
  9
$DIMTAD
 70
         1
  9
$DIMZIN
 70
         8
  9
$DIMBLK
  1

  9
$DIMASO
 70
         1
  9
$DIMSHO
 70
         1
  9
$DIMPOST
  1

  9
$DIMAPOST
  1

  9
$DIMALT
 70
         0
  9
$DIMALTD
 70
         4
  9
$DIMALTF
 40
0.0393700787
  9
$DIMLFAC
 40
1.0
  9
$DIMTOFL
 70
         1
  9
$DIMTVP
 40
0.0
  9
$DIMTIX
 70
         0
  9
$DIMSOXD
 70
         0
  9
$DIMSAH
 70
         1
  9
$DIMBLK1
  1
_OPEN30
  9
$DIMBLK2
  1
_OPEN30
  9
$DIMSTYLE
  2
MXDIMSTYLE
  9
$DIMCLRD
 70
         0
  9
$DIMCLRE
 70
         0
  9
$DIMCLRT
 70
         0
  9
$DIMTFAC
 40
1.0
  9
$DIMGAP
 40
1.0
  9
$DIMJUST
 70
         0
  9
$DIMSD1
 70
         0
  9
$DIMSD2
 70
         0
  9
$DIMTOLJ
 70
         0
  9
$DIMTZIN
 70
         0
  9
$DIMALTZ
 70
         0
  9
$DIMALTTZ
 70
         0
  9
$DIMFIT
 70
         3
  9
$DIMUPT
 70
         0
  9
$DIMUNIT
 70
         2
  9
$DIMDEC
 70
         2
  9
$DIMTDEC
 70
         2
  9
$DIMALTU
 70
         2
  9
$DIMALTTD
 70
         4
  9
$DIMTXSTY
  7
MX_NOTE_STANDARD
  9
$DIMAUNIT
 70
         0
  9
$LUNITS
 70
         2
  9
$LUPREC
 70
         4
  9
$SKETCHINC
 40
0.1
  9
$FILLETRAD
 40
0.0
  9
$AUNITS
 70
         0
  9
$AUPREC
 70
         0
  9
$MENU
  1
acad
  9
$ELEVATION
 40
0.0
  9
$PELEVATION
 40
0.0
  9
$THICKNESS
 40
0.0
  9
$LIMCHECK
 70
         0
  9
$BLIPMODE
 70
         1
  9
$CHAMFERA
 40
0.0
  9
$CHAMFERB
 40
0.0
  9
$CHAMFERC
 40
0.0
  9
$CHAMFERD
 40
0.0
  9
$SKPOLY
 70
         0
  9
$TDCREATE
 40
2456603.469965278
  9
$TDUPDATE
 40
2456603.469965278
  9
$TDINDWG
 40
0.0000000000
  9
$TDUSRTIMER
 40
0.0000000000
  9
$USRTIMER
 70
         1
  9
$ANGBASE
 50
0.0
  9
$ANGDIR
 70
         0
  9
$PDMODE
 70
         0
  9
$PDSIZE
 40
0.0
  9
$PLINEWID
 40
0.0
  9
$COORDS
 70
         1
  9
$SPLFRAME
 70
         0
  9
$SPLINETYPE
 70
         6
  9
$SPLINESEGS
 70
         8
  9
$ATTDIA
 70
         0
  9
$ATTREQ
 70
         1
  9
$HANDLING
 70
         1
  9
$HANDSEED
  5
B8
  9
$SURFTAB1
 70
         6
  9
$SURFTAB2
 70
         6
  9
$SURFTYPE
 70
         6
  9
$SURFU
 70
         6
  9
$SURFV
 70
         6
  9
$UCSNAME
  2

  9
$UCSORG
 10
0.0
 20
0.0
 30
0.0
  9
$UCSXDIR
 10
1.0
 20
0.0
 30
0.0
  9
$UCSYDIR
 10
0.0
 20
1.0
 30
0.0
  9
$PUCSNAME
  2

  9
$PUCSORG
 10
0.0
 20
0.0
 30
0.0
  9
$PUCSXDIR
 10
1.0
 20
0.0
 30
0.0
  9
$PUCSYDIR
 10
0.0
 20
1.0
 30
0.0
  9
$USERI1
 70
         0
  9
$USERI2
 70
         0
  9
$USERI3
 70
         0
  9
$USERI4
 70
         0
  9
$USERI5
 70
         0
  9
$USERR1
 40
0.0
  9
$USERR2
 40
0.0
  9
$USERR3
 40
0.0
  9
$USERR4
 40
0.0
  9
$USERR5
 40
0.0
  9
$WORLDVIEW
 70
         1
  9
$SHADEDGE
 70
         3
  9
$SHADEDIF
 70
        70
  9
$TILEMODE
 70
         1
  9
$MAXACTVP
 70
        16
  9
$PINSBASE
 10
0.0
 20
0.0
 30
0.0
  9
$PLIMCHECK
 70
         0
  9
$PEXTMIN
 10
1.0000000000E+20
 20
1.0000000000E+20
 30
1.0000000000E+20
  9
$PEXTMAX
 10
-1.0000000000E+20
 20
-1.0000000000E+20
 30
-1.0000000000E+20
  9
$PLIMMIN
 10
0.0
 20
0.0
  9
$PLIMMAX
 10
12.0
 20
9.0
  9
$UNITMODE
 70
         0
  9
$VISRETAIN
 70
         0
  9
$PLINEGEN
 70
         1
  9
$PSLTSCALE
 70
         0
  9
$TREEDEPTH
 70
      3020
  9
$PICKSTYLE
 70
         1
  9
$CMLSTYLE
  2
Standard
  9
$CMLJUST
 70
         0
  9
$CMLSCALE
 40
1.0
  9
$PROXYGRAPHICS
 70
         0
  9
$MEASUREMENT
 70
         1
  0
ENDSEC
  0
SECTION
  2
CLASSES
  0
CLASS
  1
LWPOLYLINE
  2
AcDbPolyline
  3
"AutoCAD"
 90
        0
280
         0
281
         1
  0
CLASS
  1
IMAGE
  2
AcDbRasterImage
  3
ISM
 90
      127
280
         0
281
         1
  0
CLASS
  1
OLE2FRAME
  2
AcDbOle2Frame
  3
""
 90
        0
280
         0
281
         1
  0
CLASS
  1
HATCH
  2
AcDbHatch
  3
"ACAD_SEDONA"
 90
        0
280
         0
281
         1
  0
CLASS
  1
DICTIONARYVAR
  2
AcDbDictionaryVar
  3
"AutoCAD"
 90
        0
280
         0
281
         0
  0
CLASS
  1
RASTERVARIABLES
  2
AcDbRasterVariables
  3
ISM
 90
        0
280
         0
281
         0
  0
CLASS
  1
IMAGEDEF
  2
AcDbRasterImageDef
  3
ISM
 90
        0
280
         0
281
         0
  0
CLASS
  1
IMAGEDEF_REACTOR
  2
AcDbRasterImageDefReactor
  3
ISM
 90
        1
280
         0
281
         0
  0
CLASS
  1
IDBUFFER
  2
AcDbIdBuffer
  3
"Acad"
 90
        0
280
         0
281
         0
  0
CLASS
  1
SPATIAL_FILTER
  2
AcDbSpatialFilter
  3
"Acad"
 90
        0
280
         0
281
         0
  0
CLASS
  1
XRECORD
  2
AcDbXrecord
  3
"<Built In>"
 90
        0
280
         0
281
         0
  0
CLASS
  1
SORTENTSTABLE
  2
AcDbSortentsTable
  3
"AutoCAD"
 90
        0
280
         0
281
         0
  0
CLASS
  1
LAYER_INDEX
  2
AcDbLayerIndex
  3
"Acad"
 90
        0
280
         0
281
         0
  0
CLASS
  1
SPATIAL_INDEX
  2
AcDbSpatialIndex
  3
"Acad"
 90
        0
280
         0
281
         0
  0
CLASS
  1
OBJECT_PTR
  2
CAseDLPNTableRecord
  3
"ASE-LPNTableRecord"
 90
        1
280
         0
281
         0
  0
CLASS
  1
LAYOUT
  2
AcDbLayout
  3
"AutoCAD 2000"
 90
        0
280
         0
281
         0
  0
CLASS
  1
PLOTSETTINGS
  2
AcDbPlotSettings
  3
"AutoCAD 2000"
 90
        0
280
         0
281
         0
  0
CLASS
  1
ACDBDICTIONARYWDFLT
  2
AcDbDictionaryWithDefault
  3
"AutoCAD 2000"
 90
        0
280
         0
281
         0
  0
CLASS
  1
ACDBPLACEHOLDER
  2
AcDbPlaceHolder
  3
"AutoCAD 2000"
 90
        0
280
         0
281
         0
  0
ENDSEC
  0
SECTION
  2
TABLES
  0
TABLE
  2
VPORT
  5
7
100
AcDbSymbolTable
 70
         1
  0
VPORT
  5
15
100
AcDbSymbolTableRecord
100
AcDbViewportTableRecord
  2
*ACTIVE
 70
         0
 10
0.0
 20
0.0
 11
1.0
 21
1.0
 12
-7.0749983788
 22
-21.7007270494
 13
0.0
 23
0.0
 14
1.0
 24
1.0
 15
0.0
 25
0.0
 16
0.0
 26
0.0
 36
1.0
 17
0.0
 27
0.0
 37
0.0
 40
290.5293652958
 41
1.7320508076
 42
50.0
 43
0.0
 44
0.0
 50
0.0
 51
0.0
 71
         0
 72
       100
 73
         1
 74
         1
 75
         0
 76
         0
 77
         0
 78
         0
  0
ENDTAB
  0
TABLE
  2
LTYPE
  5
4
100
AcDbSymbolTable
 70
         6
  0
LTYPE
  5
11
100
AcDbSymbolTableRecord
100
AcDbLinetypeTableRecord
  2
BYBLOCK
 70
        64
  3

 72
        65
 73
         0
 40
0.0
  0
LTYPE
  5
12
100
AcDbSymbolTableRecord
100
AcDbLinetypeTableRecord
  2
BYLAYER
 70
        64
  3

 72
        65
 73
         0
 40
0.0
  0
LTYPE
  5
13
100
AcDbSymbolTableRecord
100
AcDbLinetypeTableRecord
  2
CONTINUOUS
 70
        64
  3
Solid line
 72
        65
 73
         0
 40
0.0
  0
LTYPE
  5
42
100
AcDbSymbolTableRecord
100
AcDbLinetypeTableRecord
  2
CENTER
 70
        64
  3
Center ____ _ ____ _ ____ _ ____ _ ____ _ ____
 72
        65
 73
         4
 40
50.8
 49
31.75
 74
         0
 49
-6.35
 74
         0
 49
6.35
 74
         0
 49
-6.35
 74
         0
  0
LTYPE
  5
55
100
AcDbSymbolTableRecord
100
AcDbLinetypeTableRecord
  2
PHANTOM
 70
        64
  3
Phantom ______  __  __  ______  __  __  ______
 72
        65
 73
         6
 40
63.5
 49
31.75
 74
         0
 49
-6.35
 74
         0
 49
6.35
 74
         0
 49
-6.35
 74
         0
 49
6.35
 74
         0
 49
-6.35
 74
         0
  0
LTYPE
  5
5E
100
AcDbSymbolTableRecord
100
AcDbLinetypeTableRecord
  2
DASHED
 70
        64
  3
Dashed __ __ __ __ __ __ __ __ __ __ __ __ __ _
 72
        65
 73
         2
 40
19.05
 49
12.7
 74
         0
 49
-6.35
 74
         0
  0
ENDTAB
  0
TABLE
  2
LAYER
  5
2
100
AcDbSymbolTable
 70
         3
  0
LAYER
  5
14
100
AcDbSymbolTableRecord
100
AcDbLayerTableRecord
  2
0
 70
         0
 62
         7
  6
CONTINUOUS
  0
LAYER
  5
1D
100
AcDbSymbolTableRecord
100
AcDbLayerTableRecord
  2
DEFPOINTS
 70
         0
 62
         7
  6
CONTINUOUS
  0
LAYER
  5
1E
100
AcDbSymbolTableRecord
100
AcDbLayerTableRecord
  2
LY_3
 70
         0
 62
         7
  6
CONTINUOUS
  0
ENDTAB
  0
TABLE
  2
STYLE
  5
3
100
AcDbSymbolTable
 70
         1
  0
STYLE
  5
17
100
AcDbSymbolTableRecord
100
AcDbTextStyleTableRecord
  2
MX_NOTE_STANDARD
 70
         0
 40
0.0
 41
1.0
 50
0.0
 71
         0
 42
3.2000000477
  3
txt.shx
  4
extfont.shx
  0
ENDTAB
  0
TABLE
  2
VIEW
  5
5
100
AcDbSymbolTable
 70
         0
  0
ENDTAB
  0
TABLE
  2
UCS
  5
6
100
AcDbSymbolTable
 70
         0
  0
ENDTAB
  0
TABLE
  2
APPID
  5
8
100
AcDbSymbolTable
 70
         1
  0
APPID
  5
16
100
AcDbSymbolTableRecord
100
AcDbRegAppTableRecord
  2
ACAD
 70
         0
  0
ENDTAB
  0
TABLE
  2
DIMSTYLE
  5
9
100
AcDbSymbolTable
 70
         1
  0
DIMSTYLE
105
18
100
AcDbSymbolTableRecord
100
AcDbDimStyleTableRecord
  2
MXDIMSTYLE
 70
         0
  3

  4

  5

  6
_OPEN30
  7
_OPEN30
 40
1.0
 41
2.5
 42
0.0
 43
3.75
 44
2.5
 45
0.0
 46
0.0
 47
0.0
 48
0.0
 71
         0
 72
         0
 73
         0
 74
         0
 75
         0
 76
         0
 77
         1
 78
         8
140
3.2000000477
141
2.5
142
0.0
143
0.0393700787
144
1.0
145
0.0
146
1.0
147
1.0
170
         0
171
         4
172
         1
173
         1
174
         0
175
         0
176
         0
177
         0
178
         0
270
         2
271
         2
272
         2
273
         2
274
         4
275
         0
280
         0
281
         0
282
         0
283
         0
284
         0
285
         0
286
         0
287
         3
288
         0
340
17
  0
ENDTAB
  0
TABLE
  2
BLOCK_RECORD
  5
1
100
AcDbSymbolTable
 70
         1
  0
BLOCK_RECORD
  5
A
100
AcDbSymbolTableRecord
100
AcDbBlockTableRecord
  2
*MODEL_SPACE
  0
BLOCK_RECORD
  5
B
100
AcDbSymbolTableRecord
100
AcDbBlockTableRecord
  2
*PAPER_SPACE
  0
BLOCK_RECORD
  5
1F
100
AcDbSymbolTableRecord
100
AcDbBlockTableRecord
  2
_OPEN30
  0
ENDTAB
  0
ENDSEC
  0
SECTION
  2
BLOCKS
  0
BLOCK
  5
D
100
AcDbEntity
  8
0
100
AcDbBlockBegin
  2
*MODEL_SPACE
 70
         0
 10
0.0
 20
0.0
 30
0.0
  3
*MODEL_SPACE
  1

  0
ENDBLK
  5
E
100
AcDbEntity
  8
0
100
AcDbBlockEnd
  0
BLOCK
  5
F
100
AcDbEntity
 67
         1
  8
0
100
AcDbBlockBegin
  2
*PAPER_SPACE
 70
         0
 10
0.0
 20
0.0
 30
0.0
  3
*PAPER_SPACE
  1

  0
ENDBLK
  5
10
100
AcDbEntity
 67
         1
  8
0
100
AcDbBlockEnd
  0
BLOCK
  5
20
100
AcDbEntity
  8
0
  6
ByBlock
 62
         0
100
AcDbBlockBegin
  2
_OPEN30
 70
         2
 10
0.0
 20
0.0
 30
0.0
  3
_OPEN30
  1

  0
LINE
  5
21
100
AcDbEntity
  8
0
  6
ByBlock
 62
         0
100
AcDbLine
 10
-1.0
 20
0.267949
 30
0.0
 11
0.0
 21
0.0
 31
0.0
  0
LINE
  5
22
100
AcDbEntity
  8
0
  6
ByBlock
 62
         0
100
AcDbLine
 10
0.0
 20
0.0
 30
0.0
 11
-1.0
 21
-0.267949
 31
0.0
  0
LINE
  5
23
100
AcDbEntity
  8
0
  6
ByBlock
 62
         0
100
AcDbLine
 10
0.0
 20
0.0
 30
0.0
 11
-1.0
 21
0.0
 31
0.0
  0
ENDBLK
  5
24
100
AcDbEntity
  8
0
  6
ByBlock
 62
         0
100
AcDbBlockEnd
  0
ENDSEC
  0
SECTION
  2
ENTITIES
  0
MTEXT
  5
25
100
AcDbEntity
  8
0
  6
CONTINUOUS
 62
       110
100
AcDbMText
 10
-147.4464030812
 20
117.7423582077
 30
0.0
 40
13.1499996185
 41
0.0
 71
         1
 72
         1
  1
\W1.050;\A1;TSUBAKI
  0
POINT
  5
26
100
AcDbEntity
  8
LY_3
  6
CONTINUOUS
 62
       172
100
AcDbPoint
 10
27.1999816895
 20
-80.5271453857
 30
0.0
  0
POINT
  5
27
100
AcDbEntity
  8
LY_3
  6
CONTINUOUS
 62
       172
100
AcDbPoint
 10
-27.200012207
 20
-80.5271453857
 30
0.0
  0
POINT
  5
28
100
AcDbEntity
  8
LY_3
  6
CONTINUOUS
 62
       172
100
AcDbPoint
 10
-114.4023284912
 20
-20.5271453857
 30
0.0
  0
POINT
  5
29
100
AcDbEntity
  8
LY_3
  6
CONTINUOUS
 62
       172
100
AcDbPoint
 10
-64.4023284912
 20
-20.5271453857
 30
0.0
  0
POINT
  5
2A
100
AcDbEntity
  8
LY_3
  6
CONTINUOUS
 62
       172
100
AcDbPoint
 10
-14.4023399353
 20
-20.5271453857
 30
0.0
  0
POINT
  5
2B
100
AcDbEntity
  8
LY_3
  6
CONTINUOUS
 62
       172
100
AcDbPoint
 10
35.59765625
 20
-20.5271453857
 30
0.0
  0
POINT
  5
2C
100
AcDbEntity
  8
LY_3
  6
CONTINUOUS
 62
       172
100
AcDbPoint
 10
85.59765625
 20
-20.5271453857
 30
0.0
  0
POINT
  5
2D
100
AcDbEntity
  8
LY_3
  6
CONTINUOUS
 62
       172
100
AcDbPoint
 10
135.59765625
 20
-20.5271453857
 30
0.0
  0
POINT
  5
2E
100
AcDbEntity
  8
LY_3
  6
CONTINUOUS
 62
       172
100
AcDbPoint
 10
-114.4023284912
 20
-150.5271453857
 30
0.0
  0
POINT
  5
2F
100
AcDbEntity
  8
LY_3
  6
CONTINUOUS
 62
       172
100
AcDbPoint
 10
-64.4023284912
 20
-150.5271453857
 30
0.0
  0
POINT
  5
30
100
AcDbEntity
  8
LY_3
  6
CONTINUOUS
 62
       172
100
AcDbPoint
 10
35.5976715088
 20
-150.5271453857
 30
0.0
  0
POINT
  5
31
100
AcDbEntity
  8
LY_3
  6
CONTINUOUS
 62
       172
100
AcDbPoint
 10
85.5976715088
 20
-150.5271453857
 30
0.0
  0
POINT
  5
32
100
AcDbEntity
  8
LY_3
  6
CONTINUOUS
 62
       172
100
AcDbPoint
 10
135.5975494385
 20
-150.5271453857
 30
0.0
  0
POINT
  5
33
100
AcDbEntity
  8
LY_3
  6
CONTINUOUS
 62
       172
100
AcDbPoint
 10
-14.4022979736
 20
-150.5271453857
 30
0.0
  0
LINE
  5
34
100
AcDbEntity
  8
LY_3
  6
CONTINUOUS
 62
         3
100
AcDbLine
 10
27.1999816895
 20
-105.2486114502
 30
0.0
 11
27.1999816895
 21
-55.8056182861
 31
0.0
  0
LINE
  5
35
100
AcDbEntity
  8
LY_3
  6
CONTINUOUS
 62
         3
100
AcDbLine
 10
25.9999694824
 20
-53.7271575928
 30
0.0
 11
6.5999908447
 21
-53.7271575928
 31
0.0
  0
LINE
  5
36
100
AcDbEntity
  8
LY_3
  6
CONTINUOUS
 62
         3
100
AcDbLine
 10
25.9999694824
 20
-107.3271026611
 30
0.0
 11
25.9999694824
 21
-53.7271575928
 31
0.0
  0
LINE
  5
37
100
AcDbEntity
  8
LY_3
  6
CONTINUOUS
 62
         3
100
AcDbLine
 10
27.1999584861
 20
-55.8056177904
 30
0.0
 11
25.9999538923
 21
-53.727148902
 31
0.0
  0
LINE
  5
38
100
AcDbEntity
  8
LY_3
  6
CONTINUOUS
 62
         3
100
AcDbLine
 10
-6.6000032425
 20
-85.1271514893
 30
0.0
 11
-6.6000032425
 21
-56.4938049316
 31
0.0
  0
LINE
  5
39
100
AcDbEntity
  8
LY_3
  6
CONTINUOUS
 62
         3
100
AcDbLine
 10
4.8999938965
 20
-53.7271575928
 30
0.0
 11
-25.9999389648
 21
-53.7271575928
 31
0.0
  0
LINE
  5
3A
100
AcDbEntity
  8
LY_3
  6
CONTINUOUS
 62
         3
100
AcDbLine
 10
-25.999967303
 20
-53.7271587786
 30
0.0
 11
-27.199994785
 21
-55.8056673106
 31
0.0
  0
LINE
  5
3B
100
AcDbEntity
  8
LY_3
  6
CONTINUOUS
 62
         3
100
AcDbLine
 10
5.5899963379
 20
-56.4938049316
 30
0.0
 11
-6.6000032425
 21
-56.4938049316
 31
0.0
  0
LINE
  5
3C
100
AcDbEntity
  8
LY_3
  6
CONTINUOUS
 62
         3
100
AcDbLine
 10
4.8999938965
 20
-56.4938049316
 30
0.0
 11
4.8999938965
 21
-53.7271575928
 31
0.0
  0
LINE
  5
3D
100
AcDbEntity
  8
LY_3
  6
CONTINUOUS
 62
         3
100
AcDbLine
 10
6.5999908447
 20
-75.9270935059
 30
0.0
 11
-5.5899934769
 21
-75.9270935059
 31
0.0
  0
LINE
  5
3E
100
AcDbEntity
  8
LY_3
  6
CONTINUOUS
 62
         3
100
AcDbLine
 10
6.5999908447
 20
-60.6334075928
 30
0.0
 11
-5.5899934769
 21
-60.6334075928
 31
0.0
  0
LINE
  5
3F
100
AcDbEntity
  8
LY_3
  6
CONTINUOUS
 62
         3
100
AcDbLine
 10
5.5899963379
 20
-60.6334075928
 30
0.0
 11
5.5899963379
 21
-56.4938049316
 31
0.0
  0
LINE
  5
40
100
AcDbEntity
  8
LY_3
  6
CONTINUOUS
 62
         3
100
AcDbLine
 10
6.5999908447
 20
-60.6334075928
 30
0.0
 11
6.5999908447
 21
-53.7271575928
 31
0.0
  0
LINE
  5
41
100
AcDbEntity
  8
LY_3
  6
CONTINUOUS
 62
         3
100
AcDbLine
 10
-4.9000062943
 20
-75.9270935059
 30
0.0
 11
-4.9000062943
 21
-60.6334075928
 31
0.0
  0
LINE
  5
43
100
AcDbEntity
  8
LY_3
  6
CENTER
 62
        80
100
AcDbLine
 10
16.6999816895
 20
-77.9771270752
 30
0.0
 11
16.6999816895
 21
-50.7271575928
 31
0.0
  0
LINE
  5
44
100
AcDbEntity
  8
LY_3
  6
CONTINUOUS
 62
         3
100
AcDbLine
 10
-27.200012207
 20
-55.8056945801
 30
0.0
 11
-27.200012207
 21
-105.2486572266
 31
0.0
  0
LINE
  5
45
100
AcDbEntity
  8
LY_3
  6
CONTINUOUS
 62
         3
100
AcDbLine
 10
-26.0
 20
-107.3271331787
 30
0.0
 11
-6.6000061035
 21
-107.3271331787
 31
0.0
  0
LINE
  5
46
100
AcDbEntity
  8
LY_3
  6
CONTINUOUS
 62
         3
100
AcDbLine
 10
-26.0
 20
-53.7271728516
 30
0.0
 11
-26.0
 21
-107.3271331787
 31
0.0
  0
LINE
  5
47
100
AcDbEntity
  8
LY_3
  6
CONTINUOUS
 62
         3
100
AcDbLine
 10
-27.2000062859
 20
-105.2486185388
 30
0.0
 11
-26.0000016922
 21
-107.3270874273
 31
0.0
  0
LINE
  5
48
100
AcDbEntity
  8
LY_3
  6
CONTINUOUS
 62
         3
100
AcDbLine
 10
6.5999908447
 20
-75.9271087646
 30
0.0
 11
6.5999908447
 21
-104.5604705811
 31
0.0
  0
LINE
  5
49
100
AcDbEntity
  8
LY_3
  6
CONTINUOUS
 62
         3
100
AcDbLine
 10
-4.9000091553
 20
-107.3271331787
 30
0.0
 11
25.9999694824
 21
-107.3271331787
 31
0.0
  0
LINE
  5
4A
100
AcDbEntity
  8
LY_3
  6
CONTINUOUS
 62
         3
100
AcDbLine
 10
25.9999600044
 20
-107.3270985975
 30
0.0
 11
27.1999874863
 21
-105.2485900655
 31
0.0
  0
LINE
  5
4B
100
AcDbEntity
  8
LY_3
  6
CONTINUOUS
 62
         3
100
AcDbLine
 10
5.5899810791
 20
-75.9271087646
 30
0.0
 11
5.5899810791
 21
-104.5604705811
 31
0.0
  0
LINE
  5
4C
100
AcDbEntity
  8
LY_3
  6
CONTINUOUS
 62
         3
100
AcDbLine
 10
-5.5900115967
 20
-104.5604705811
 30
0.0
 11
6.5999908447
 21
-104.5604705811
 31
0.0
  0
LINE
  5
4D
100
AcDbEntity
  8
LY_3
  6
CONTINUOUS
 62
         3
100
AcDbLine
 10
-4.9000091553
 20
-104.5604705811
 30
0.0
 11
-4.9000091553
 21
-107.3271331787
 31
0.0
  0
LINE
  5
4E
100
AcDbEntity
  8
LY_3
  6
CONTINUOUS
 62
         3
100
AcDbLine
 10
-6.6000061035
 20
-85.127166748
 30
0.0
 11
5.5899810791
 21
-85.127166748
 31
0.0
  0
LINE
  5
4F
100
AcDbEntity
  8
LY_3
  6
CONTINUOUS
 62
         3
100
AcDbLine
 10
-6.6000061035
 20
-100.4208679199
 30
0.0
 11
5.5899810791
 21
-100.4208679199
 31
0.0
  0
LINE
  5
50
100
AcDbEntity
  8
LY_3
  6
CONTINUOUS
 62
         3
100
AcDbLine
 10
-5.5900115967
 20
-56.4938049316
 30
0.0
 11
-5.5900115967
 21
-85.127166748
 31
0.0
  0
LINE
  5
51
100
AcDbEntity
  8
LY_3
  6
CONTINUOUS
 62
         3
100
AcDbLine
 10
-6.6000061035
 20
-100.4208679199
 30
0.0
 11
-6.6000061035
 21
-107.3271331787
 31
0.0
  0
LINE
  5
52
100
AcDbEntity
  8
LY_3
  6
CONTINUOUS
 62
         3
100
AcDbLine
 10
4.8999938965
 20
-85.127166748
 30
0.0
 11
4.8999938965
 21
-100.4208679199
 31
0.0
  0
LINE
  5
53
100
AcDbEntity
  8
LY_3
  6
CENTER
 62
        80
100
AcDbLine
 10
-16.700012207
 20
-83.0771331787
 30
0.0
 11
-16.700012207
 21
-110.3271331787
 31
0.0
  0
LINE
  5
54
100
AcDbEntity
  8
LY_3
  6
CONTINUOUS
 62
         3
100
AcDbLine
 10
-5.5900115967
 20
-100.4208679199
 30
0.0
 11
-5.5900115967
 21
-104.5604705811
 31
0.0
  0
LINE
  5
56
100
AcDbEntity
  8
LY_3
  6
PHANTOM
 62
        80
100
AcDbLine
 10
-28.2375183105
 20
-66.027130127
 30
0.0
 11
-5.8358459473
 21
-66.027130127
 31
0.0
  0
LINE
  5
57
100
AcDbEntity
  8
LY_3
  6
PHANTOM
 62
        80
100
AcDbLine
 10
-28.2375183105
 20
-74.527130127
 30
0.0
 11
-5.8358459473
 21
-74.527130127
 31
0.0
  0
LINE
  5
58
100
AcDbEntity
  8
LY_3
  6
PHANTOM
 62
        80
100
AcDbLine
 10
-28.2375183105
 20
-86.527130127
 30
0.0
 11
-5.8358459473
 21
-86.527130127
 31
0.0
  0
LINE
  5
59
100
AcDbEntity
  8
LY_3
  6
PHANTOM
 62
        80
100
AcDbLine
 10
-28.2375183105
 20
-95.027130127
 30
0.0
 11
-5.8358459473
 21
-95.027130127
 31
0.0
  0
LINE
  5
5A
100
AcDbEntity
  8
LY_3
  6
PHANTOM
 62
        80
100
AcDbLine
 10
6.0558319092
 20
-66.027130127
 30
0.0
 11
28.2374725342
 21
-66.027130127
 31
0.0
  0
LINE
  5
5B
100
AcDbEntity
  8
LY_3
  6
PHANTOM
 62
        80
100
AcDbLine
 10
6.0558319092
 20
-74.527130127
 30
0.0
 11
28.2374725342
 21
-74.527130127
 31
0.0
  0
LINE
  5
5C
100
AcDbEntity
  8
LY_3
  6
PHANTOM
 62
        80
100
AcDbLine
 10
6.0558319092
 20
-86.527130127
 30
0.0
 11
28.2374725342
 21
-86.527130127
 31
0.0
  0
LINE
  5
5D
100
AcDbEntity
  8
LY_3
  6
PHANTOM
 62
        80
100
AcDbLine
 10
6.0558319092
 20
-95.027130127
 30
0.0
 11
28.2374725342
 21
-95.027130127
 31
0.0
  0
LINE
  5
5F
100
AcDbEntity
  8
LY_3
  6
DASHED
 62
        80
100
AcDbLine
 10
-135.0023040771
 20
-11.0271635056
 30
0.0
 11
-115.4023132324
 21
-11.0271635056
 31
0.0
  0
LINE
  5
60
100
AcDbEntity
  8
LY_3
  6
DASHED
 62
        80
100
AcDbLine
 10
-135.0023040771
 20
-30.0271453857
 30
0.0
 11
-115.4023132324
 21
-30.0271453857
 31
0.0
  0
LINE
  5
61
100
AcDbEntity
  8
LY_3
  6
DASHED
 62
        80
100
AcDbLine
 10
-135.0023040771
 20
-8.2271604538
 30
0.0
 11
-114.4023132324
 21
-8.2271604538
 31
0.0
  0
LINE
  5
62
100
AcDbEntity
  8
LY_3
  6
DASHED
 62
        80
100
AcDbLine
 10
-115.4022458625
 20
-30.0271601385
 30
0.0
 11
-114.4022553626
 21
-31.0271502169
 31
0.0
  0
LINE
  5
63
100
AcDbEntity
  8
LY_3
  6
DASHED
 62
        80
100
AcDbLine
 10
-115.402278417
 20
-11.0271530022
 30
0.0
 11
-114.4022877064
 21
-10.0271631346
 31
0.0
  0
LINE
  5
64
100
AcDbEntity
  8
LY_3
  6
DASHED
 62
        80
100
AcDbLine
 10
-115.4023132324
 20
-30.0271453857
 30
0.0
 11
-115.4023132324
 21
-11.0271635056
 31
0.0
  0
LINE
  5
65
100
AcDbEntity
  8
LY_3
  6
DASHED
 62
        80
100
AcDbLine
 10
-85.0023193359
 20
-10.5271635056
 30
0.0
 11
-65.4023284912
 21
-10.5271635056
 31
0.0
  0
LINE
  5
66
100
AcDbEntity
  8
LY_3
  6
DASHED
 62
        80
100
AcDbLine
 10
-85.0023193359
 20
-30.5271453857
 30
0.0
 11
-65.4023284912
 21
-30.5271453857
 31
0.0
  0
LINE
  5
67
100
AcDbEntity
  8
LY_3
  6
DASHED
 62
        80
100
AcDbLine
 10
-85.0023193359
 20
-7.7271604538
 30
0.0
 11
-64.4023284912
 21
-7.7271604538
 31
0.0
  0
LINE
  5
68
100
AcDbEntity
  8
LY_3
  6
DASHED
 62
        80
100
AcDbLine
 10
-65.4022457699
 20
-30.5271501411
 30
0.0
 11
-64.40225527
 21
-31.5271402195
 31
0.0
  0
LINE
  5
69
100
AcDbEntity
  8
LY_3
  6
DASHED
 62
        80
100
AcDbLine
 10
-65.4022674294
 20
-10.5271627467
 30
0.0
 11
-64.4022767189
 21
-9.5271728791
 31
0.0
  0
LINE
  5
6A
100
AcDbEntity
  8
LY_3
  6
DASHED
 62
        80
100
AcDbLine
 10
-65.4023284912
 20
-30.5271453857
 30
0.0
 11
-65.4023284912
 21
-10.5271635056
 31
0.0
  0
LINE
  5
6B
100
AcDbEntity
  8
LY_3
  6
DASHED
 62
        80
100
AcDbLine
 10
-35.0023193359
 20
-9.5271635056
 30
0.0
 11
-15.4023399353
 21
-9.5271635056
 31
0.0
  0
LINE
  5
6C
100
AcDbEntity
  8
LY_3
  6
DASHED
 62
        80
100
AcDbLine
 10
-35.0023193359
 20
-31.5271453857
 30
0.0
 11
-15.4023246765
 21
-31.5271453857
 31
0.0
  0
LINE
  5
6D
100
AcDbEntity
  8
LY_3
  6
DASHED
 62
        80
100
AcDbLine
 10
-35.0023193359
 20
-6.7271604538
 30
0.0
 11
-14.4023399353
 21
-6.7271604538
 31
0.0
  0
LINE
  5
6E
100
AcDbEntity
  8
LY_3
  6
DASHED
 62
        80
100
AcDbLine
 10
-15.4023089608
 20
-31.5271312422
 30
0.0
 11
-14.4023184609
 21
-32.5271213206
 31
0.0
  0
LINE
  5
6F
100
AcDbEntity
  8
LY_3
  6
DASHED
 62
        80
100
AcDbLine
 10
-15.4023148996
 20
-9.5271672314
 30
0.0
 11
-14.402324189
 21
-8.5271773637
 31
0.0
  0
LINE
  5
70
100
AcDbEntity
  8
LY_3
  6
DASHED
 62
        80
100
AcDbLine
 10
-15.4023399353
 20
-31.5271453857
 30
0.0
 11
-15.4023399353
 21
-9.5271635056
 31
0.0
  0
LINE
  5
71
100
AcDbEntity
  8
LY_3
  6
DASHED
 62
        80
100
AcDbLine
 10
14.9976673126
 20
-8.5271635056
 30
0.0
 11
34.5976409912
 21
-8.5271635056
 31
0.0
  0
LINE
  5
72
100
AcDbEntity
  8
LY_3
  6
DASHED
 62
        80
100
AcDbLine
 10
14.9976673126
 20
-32.5271453857
 30
0.0
 11
34.5976409912
 21
-32.5271453857
 31
0.0
  0
LINE
  5
73
100
AcDbEntity
  8
LY_3
  6
DASHED
 62
        80
100
AcDbLine
 10
14.9976673126
 20
-5.2271604538
 30
0.0
 11
35.5976257324
 21
-5.2271604538
 31
0.0
  0
LINE
  5
74
100
AcDbEntity
  8
LY_3
  6
DASHED
 62
        80
100
AcDbLine
 10
34.5976399866
 20
-32.5271595478
 30
0.0
 11
35.5976304865
 21
-33.5271496262
 31
0.0
  0
LINE
  5
75
100
AcDbEntity
  8
LY_3
  6
DASHED
 62
        80
100
AcDbLine
 10
34.5976147024
 20
-8.5271919465
 30
0.0
 11
35.597605413
 21
-7.5272020789
 31
0.0
  0
LINE
  5
76
100
AcDbEntity
  8
LY_3
  6
DASHED
 62
        80
100
AcDbLine
 10
34.5976409912
 20
-32.5271453857
 30
0.0
 11
34.5976409912
 21
-8.5271635056
 31
0.0
  0
LINE
  5
77
100
AcDbEntity
  8
LY_3
  6
DASHED
 62
        80
100
AcDbLine
 10
64.9976196289
 20
-8.0271635056
 30
0.0
 11
84.5976257324
 21
-8.0271635056
 31
0.0
  0
LINE
  5
78
100
AcDbEntity
  8
LY_3
  6
DASHED
 62
        80
100
AcDbLine
 10
64.9976196289
 20
-33.0271453857
 30
0.0
 11
84.5976409912
 21
-33.0271453857
 31
0.0
  0
LINE
  5
79
100
AcDbEntity
  8
LY_3
  6
DASHED
 62
        80
100
AcDbLine
 10
64.9976196289
 20
-4.7271604538
 30
0.0
 11
85.5976257324
 21
-4.7271604538
 31
0.0
  0
LINE
  5
7A
100
AcDbEntity
  8
LY_3
  6
DASHED
 62
        80
100
AcDbLine
 10
84.5976144539
 20
-33.0271751757
 30
0.0
 11
85.5976049538
 21
-34.0271652541
 31
0.0
  0
LINE
  5
7B
100
AcDbEntity
  8
LY_3
  6
DASHED
 62
        80
100
AcDbLine
 10
84.5976149004
 20
-8.0272124806
 30
0.0
 11
85.5976056109
 21
-7.0272226129
 31
0.0
  0
LINE
  5
7C
100
AcDbEntity
  8
LY_3
  6
DASHED
 62
        80
100
AcDbLine
 10
84.5976409912
 20
-33.0271606445
 30
0.0
 11
84.5976409912
 21
-8.0271787643
 31
0.0
  0
LINE
  5
7D
100
AcDbEntity
  8
LY_3
  6
DASHED
 62
        80
100
AcDbLine
 10
114.9976196289
 20
-6.5271940231
 30
0.0
 11
134.5976104736
 21
-6.5271940231
 31
0.0
  0
LINE
  5
7E
100
AcDbEntity
  8
LY_3
  6
DASHED
 62
        80
100
AcDbLine
 10
114.9976196289
 20
-34.5271453857
 30
0.0
 11
134.5976409912
 21
-34.5271453857
 31
0.0
  0
LINE
  5
7F
100
AcDbEntity
  8
LY_3
  6
DASHED
 62
        80
100
AcDbLine
 10
114.9976196289
 20
-3.2272338867
 30
0.0
 11
135.5976104736
 21
-3.2272338867
 31
0.0
  0
LINE
  5
80
100
AcDbEntity
  8
LY_3
  6
DASHED
 62
        80
100
AcDbLine
 10
134.5975823885
 20
-34.5271770467
 30
0.0
 11
135.5975728883
 21
-35.5271671251
 31
0.0
  0
LINE
  5
81
100
AcDbEntity
  8
LY_3
  6
DASHED
 62
        80
100
AcDbLine
 10
134.597583151
 20
-6.5272211463
 30
0.0
 11
135.5975738616
 21
-5.5272312787
 31
0.0
  0
LINE
  5
82
100
AcDbEntity
  8
LY_3
  6
DASHED
 62
        80
100
AcDbLine
 10
134.5976409912
 20
-34.5271606445
 30
0.0
 11
134.5976409912
 21
-6.5272092819
 31
0.0
  0
LINE
  5
83
100
AcDbEntity
  8
LY_3
  6
DASHED
 62
        80
100
AcDbLine
 10
-135.0022888184
 20
-141.0271606445
 30
0.0
 11
-115.4022979736
 21
-141.0271606445
 31
0.0
  0
LINE
  5
84
100
AcDbEntity
  8
LY_3
  6
DASHED
 62
        80
100
AcDbLine
 10
-135.0022888184
 20
-160.0271453857
 30
0.0
 11
-115.4022979736
 21
-160.0271453857
 31
0.0
  0
LINE
  5
85
100
AcDbEntity
  8
LY_3
  6
DASHED
 62
        80
100
AcDbLine
 10
-135.0022888184
 20
-139.0271453857
 30
0.0
 11
-114.4022979736
 21
-139.0271453857
 31
0.0
  0
LINE
  5
86
100
AcDbEntity
  8
LY_3
  6
DASHED
 62
        80
100
AcDbLine
 10
-115.4022939942
 20
-160.0271169469
 30
0.0
 11
-114.4023034943
 21
-161.0271070253
 31
0.0
  0
LINE
  5
87
100
AcDbEntity
  8
LY_3
  6
DASHED
 62
        80
100
AcDbLine
 10
-115.4023116287
 20
-141.0271206002
 30
0.0
 11
-114.4023209181
 21
-140.0271307326
 31
0.0
  0
LINE
  5
88
100
AcDbEntity
  8
LY_3
  6
DASHED
 62
        80
100
AcDbLine
 10
-115.4022979736
 20
-160.0271453857
 30
0.0
 11
-115.4022979736
 21
-141.0271606445
 31
0.0
  0
LINE
  5
89
100
AcDbEntity
  8
LY_3
  6
DASHED
 62
        80
100
AcDbLine
 10
-85.0023040771
 20
-140.5271606445
 30
0.0
 11
-65.4023132324
 21
-140.5271606445
 31
0.0
  0
LINE
  5
8A
100
AcDbEntity
  8
LY_3
  6
DASHED
 62
        80
100
AcDbLine
 10
-85.0023040771
 20
-160.5271453857
 30
0.0
 11
-65.4023132324
 21
-160.5271453857
 31
0.0
  0
LINE
  5
8B
100
AcDbEntity
  8
LY_3
  6
DASHED
 62
        80
100
AcDbLine
 10
-85.0023040771
 20
-138.5271453857
 30
0.0
 11
-64.4022979736
 21
-138.5271453857
 31
0.0
  0
LINE
  5
8C
100
AcDbEntity
  8
LY_3
  6
DASHED
 62
        80
100
AcDbLine
 10
-65.4022939016
 20
-160.5271285287
 30
0.0
 11
-64.4023034017
 21
-161.5271186071
 31
0.0
  0
LINE
  5
8D
100
AcDbEntity
  8
LY_3
  6
DASHED
 62
        80
100
AcDbLine
 10
-65.4023222203
 20
-140.5271519239
 30
0.0
 11
-64.4023315098
 21
-139.5271620562
 31
0.0
  0
LINE
  5
8E
100
AcDbEntity
  8
LY_3
  6
DASHED
 62
        80
100
AcDbLine
 10
-65.4023132324
 20
-160.5271453857
 30
0.0
 11
-65.4023132324
 21
-140.5271606445
 31
0.0
  0
LINE
  5
8F
100
AcDbEntity
  8
LY_3
  6
DASHED
 62
        80
100
AcDbLine
 10
-35.0022735596
 20
-139.5271606445
 30
0.0
 11
-15.4023275375
 21
-139.5271606445
 31
0.0
  0
LINE
  5
90
100
AcDbEntity
  8
LY_3
  6
DASHED
 62
        80
100
AcDbLine
 10
-35.0022735596
 20
-161.5271453857
 30
0.0
 11
-15.4023122787
 21
-161.5271453857
 31
0.0
  0
LINE
  5
91
100
AcDbEntity
  8
LY_3
  6
DASHED
 62
        80
100
AcDbLine
 10
-35.0022735596
 20
-136.5271453857
 30
0.0
 11
-14.4023275375
 21
-136.5271453857
 31
0.0
  0
LINE
  5
92
100
AcDbEntity
  8
LY_3
  6
DASHED
 62
        80
100
AcDbLine
 10
-15.4023152828
 20
-161.5271298603
 30
0.0
 11
-14.402324783
 21
-162.5271199387
 31
0.0
  0
LINE
  5
93
100
AcDbEntity
  8
LY_3
  6
DASHED
 62
        80
100
AcDbLine
 10
-15.4023218117
 20
-139.527161129
 30
0.0
 11
-14.4023311011
 21
-138.5271712614
 31
0.0
  0
LINE
  5
94
100
AcDbEntity
  8
LY_3
  6
DASHED
 62
        80
100
AcDbLine
 10
-15.4023275375
 20
-161.5271453857
 30
0.0
 11
-15.4023275375
 21
-139.5271606445
 31
0.0
  0
LINE
  5
95
100
AcDbEntity
  8
LY_3
  6
DASHED
 62
        80
100
AcDbLine
 10
14.9976806641
 20
-138.5271606445
 30
0.0
 11
34.5976715088
 21
-138.5271606445
 31
0.0
  0
LINE
  5
96
100
AcDbEntity
  8
LY_3
  6
DASHED
 62
        80
100
AcDbLine
 10
14.9976806641
 20
-162.8271331787
 30
0.0
 11
34.5976715088
 21
-162.8271331787
 31
0.0
  0
LINE
  5
97
100
AcDbEntity
  8
LY_3
  6
DASHED
 62
        80
100
AcDbLine
 10
14.9976806641
 20
-135.8271484375
 30
0.0
 11
35.59765625
 21
-135.8271484375
 31
0.0
  0
LINE
  5
98
100
AcDbEntity
  8
LY_3
  6
DASHED
 62
        80
100
AcDbLine
 10
34.5976741256
 20
-162.5271419815
 30
0.0
 11
35.5976646254
 21
-163.5271320599
 31
0.0
  0
LINE
  5
99
100
AcDbEntity
  8
LY_3
  6
DASHED
 62
        80
100
AcDbLine
 10
34.5976678074
 20
-138.5271811237
 30
0.0
 11
35.597658518
 21
-137.5271912561
 31
0.0
  0
LINE
  5
9A
100
AcDbEntity
  8
LY_3
  6
DASHED
 62
        80
100
AcDbLine
 10
34.5976715088
 20
-162.5271453857
 30
0.0
 11
34.5976715088
 21
-138.5271606445
 31
0.0
  0
LINE
  5
9B
100
AcDbEntity
  8
LY_3
  6
DASHED
 62
        80
100
AcDbLine
 10
64.9976501465
 20
-138.0271606445
 30
0.0
 11
84.5976409912
 21
-138.0271606445
 31
0.0
  0
LINE
  5
9C
100
AcDbEntity
  8
LY_3
  6
DASHED
 62
        80
100
AcDbLine
 10
64.9976501465
 20
-163.0271453857
 30
0.0
 11
84.59765625
 21
-163.0271453857
 31
0.0
  0
LINE
  5
9D
100
AcDbEntity
  8
LY_3
  6
DASHED
 62
        80
100
AcDbLine
 10
64.9976501465
 20
-135.0271453857
 30
0.0
 11
85.5976409912
 21
-135.0271453857
 31
0.0
  0
LINE
  5
9E
100
AcDbEntity
  8
LY_3
  6
DASHED
 62
        80
100
AcDbLine
 10
84.597652639
 20
-163.0271535633
 30
0.0
 11
85.5976431388
 21
-164.0271436417
 31
0.0
  0
LINE
  5
9F
100
AcDbEntity
  8
LY_3
  6
DASHED
 62
        80
100
AcDbLine
 10
84.5976572158
 20
-138.0271908682
 30
0.0
 11
85.5976479264
 21
-137.0272010006
 31
0.0
  0
LINE
  5
A0
100
AcDbEntity
  8
LY_3
  6
DASHED
 62
        80
100
AcDbLine
 10
84.59765625
 20
-163.0271606445
 30
0.0
 11
84.59765625
 21
-138.0271759033
 31
0.0
  0
LINE
  5
A1
100
AcDbEntity
  8
LY_3
  6
DASHED
 62
        80
100
AcDbLine
 10
114.9976501465
 20
-136.5271911621
 30
0.0
 11
134.5975494385
 21
-136.5271911621
 31
0.0
  0
LINE
  5
A2
100
AcDbEntity
  8
LY_3
  6
DASHED
 62
        80
100
AcDbLine
 10
114.9976501465
 20
-164.5271453857
 30
0.0
 11
134.5975494385
 21
-164.5271453857
 31
0.0
  0
LINE
  5
A3
100
AcDbEntity
  8
LY_3
  6
DASHED
 62
        80
100
AcDbLine
 10
114.9976501465
 20
-133.5271911621
 30
0.0
 11
135.5975494385
 21
-133.5271911621
 31
0.0
  0
LINE
  5
A4
100
AcDbEntity
  8
LY_3
  6
DASHED
 62
        80
100
AcDbLine
 10
134.5976205735
 20
-164.5271554343
 30
0.0
 11
135.5976110734
 21
-165.5271455127
 31
0.0
  0
LINE
  5
A5
100
AcDbEntity
  8
LY_3
  6
DASHED
 62
        80
100
AcDbLine
 10
134.5976214204
 20
-136.5272035801
 30
0.0
 11
135.5976116989
 21
-135.5272141444
 31
0.0
  0
LINE
  5
A6
100
AcDbEntity
  8
LY_3
  6
DASHED
 62
        80
100
AcDbLine
 10
134.5975494385
 20
-164.5271606445
 30
0.0
 11
134.5975494385
 21
-136.5272064209
 31
0.0
  0
MTEXT
  5
A7
100
AcDbEntity
  8
LY_3
  6
CONTINUOUS
 62
       110
100
AcDbMText
 10
-108.5553398787
 20
92.6673583984
 30
0.0
 40
13.0
 41
0.0
 71
         1
 72
         1
  1
\W1.024;\A1;JAW-FLEX COUPLING
  0
MTEXT
  5
A8
100
AcDbEntity
  8
LY_3
  6
CONTINUOUS
 62
       110
100
AcDbMText
 10
-72.1271033521
 20
68.6673583984
 30
0.0
 40
15.0
 41
0.0
 71
         1
 72
         1
  1
\W1.154;\A1;L090-S,M,H
  0
MTEXT
  5
A9
100
AcDbEntity
  8
LY_3
  6
CONTINUOUS
 62
       110
100
AcDbMText
 10
-26.1880471645
 20
39.0299224853
 30
0.0
 40
3.1499938965
 41
0.0
 71
         1
 72
         1
  1
\W1.230;\A1;J: JIS B 1301-1976
  0
MTEXT
  5
AA
100
AcDbEntity
  8
LY_3
  6
CONTINUOUS
 62
       110
100
AcDbMText
 10
-32.2988561514
 20
44.8095550537
 30
0.0
 40
3.1499938965
 41
0.0
 71
         1
 72
         1
  1
\W1.010;\A1;KEY WAY
  0
MTEXT
  5
AB
100
AcDbEntity
  8
LY_3
  6
CONTINUOUS
 62
       110
100
AcDbMText
 10
-26.1880471645
 20
31.0825500488
 30
0.0
 40
3.1499938965
 41
0.0
 71
         1
 72
         1
  1
\W1.230;\A1;E: JIS B 1301-1959
  0
MTEXT
  5
AC
100
AcDbEntity
  8
LY_3
  6
CONTINUOUS
 62
       110
100
AcDbMText
 10
-130.4827395383
 20
6.0509729385
 30
0.0
 40
3.1499938965
 41
0.0
 71
         1
 72
         1
  1
\W1.091;\A1;19JN
  0
MTEXT
  5
AD
100
AcDbEntity
  8
LY_3
  6
CONTINUOUS
 62
       110
100
AcDbMText
 10
-81.0441400826
 20
6.0948152542
 30
0.0
 40
3.1499938965
 41
0.0
 71
         1
 72
         1
  1
\W1.059;\A1;20J
  0
MTEXT
  5
AE
100
AcDbEntity
  8
LY_3
  6
CONTINUOUS
 62
       110
100
AcDbMText
 10
-30.2651163737
 20
6.3263998031
 30
0.0
 40
3.1499938965
 41
0.0
 71
         1
 72
         1
  1
\A1;22J
  0
MTEXT
  5
AF
100
AcDbEntity
  8
LY_3
  6
CONTINUOUS
 62
       110
100
AcDbMText
 10
18.892964681
 20
6.0509729385
 30
0.0
 40
3.1499938965
 41
0.0
 71
         1
 72
         1
  1
\A1;24JN
  0
MTEXT
  5
B0
100
AcDbEntity
  8
LY_3
  6
CONTINUOUS
 62
       110
100
AcDbMText
 10
69.1968739827
 20
6.0509729385
 30
0.0
 40
3.1499938965
 41
0.0
 71
         1
 72
         1
  1
\A1;25J
  0
MTEXT
  5
B1
100
AcDbEntity
  8
LY_3
  6
CONTINUOUS
 62
       110
100
AcDbMText
 10
118.3101552327
 20
6.3486289978
 30
0.0
 40
3.1499938965
 41
0.0
 71
         1
 72
         1
  1
\A1;28JN
  0
MTEXT
  5
B2
100
AcDbEntity
  8
LY_3
  6
CONTINUOUS
 62
       110
100
AcDbMText
 10
-131.661801428
 20
-123.7509307862
 30
0.0
 40
3.1499938965
 41
0.0
 71
         1
 72
         1
  1
\W1.091;\A1;19EN
  0
MTEXT
  5
B3
100
AcDbEntity
  8
LY_3
  6
CONTINUOUS
 62
       110
100
AcDbMText
 10
-79.3559992134
 20
-123.7509307862
 30
0.0
 40
3.1499938965
 41
0.0
 71
         1
 72
         1
  1
\W1.059;\A1;20E
  0
MTEXT
  5
B4
100
AcDbEntity
  8
LY_3
  6
CONTINUOUS
 62
       110
100
AcDbMText
 10
-28.4099833171
 20
-123.7509307862
 30
0.0
 40
3.1499938965
 41
0.0
 71
         1
 72
         1
  1
\A1;22E
  0
MTEXT
  5
B5
100
AcDbEntity
  8
LY_3
  6
CONTINUOUS
 62
       110
100
AcDbMText
 10
18.994450887
 20
-123.7509307862
 30
0.0
 40
3.1499938965
 41
0.0
 71
         1
 72
         1
  1
\A1;24EN
  0
MTEXT
  5
B6
100
AcDbEntity
  8
LY_3
  6
CONTINUOUS
 62
       110
100
AcDbMText
 10
70.3959248861
 20
-123.7509307862
 30
0.0
 40
3.1499938965
 41
0.0
 71
         1
 72
         1
  1
\A1;25E
  0
MTEXT
  5
B7
100
AcDbEntity
  8
LY_3
  6
CONTINUOUS
 62
       110
100
AcDbMText
 10
118.2969411214
 20
-123.7509307862
 30
0.0
 40
3.1499938965
 41
0.0
 71
         1
 72
         1
  1
\A1;28EN
  0
ENDSEC
  0
SECTION
  2
OBJECTS
  0
DICTIONARY
  5
19
100
AcDbDictionary
  3
ACAD_GROUP
350
1A
  3
ACAD_MLINESTYLE
350
1B
  0
DICTIONARY
  5
1A
102
{ACAD_REACTORS
330
19
102
}
100
AcDbDictionary
  0
DICTIONARY
  5
1B
102
{ACAD_REACTORS
330
19
102
}
100
AcDbDictionary
  3
STANDARD
350
1C
  0
MLINESTYLE
  5
1C
102
{ACAD_REACTORS
330
1B
102
}
100
AcDbMlineStyle
  2
Standard
 70
         0
  3

 62
         0
 51
90.0
 52
90.0
 71
         2
 49
0.5
 62
       256
  6
ByLayer
 49
-0.5
 62
       256
  6
ByLayer
  0
ENDSEC
  0
EOF
