  0
SECTION
  2
HEADER
  9
$ACADVER
  1
AC1014
  9
$ACADMAINTVER
 70
         0
  9
$DWGCODEPAGE
  3
ANSI_932
  9
$INSBASE
 10
0.0
 20
0.0
 30
0.0
  9
$EXTMIN
 10
-168.8703460693
 20
-235.7569363797
 30
0.0
  9
$EXTMAX
 10
151.1300586102
 20
122.1256914138
 30
0.0
  9
$LIMMIN
 10
-168.8703460693
 20
-235.7569363797
  9
$LIMMAX
 10
151.1300586102
 20
122.1256914138
  9
$ORTHOMODE
 70
         0
  9
$REGENMODE
 70
         1
  9
$FILLMODE
 70
         1
  9
$QTEXTMODE
 70
         0
  9
$MIRRTEXT
 70
         1
  9
$DRAGMODE
 70
         2
  9
$LTSCALE
 40
1.0
  9
$OSMODE
 70
         0
  9
$ATTMODE
 70
         1
  9
$TEXTSIZE
 40
3.2000000477
  9
$TRACEWID
 40
0.05
  9
$TEXTSTYLE
  7
MX_NOTE_STANDARD
  9
$CLAYER
  8
0
  9
$CELTYPE
  6
CONTINUOUS
  9
$CECOLOR
 62
       256
  9
$CELTSCALE
 40
1.0
  9
$DELOBJ
 70
         1
  9
$DISPSILH
 70
         0
  9
$DIMSCALE
 40
1.0
  9
$DIMASZ
 40
2.5
  9
$DIMEXO
 40
0.0
  9
$DIMDLI
 40
3.75
  9
$DIMRND
 40
0.0
  9
$DIMDLE
 40
0.0
  9
$DIMEXE
 40
2.5
  9
$DIMTP
 40
0.0
  9
$DIMTM
 40
0.0
  9
$DIMTXT
 40
3.2000000477
  9
$DIMCEN
 40
2.5
  9
$DIMTSZ
 40
0.0
  9
$DIMTOL
 70
         0
  9
$DIMLIM
 70
         0
  9
$DIMTIH
 70
         0
  9
$DIMTOH
 70
         0
  9
$DIMSE1
 70
         0
  9
$DIMSE2
 70
         0
  9
$DIMTAD
 70
         1
  9
$DIMZIN
 70
         8
  9
$DIMBLK
  1

  9
$DIMASO
 70
         1
  9
$DIMSHO
 70
         1
  9
$DIMPOST
  1

  9
$DIMAPOST
  1

  9
$DIMALT
 70
         0
  9
$DIMALTD
 70
         4
  9
$DIMALTF
 40
0.0393700787
  9
$DIMLFAC
 40
1.0
  9
$DIMTOFL
 70
         1
  9
$DIMTVP
 40
0.0
  9
$DIMTIX
 70
         0
  9
$DIMSOXD
 70
         0
  9
$DIMSAH
 70
         1
  9
$DIMBLK1
  1
_OPEN30
  9
$DIMBLK2
  1
_OPEN30
  9
$DIMSTYLE
  2
MXDIMSTYLE
  9
$DIMCLRD
 70
         0
  9
$DIMCLRE
 70
         0
  9
$DIMCLRT
 70
         0
  9
$DIMTFAC
 40
1.0
  9
$DIMGAP
 40
1.0
  9
$DIMJUST
 70
         0
  9
$DIMSD1
 70
         0
  9
$DIMSD2
 70
         0
  9
$DIMTOLJ
 70
         0
  9
$DIMTZIN
 70
         0
  9
$DIMALTZ
 70
         0
  9
$DIMALTTZ
 70
         0
  9
$DIMFIT
 70
         3
  9
$DIMUPT
 70
         0
  9
$DIMUNIT
 70
         2
  9
$DIMDEC
 70
         2
  9
$DIMTDEC
 70
         2
  9
$DIMALTU
 70
         2
  9
$DIMALTTD
 70
         4
  9
$DIMTXSTY
  7
MX_NOTE_STANDARD
  9
$DIMAUNIT
 70
         0
  9
$LUNITS
 70
         2
  9
$LUPREC
 70
         4
  9
$SKETCHINC
 40
0.1
  9
$FILLETRAD
 40
0.0
  9
$AUNITS
 70
         0
  9
$AUPREC
 70
         0
  9
$MENU
  1
acad
  9
$ELEVATION
 40
0.0
  9
$PELEVATION
 40
0.0
  9
$THICKNESS
 40
0.0
  9
$LIMCHECK
 70
         0
  9
$BLIPMODE
 70
         1
  9
$CHAMFERA
 40
0.0
  9
$CHAMFERB
 40
0.0
  9
$CHAMFERC
 40
0.0
  9
$CHAMFERD
 40
0.0
  9
$SKPOLY
 70
         0
  9
$TDCREATE
 40
2456603.469965278
  9
$TDUPDATE
 40
2456603.469965278
  9
$TDINDWG
 40
0.0000000000
  9
$TDUSRTIMER
 40
0.0000000000
  9
$USRTIMER
 70
         1
  9
$ANGBASE
 50
0.0
  9
$ANGDIR
 70
         0
  9
$PDMODE
 70
         0
  9
$PDSIZE
 40
0.0
  9
$PLINEWID
 40
0.0
  9
$COORDS
 70
         1
  9
$SPLFRAME
 70
         0
  9
$SPLINETYPE
 70
         6
  9
$SPLINESEGS
 70
         8
  9
$ATTDIA
 70
         0
  9
$ATTREQ
 70
         1
  9
$HANDLING
 70
         1
  9
$HANDSEED
  5
134
  9
$SURFTAB1
 70
         6
  9
$SURFTAB2
 70
         6
  9
$SURFTYPE
 70
         6
  9
$SURFU
 70
         6
  9
$SURFV
 70
         6
  9
$UCSNAME
  2

  9
$UCSORG
 10
0.0
 20
0.0
 30
0.0
  9
$UCSXDIR
 10
1.0
 20
0.0
 30
0.0
  9
$UCSYDIR
 10
0.0
 20
1.0
 30
0.0
  9
$PUCSNAME
  2

  9
$PUCSORG
 10
0.0
 20
0.0
 30
0.0
  9
$PUCSXDIR
 10
1.0
 20
0.0
 30
0.0
  9
$PUCSYDIR
 10
0.0
 20
1.0
 30
0.0
  9
$USERI1
 70
         0
  9
$USERI2
 70
         0
  9
$USERI3
 70
         0
  9
$USERI4
 70
         0
  9
$USERI5
 70
         0
  9
$USERR1
 40
0.0
  9
$USERR2
 40
0.0
  9
$USERR3
 40
0.0
  9
$USERR4
 40
0.0
  9
$USERR5
 40
0.0
  9
$WORLDVIEW
 70
         1
  9
$SHADEDGE
 70
         3
  9
$SHADEDIF
 70
        70
  9
$TILEMODE
 70
         1
  9
$MAXACTVP
 70
        16
  9
$PINSBASE
 10
0.0
 20
0.0
 30
0.0
  9
$PLIMCHECK
 70
         0
  9
$PEXTMIN
 10
1.0000000000E+20
 20
1.0000000000E+20
 30
1.0000000000E+20
  9
$PEXTMAX
 10
-1.0000000000E+20
 20
-1.0000000000E+20
 30
-1.0000000000E+20
  9
$PLIMMIN
 10
0.0
 20
0.0
  9
$PLIMMAX
 10
12.0
 20
9.0
  9
$UNITMODE
 70
         0
  9
$VISRETAIN
 70
         0
  9
$PLINEGEN
 70
         1
  9
$PSLTSCALE
 70
         0
  9
$TREEDEPTH
 70
      3020
  9
$PICKSTYLE
 70
         1
  9
$CMLSTYLE
  2
Standard
  9
$CMLJUST
 70
         0
  9
$CMLSCALE
 40
1.0
  9
$PROXYGRAPHICS
 70
         0
  9
$MEASUREMENT
 70
         1
  0
ENDSEC
  0
SECTION
  2
CLASSES
  0
CLASS
  1
LWPOLYLINE
  2
AcDbPolyline
  3
"AutoCAD"
 90
        0
280
         0
281
         1
  0
CLASS
  1
IMAGE
  2
AcDbRasterImage
  3
ISM
 90
      127
280
         0
281
         1
  0
CLASS
  1
OLE2FRAME
  2
AcDbOle2Frame
  3
""
 90
        0
280
         0
281
         1
  0
CLASS
  1
HATCH
  2
AcDbHatch
  3
"ACAD_SEDONA"
 90
        0
280
         0
281
         1
  0
CLASS
  1
DICTIONARYVAR
  2
AcDbDictionaryVar
  3
"AutoCAD"
 90
        0
280
         0
281
         0
  0
CLASS
  1
RASTERVARIABLES
  2
AcDbRasterVariables
  3
ISM
 90
        0
280
         0
281
         0
  0
CLASS
  1
IMAGEDEF
  2
AcDbRasterImageDef
  3
ISM
 90
        0
280
         0
281
         0
  0
CLASS
  1
IMAGEDEF_REACTOR
  2
AcDbRasterImageDefReactor
  3
ISM
 90
        1
280
         0
281
         0
  0
CLASS
  1
IDBUFFER
  2
AcDbIdBuffer
  3
"Acad"
 90
        0
280
         0
281
         0
  0
CLASS
  1
SPATIAL_FILTER
  2
AcDbSpatialFilter
  3
"Acad"
 90
        0
280
         0
281
         0
  0
CLASS
  1
XRECORD
  2
AcDbXrecord
  3
"<Built In>"
 90
        0
280
         0
281
         0
  0
CLASS
  1
SORTENTSTABLE
  2
AcDbSortentsTable
  3
"AutoCAD"
 90
        0
280
         0
281
         0
  0
CLASS
  1
LAYER_INDEX
  2
AcDbLayerIndex
  3
"Acad"
 90
        0
280
         0
281
         0
  0
CLASS
  1
SPATIAL_INDEX
  2
AcDbSpatialIndex
  3
"Acad"
 90
        0
280
         0
281
         0
  0
CLASS
  1
OBJECT_PTR
  2
CAseDLPNTableRecord
  3
"ASE-LPNTableRecord"
 90
        1
280
         0
281
         0
  0
CLASS
  1
LAYOUT
  2
AcDbLayout
  3
"AutoCAD 2000"
 90
        0
280
         0
281
         0
  0
CLASS
  1
PLOTSETTINGS
  2
AcDbPlotSettings
  3
"AutoCAD 2000"
 90
        0
280
         0
281
         0
  0
CLASS
  1
ACDBDICTIONARYWDFLT
  2
AcDbDictionaryWithDefault
  3
"AutoCAD 2000"
 90
        0
280
         0
281
         0
  0
CLASS
  1
ACDBPLACEHOLDER
  2
AcDbPlaceHolder
  3
"AutoCAD 2000"
 90
        0
280
         0
281
         0
  0
ENDSEC
  0
SECTION
  2
TABLES
  0
TABLE
  2
VPORT
  5
7
100
AcDbSymbolTable
 70
         1
  0
VPORT
  5
15
100
AcDbSymbolTableRecord
100
AcDbViewportTableRecord
  2
*ACTIVE
 70
         0
 10
0.0
 20
0.0
 11
1.0
 21
1.0
 12
-8.8701437296
 22
-56.8156224829
 13
0.0
 23
0.0
 14
1.0
 24
1.0
 15
0.0
 25
0.0
 16
0.0
 26
0.0
 36
1.0
 17
0.0
 27
0.0
 37
0.0
 40
361.4614540715
 41
1.7320508076
 42
50.0
 43
0.0
 44
0.0
 50
0.0
 51
0.0
 71
         0
 72
       100
 73
         1
 74
         1
 75
         0
 76
         0
 77
         0
 78
         0
  0
ENDTAB
  0
TABLE
  2
LTYPE
  5
4
100
AcDbSymbolTable
 70
         6
  0
LTYPE
  5
11
100
AcDbSymbolTableRecord
100
AcDbLinetypeTableRecord
  2
BYBLOCK
 70
        64
  3

 72
        65
 73
         0
 40
0.0
  0
LTYPE
  5
12
100
AcDbSymbolTableRecord
100
AcDbLinetypeTableRecord
  2
BYLAYER
 70
        64
  3

 72
        65
 73
         0
 40
0.0
  0
LTYPE
  5
13
100
AcDbSymbolTableRecord
100
AcDbLinetypeTableRecord
  2
CONTINUOUS
 70
        64
  3
Solid line
 72
        65
 73
         0
 40
0.0
  0
LTYPE
  5
53
100
AcDbSymbolTableRecord
100
AcDbLinetypeTableRecord
  2
CENTER
 70
        64
  3
Center ____ _ ____ _ ____ _ ____ _ ____ _ ____
 72
        65
 73
         4
 40
50.8
 49
31.75
 74
         0
 49
-6.35
 74
         0
 49
6.35
 74
         0
 49
-6.35
 74
         0
  0
LTYPE
  5
5F
100
AcDbSymbolTableRecord
100
AcDbLinetypeTableRecord
  2
PHANTOM
 70
        64
  3
Phantom ______  __  __  ______  __  __  ______
 72
        65
 73
         6
 40
63.5
 49
31.75
 74
         0
 49
-6.35
 74
         0
 49
6.35
 74
         0
 49
-6.35
 74
         0
 49
6.35
 74
         0
 49
-6.35
 74
         0
  0
LTYPE
  5
68
100
AcDbSymbolTableRecord
100
AcDbLinetypeTableRecord
  2
DASHED
 70
        64
  3
Dashed __ __ __ __ __ __ __ __ __ __ __ __ __ _
 72
        65
 73
         2
 40
19.05
 49
12.7
 74
         0
 49
-6.35
 74
         0
  0
ENDTAB
  0
TABLE
  2
LAYER
  5
2
100
AcDbSymbolTable
 70
         3
  0
LAYER
  5
14
100
AcDbSymbolTableRecord
100
AcDbLayerTableRecord
  2
0
 70
         0
 62
         7
  6
CONTINUOUS
  0
LAYER
  5
1D
100
AcDbSymbolTableRecord
100
AcDbLayerTableRecord
  2
DEFPOINTS
 70
         0
 62
         7
  6
CONTINUOUS
  0
LAYER
  5
1E
100
AcDbSymbolTableRecord
100
AcDbLayerTableRecord
  2
LY_3
 70
         0
 62
         7
  6
CONTINUOUS
  0
ENDTAB
  0
TABLE
  2
STYLE
  5
3
100
AcDbSymbolTable
 70
         1
  0
STYLE
  5
17
100
AcDbSymbolTableRecord
100
AcDbTextStyleTableRecord
  2
MX_NOTE_STANDARD
 70
         0
 40
0.0
 41
1.0
 50
0.0
 71
         0
 42
3.2000000477
  3
txt.shx
  4
extfont.shx
  0
ENDTAB
  0
TABLE
  2
VIEW
  5
5
100
AcDbSymbolTable
 70
         0
  0
ENDTAB
  0
TABLE
  2
UCS
  5
6
100
AcDbSymbolTable
 70
         0
  0
ENDTAB
  0
TABLE
  2
APPID
  5
8
100
AcDbSymbolTable
 70
         1
  0
APPID
  5
16
100
AcDbSymbolTableRecord
100
AcDbRegAppTableRecord
  2
ACAD
 70
         0
  0
ENDTAB
  0
TABLE
  2
DIMSTYLE
  5
9
100
AcDbSymbolTable
 70
         1
  0
DIMSTYLE
105
18
100
AcDbSymbolTableRecord
100
AcDbDimStyleTableRecord
  2
MXDIMSTYLE
 70
         0
  3

  4

  5

  6
_OPEN30
  7
_OPEN30
 40
1.0
 41
2.5
 42
0.0
 43
3.75
 44
2.5
 45
0.0
 46
0.0
 47
0.0
 48
0.0
 71
         0
 72
         0
 73
         0
 74
         0
 75
         0
 76
         0
 77
         1
 78
         8
140
3.2000000477
141
2.5
142
0.0
143
0.0393700787
144
1.0
145
0.0
146
1.0
147
1.0
170
         0
171
         4
172
         1
173
         1
174
         0
175
         0
176
         0
177
         0
178
         0
270
         2
271
         2
272
         2
273
         2
274
         4
275
         0
280
         0
281
         0
282
         0
283
         0
284
         0
285
         0
286
         0
287
         3
288
         0
340
17
  0
ENDTAB
  0
TABLE
  2
BLOCK_RECORD
  5
1
100
AcDbSymbolTable
 70
         1
  0
BLOCK_RECORD
  5
A
100
AcDbSymbolTableRecord
100
AcDbBlockTableRecord
  2
*MODEL_SPACE
  0
BLOCK_RECORD
  5
B
100
AcDbSymbolTableRecord
100
AcDbBlockTableRecord
  2
*PAPER_SPACE
  0
BLOCK_RECORD
  5
1F
100
AcDbSymbolTableRecord
100
AcDbBlockTableRecord
  2
_OPEN30
  0
ENDTAB
  0
ENDSEC
  0
SECTION
  2
BLOCKS
  0
BLOCK
  5
D
100
AcDbEntity
  8
0
100
AcDbBlockBegin
  2
*MODEL_SPACE
 70
         0
 10
0.0
 20
0.0
 30
0.0
  3
*MODEL_SPACE
  1

  0
ENDBLK
  5
E
100
AcDbEntity
  8
0
100
AcDbBlockEnd
  0
BLOCK
  5
F
100
AcDbEntity
 67
         1
  8
0
100
AcDbBlockBegin
  2
*PAPER_SPACE
 70
         0
 10
0.0
 20
0.0
 30
0.0
  3
*PAPER_SPACE
  1

  0
ENDBLK
  5
10
100
AcDbEntity
 67
         1
  8
0
100
AcDbBlockEnd
  0
BLOCK
  5
20
100
AcDbEntity
  8
0
  6
ByBlock
 62
         0
100
AcDbBlockBegin
  2
_OPEN30
 70
         2
 10
0.0
 20
0.0
 30
0.0
  3
_OPEN30
  1

  0
LINE
  5
21
100
AcDbEntity
  8
0
  6
ByBlock
 62
         0
100
AcDbLine
 10
-1.0
 20
0.267949
 30
0.0
 11
0.0
 21
0.0
 31
0.0
  0
LINE
  5
22
100
AcDbEntity
  8
0
  6
ByBlock
 62
         0
100
AcDbLine
 10
0.0
 20
0.0
 30
0.0
 11
-1.0
 21
-0.267949
 31
0.0
  0
LINE
  5
23
100
AcDbEntity
  8
0
  6
ByBlock
 62
         0
100
AcDbLine
 10
0.0
 20
0.0
 30
0.0
 11
-1.0
 21
0.0
 31
0.0
  0
ENDBLK
  5
24
100
AcDbEntity
  8
0
  6
ByBlock
 62
         0
100
AcDbBlockEnd
  0
ENDSEC
  0
SECTION
  2
ENTITIES
  0
MTEXT
  5
25
100
AcDbEntity
  8
0
  6
CONTINUOUS
 62
       110
100
AcDbMText
 10
-147.4464030812
 20
117.7423582077
 30
0.0
 40
13.1499996185
 41
0.0
 71
         1
 72
         1
  1
\W1.050;\A1;TSUBAKI
  0
POINT
  5
26
100
AcDbEntity
  8
LY_3
  6
CONTINUOUS
 62
       172
100
AcDbPoint
 10
16.7297210693
 20
-108.4435424805
 30
0.0
  0
POINT
  5
27
100
AcDbEntity
  8
LY_3
  6
CONTINUOUS
 62
       172
100
AcDbPoint
 10
-34.4702911377
 20
-108.4435424805
 30
0.0
  0
POINT
  5
28
100
AcDbEntity
  8
LY_3
  6
CONTINUOUS
 62
       172
100
AcDbPoint
 10
122.08203125
 20
-108.4435424805
 30
0.0
  0
POINT
  5
29
100
AcDbEntity
  8
LY_3
  6
CONTINUOUS
 62
       172
100
AcDbPoint
 10
-123.8702850342
 20
-11.9639167786
 30
0.0
  0
POINT
  5
2A
100
AcDbEntity
  8
LY_3
  6
CONTINUOUS
 62
       172
100
AcDbPoint
 10
-73.8702850342
 20
-11.9639167786
 30
0.0
  0
POINT
  5
2B
100
AcDbEntity
  8
LY_3
  6
CONTINUOUS
 62
       172
100
AcDbPoint
 10
56.1297149658
 20
-11.9639167786
 30
0.0
  0
POINT
  5
2C
100
AcDbEntity
  8
LY_3
  6
CONTINUOUS
 62
       172
100
AcDbPoint
 10
106.1297149658
 20
-11.9639167786
 30
0.0
  0
POINT
  5
2D
100
AcDbEntity
  8
LY_3
  6
CONTINUOUS
 62
       172
100
AcDbPoint
 10
-118.8702850342
 20
-66.9639129639
 30
0.0
  0
POINT
  5
2E
100
AcDbEntity
  8
LY_3
  6
CONTINUOUS
 62
       172
100
AcDbPoint
 10
-78.870300293
 20
-66.9639129639
 30
0.0
  0
POINT
  5
2F
100
AcDbEntity
  8
LY_3
  6
CONTINUOUS
 62
       172
100
AcDbPoint
 10
11.1297149658
 20
-66.9639129639
 30
0.0
  0
POINT
  5
30
100
AcDbEntity
  8
LY_3
  6
CONTINUOUS
 62
       172
100
AcDbPoint
 10
151.1297149658
 20
-66.9639129639
 30
0.0
  0
POINT
  5
31
100
AcDbEntity
  8
LY_3
  6
CONTINUOUS
 62
       172
100
AcDbPoint
 10
61.1297149658
 20
-66.9639129639
 30
0.0
  0
POINT
  5
32
100
AcDbEntity
  8
LY_3
  6
CONTINUOUS
 62
       172
100
AcDbPoint
 10
16.1297149658
 20
-224.7570343018
 30
0.0
  0
POINT
  5
33
100
AcDbEntity
  8
LY_3
  6
CONTINUOUS
 62
       172
100
AcDbPoint
 10
-168.8702850342
 20
-66.9639129639
 30
0.0
  0
POINT
  5
34
100
AcDbEntity
  8
LY_3
  6
CONTINUOUS
 62
       172
100
AcDbPoint
 10
101.1297149658
 20
-66.9639129639
 30
0.0
  0
POINT
  5
35
100
AcDbEntity
  8
LY_3
  6
CONTINUOUS
 62
       172
100
AcDbPoint
 10
-33.8702850342
 20
-11.9639167786
 30
0.0
  0
POINT
  5
36
100
AcDbEntity
  8
LY_3
  6
CONTINUOUS
 62
       172
100
AcDbPoint
 10
16.1297149658
 20
-11.9639167786
 30
0.0
  0
POINT
  5
37
100
AcDbEntity
  8
LY_3
  6
CONTINUOUS
 62
       172
100
AcDbPoint
 10
56.1297149658
 20
-11.9639167786
 30
0.0
  0
POINT
  5
38
100
AcDbEntity
  8
LY_3
  6
CONTINUOUS
 62
       172
100
AcDbPoint
 10
101.1297149658
 20
-66.9639129639
 30
0.0
  0
POINT
  5
39
100
AcDbEntity
  8
LY_3
  6
CONTINUOUS
 62
       172
100
AcDbPoint
 10
-28.8702850342
 20
-66.9639129639
 30
0.0
  0
POINT
  5
3A
100
AcDbEntity
  8
LY_3
  6
CONTINUOUS
 62
       172
100
AcDbPoint
 10
-118.8702850342
 20
-169.7570343018
 30
0.0
  0
POINT
  5
3B
100
AcDbEntity
  8
LY_3
  6
CONTINUOUS
 62
       172
100
AcDbPoint
 10
61.1297149658
 20
-169.7570343018
 30
0.0
  0
POINT
  5
3C
100
AcDbEntity
  8
LY_3
  6
CONTINUOUS
 62
       172
100
AcDbPoint
 10
-28.8702850342
 20
-169.7570343018
 30
0.0
  0
POINT
  5
3D
100
AcDbEntity
  8
LY_3
  6
CONTINUOUS
 62
       172
100
AcDbPoint
 10
151.1297149658
 20
-169.7570343018
 30
0.0
  0
POINT
  5
3E
100
AcDbEntity
  8
LY_3
  6
CONTINUOUS
 62
       172
100
AcDbPoint
 10
-123.8702850342
 20
-224.7570343018
 30
0.0
  0
POINT
  5
3F
100
AcDbEntity
  8
LY_3
  6
CONTINUOUS
 62
       172
100
AcDbPoint
 10
-73.8702850342
 20
-224.7570343018
 30
0.0
  0
POINT
  5
40
100
AcDbEntity
  8
LY_3
  6
CONTINUOUS
 62
       172
100
AcDbPoint
 10
-33.8702850342
 20
-224.7570343018
 30
0.0
  0
POINT
  5
41
100
AcDbEntity
  8
LY_3
  6
CONTINUOUS
 62
       172
100
AcDbPoint
 10
56.1297149658
 20
-224.7570343018
 30
0.0
  0
POINT
  5
42
100
AcDbEntity
  8
LY_3
  6
CONTINUOUS
 62
       172
100
AcDbPoint
 10
106.1297149658
 20
-224.7570343018
 30
0.0
  0
LINE
  5
43
100
AcDbEntity
  8
LY_3
  6
CONTINUOUS
 62
         3
100
AcDbLine
 10
-34.4702911377
 20
-92.579208374
 30
0.0
 11
-34.4702911377
 21
-124.3078918457
 31
0.0
  0
LINE
  5
44
100
AcDbEntity
  8
LY_3
  6
CONTINUOUS
 62
         3
100
AcDbLine
 10
-33.6702880859
 20
-125.6935424805
 30
0.0
 11
-3.9702911377
 21
-125.6935424805
 31
0.0
  0
LINE
  5
45
100
AcDbEntity
  8
LY_3
  6
CONTINUOUS
 62
         3
100
AcDbLine
 10
-15.4702911377
 20
-95.0356292725
 30
0.0
 11
-15.4702911377
 21
-121.8514556885
 31
0.0
  0
LINE
  5
46
100
AcDbEntity
  8
LY_3
  6
CONTINUOUS
 62
         3
100
AcDbLine
 10
-33.6702880859
 20
-91.1935424805
 30
0.0
 11
-33.6702880859
 21
-125.6935424805
 31
0.0
  0
LINE
  5
47
100
AcDbEntity
  8
LY_3
  6
CONTINUOUS
 62
         3
100
AcDbLine
 10
-34.4702963282
 20
-124.3078705159
 30
0.0
 11
-33.6703008951
 21
-125.693503227
 31
0.0
  0
LINE
  5
48
100
AcDbEntity
  8
LY_3
  6
CONTINUOUS
 62
         3
100
AcDbLine
 10
16.7297210693
 20
-92.5792236328
 30
0.0
 11
16.7297210693
 21
-124.3078613281
 31
0.0
  0
LINE
  5
49
100
AcDbEntity
  8
LY_3
  6
CONTINUOUS
 62
         3
100
AcDbLine
 10
-2.2702789307
 20
-125.6935424805
 30
0.0
 11
15.9297180176
 21
-125.6935424805
 31
0.0
  0
LINE
  5
4A
100
AcDbEntity
  8
LY_3
  6
CONTINUOUS
 62
         3
100
AcDbLine
 10
-14.4602813721
 20
-117.4304656982
 30
0.0
 11
-2.2702789307
 21
-117.4304656982
 31
0.0
  0
LINE
  5
4B
100
AcDbEntity
  8
LY_3
  6
CONTINUOUS
 62
         3
100
AcDbLine
 10
-13.7702789307
 20
-99.4566192627
 30
0.0
 11
-13.7702789307
 21
-117.4304656982
 31
0.0
  0
LINE
  5
4C
100
AcDbEntity
  8
LY_3
  6
CONTINUOUS
 62
         3
100
AcDbLine
 10
-2.2702789307
 20
-117.4304656982
 30
0.0
 11
-2.2702789307
 21
-125.6935424805
 31
0.0
  0
LINE
  5
4D
100
AcDbEntity
  8
LY_3
  6
CONTINUOUS
 62
         3
100
AcDbLine
 10
15.9297180176
 20
-91.1935424805
 30
0.0
 11
15.9297180176
 21
-125.6935424805
 31
0.0
  0
LINE
  5
4E
100
AcDbEntity
  8
LY_3
  6
CONTINUOUS
 62
         3
100
AcDbLine
 10
15.929717237
 20
-125.6934952431
 30
0.0
 11
16.7297355583
 21
-124.3078228885
 31
0.0
  0
LINE
  5
4F
100
AcDbEntity
  8
LY_3
  6
CONTINUOUS
 62
         3
100
AcDbLine
 10
-14.4602813721
 20
-95.0356292725
 30
0.0
 11
-14.4602813721
 21
-121.8514556885
 31
0.0
  0
LINE
  5
50
100
AcDbEntity
  8
LY_3
  6
CONTINUOUS
 62
         3
100
AcDbLine
 10
-3.2802886963
 20
-117.4304656982
 30
0.0
 11
-3.2802886963
 21
-121.8514556885
 31
0.0
  0
LINE
  5
51
100
AcDbEntity
  8
LY_3
  6
CONTINUOUS
 62
         3
100
AcDbLine
 10
-15.4702911377
 20
-121.8514556885
 30
0.0
 11
-3.2802886963
 21
-121.8514556885
 31
0.0
  0
LINE
  5
52
100
AcDbEntity
  8
LY_3
  6
CONTINUOUS
 62
         3
100
AcDbLine
 10
-3.9702911377
 20
-121.8514556885
 30
0.0
 11
-3.9702911377
 21
-125.6935424805
 31
0.0
  0
LINE
  5
54
100
AcDbEntity
  8
LY_3
  6
CENTER
 62
        80
100
AcDbLine
 10
-24.9702911377
 20
-128.6935424805
 30
0.0
 11
-24.9702911377
 21
-108.4435424805
 31
0.0
  0
LINE
  5
55
100
AcDbEntity
  8
LY_3
  6
CENTER
 62
        80
100
AcDbLine
 10
7.2297210693
 20
-108.4435424805
 30
0.0
 11
7.2297210693
 21
-88.1935424805
 31
0.0
  0
LINE
  5
56
100
AcDbEntity
  8
LY_3
  6
CONTINUOUS
 62
         3
100
AcDbLine
 10
-3.9702911377
 20
-91.1935424805
 30
0.0
 11
-33.6702880859
 21
-91.1935424805
 31
0.0
  0
LINE
  5
57
100
AcDbEntity
  8
LY_3
  6
CONTINUOUS
 62
         3
100
AcDbLine
 10
-33.6702577263
 20
-91.1935040438
 30
0.0
 11
-34.4702531594
 21
-92.579136755
 31
0.0
  0
LINE
  5
58
100
AcDbEntity
  8
LY_3
  6
CONTINUOUS
 62
         3
100
AcDbLine
 10
15.9297180176
 20
-91.1935424805
 30
0.0
 11
-2.2702789307
 21
-91.1935424805
 31
0.0
  0
LINE
  5
59
100
AcDbEntity
  8
LY_3
  6
CONTINUOUS
 62
         3
100
AcDbLine
 10
-2.2702789307
 20
-99.4566192627
 30
0.0
 11
-14.4602813721
 21
-99.4566192627
 31
0.0
  0
LINE
  5
5A
100
AcDbEntity
  8
LY_3
  6
CONTINUOUS
 62
         3
100
AcDbLine
 10
-2.2702789307
 20
-91.1935424805
 30
0.0
 11
-2.2702789307
 21
-99.4566192627
 31
0.0
  0
LINE
  5
5B
100
AcDbEntity
  8
LY_3
  6
CONTINUOUS
 62
         3
100
AcDbLine
 10
16.7297132334
 20
-92.5791899675
 30
0.0
 11
15.9296949121
 21
-91.1935176128
 31
0.0
  0
LINE
  5
5C
100
AcDbEntity
  8
LY_3
  6
CONTINUOUS
 62
         3
100
AcDbLine
 10
-3.2802886963
 20
-95.0356292725
 30
0.0
 11
-3.2802886963
 21
-99.4566192627
 31
0.0
  0
LINE
  5
5D
100
AcDbEntity
  8
LY_3
  6
CONTINUOUS
 62
         3
100
AcDbLine
 10
-3.2802886963
 20
-95.0356292725
 30
0.0
 11
-15.4702911377
 21
-95.0356292725
 31
0.0
  0
LINE
  5
5E
100
AcDbEntity
  8
LY_3
  6
CONTINUOUS
 62
         3
100
AcDbLine
 10
-3.9702911377
 20
-91.1935424805
 30
0.0
 11
-3.9702911377
 21
-95.0356292725
 31
0.0
  0
LINE
  5
60
100
AcDbEntity
  8
LY_3
  6
PHANTOM
 62
        80
100
AcDbLine
 10
-35.5202941895
 20
-104.9435424805
 30
0.0
 11
-14.9099273682
 21
-104.9435424805
 31
0.0
  0
LINE
  5
61
100
AcDbEntity
  8
LY_3
  6
PHANTOM
 62
        80
100
AcDbLine
 10
-35.5202941895
 20
-111.9435424805
 30
0.0
 11
-14.9099273682
 21
-111.9435424805
 31
0.0
  0
LINE
  5
62
100
AcDbEntity
  8
LY_3
  6
PHANTOM
 62
        80
100
AcDbLine
 10
-35.5202941895
 20
-117.9435424805
 30
0.0
 11
-14.9844207764
 21
-117.9435424805
 31
0.0
  0
LINE
  5
63
100
AcDbEntity
  8
LY_3
  6
PHANTOM
 62
        80
100
AcDbLine
 10
-2.8415985107
 20
-117.9435424805
 30
0.0
 11
17.7796783447
 21
-117.9435424805
 31
0.0
  0
LINE
  5
64
100
AcDbEntity
  8
LY_3
  6
PHANTOM
 62
        80
100
AcDbLine
 10
-2.5436096191
 20
-104.9435424805
 30
0.0
 11
17.7796783447
 21
-104.9435424805
 31
0.0
  0
LINE
  5
65
100
AcDbEntity
  8
LY_3
  6
PHANTOM
 62
        80
100
AcDbLine
 10
-2.2456207275
 20
-111.9435424805
 30
0.0
 11
17.7796783447
 21
-111.9435424805
 31
0.0
  0
LINE
  5
66
100
AcDbEntity
  8
LY_3
  6
PHANTOM
 62
        80
100
AcDbLine
 10
-2.5436096191
 20
-98.9435424805
 30
0.0
 11
17.7796783447
 21
-98.9435424805
 31
0.0
  0
LINE
  5
67
100
AcDbEntity
  8
LY_3
  6
PHANTOM
 62
        80
100
AcDbLine
 10
-35.5202941895
 20
-98.9435424805
 30
0.0
 11
-14.9099273682
 21
-98.9435424805
 31
0.0
  0
LINE
  5
69
100
AcDbEntity
  8
LY_3
  6
DASHED
 62
        80
100
AcDbLine
 10
121.08203125
 20
-113.9435424805
 30
0.0
 11
103.0820465088
 21
-113.9435424805
 31
0.0
  0
LINE
  5
6A
100
AcDbEntity
  8
LY_3
  6
DASHED
 62
        80
100
AcDbLine
 10
121.08203125
 20
-102.9435424805
 30
0.0
 11
103.0820465088
 21
-102.9435424805
 31
0.0
  0
LINE
  5
6B
100
AcDbEntity
  8
LY_3
  6
DASHED
 62
        80
100
AcDbLine
 10
121.0819967884
 20
-113.9435226248
 30
0.0
 11
122.0819983307
 21
-114.9435232399
 31
0.0
  0
LINE
  5
6C
100
AcDbEntity
  8
LY_3
  6
DASHED
 62
        80
100
AcDbLine
 10
121.0819982921
 20
-102.9435133293
 30
0.0
 11
122.081999413
 21
-101.9435122928
 31
0.0
  0
LINE
  5
6D
100
AcDbEntity
  8
LY_3
  6
DASHED
 62
        80
100
AcDbLine
 10
121.08203125
 20
-113.9435424805
 30
0.0
 11
121.08203125
 21
-102.9435424805
 31
0.0
  0
LINE
  5
6E
100
AcDbEntity
  8
LY_3
  6
DASHED
 62
        80
100
AcDbLine
 10
-119.8702019368
 20
-74.9638891807
 30
0.0
 11
-118.8702112262
 21
-75.9638790483
 31
0.0
  0
LINE
  5
6F
100
AcDbEntity
  8
LY_3
  6
DASHED
 62
        80
100
AcDbLine
 10
-47.8702392578
 20
-57.9638824463
 30
0.0
 11
-29.8702545166
 21
-57.9638824463
 31
0.0
  0
LINE
  5
70
100
AcDbEntity
  8
LY_3
  6
DASHED
 62
        80
100
AcDbLine
 10
-104.8702392578
 20
-17.9638824463
 30
0.0
 11
-122.870223999
 21
-17.9638824463
 31
0.0
  0
LINE
  5
71
100
AcDbEntity
  8
LY_3
  6
DASHED
 62
        80
100
AcDbLine
 10
-122.8702392578
 20
-17.9638824463
 30
0.0
 11
-122.8702392578
 21
-13.9639291763
 31
0.0
  0
LINE
  5
72
100
AcDbEntity
  8
LY_3
  6
DASHED
 62
        80
100
AcDbLine
 10
-104.8702392578
 20
-5.9639310837
 30
0.0
 11
-122.870223999
 21
-5.9639310837
 31
0.0
  0
LINE
  5
73
100
AcDbEntity
  8
LY_3
  6
DASHED
 62
        80
100
AcDbLine
 10
-122.8701936094
 20
-17.9639066482
 30
0.0
 11
-123.8701838985
 21
-18.9638969373
 31
0.0
  0
LINE
  5
74
100
AcDbEntity
  8
LY_3
  6
DASHED
 62
        80
100
AcDbLine
 10
-122.8701936094
 20
-5.9639152829
 30
0.0
 11
-123.8701838985
 21
-4.9639249938
 31
0.0
  0
LINE
  5
75
100
AcDbEntity
  8
LY_3
  6
DASHED
 62
        80
100
AcDbLine
 10
-123.8702850342
 20
-9.9639320374
 30
0.0
 11
-104.8702850342
 21
-9.9639320374
 31
0.0
  0
LINE
  5
76
100
AcDbEntity
  8
LY_3
  6
DASHED
 62
        80
100
AcDbLine
 10
-123.8702850342
 20
-13.9639320374
 30
0.0
 11
-104.8702850342
 21
-13.9639320374
 31
0.0
  0
LINE
  5
77
100
AcDbEntity
  8
LY_3
  6
DASHED
 62
        80
100
AcDbLine
 10
-122.8702392578
 20
-9.9639606476
 30
0.0
 11
-122.8702392578
 21
-5.9639310837
 31
0.0
  0
LINE
  5
78
100
AcDbEntity
  8
LY_3
  6
DASHED
 62
        80
100
AcDbLine
 10
-92.8702392578
 20
-5.9639310837
 30
0.0
 11
-74.8702545166
 21
-5.9639310837
 31
0.0
  0
LINE
  5
79
100
AcDbEntity
  8
LY_3
  6
DASHED
 62
        80
100
AcDbLine
 10
-74.8702392578
 20
-5.9639310837
 30
0.0
 11
-74.8702392578
 21
-17.9638977051
 31
0.0
  0
LINE
  5
7A
100
AcDbEntity
  8
LY_3
  6
DASHED
 62
        80
100
AcDbLine
 10
-92.8702392578
 20
-17.9638977051
 30
0.0
 11
-74.8702545166
 21
-17.9638977051
 31
0.0
  0
LINE
  5
7B
100
AcDbEntity
  8
LY_3
  6
DASHED
 62
        80
100
AcDbLine
 10
-74.8702173588
 20
-5.9639260725
 30
0.0
 11
-73.8702270697
 21
-4.9639357834
 31
0.0
  0
LINE
  5
7C
100
AcDbEntity
  8
LY_3
  6
DASHED
 62
        80
100
AcDbLine
 10
-74.8702281484
 20
-17.9639066482
 30
0.0
 11
-73.8702378593
 21
-18.9638969373
 31
0.0
  0
LINE
  5
7D
100
AcDbEntity
  8
LY_3
  6
DASHED
 62
        80
100
AcDbLine
 10
-92.8702392578
 20
-4.1639280319
 30
0.0
 11
-73.8702392578
 21
-4.1639280319
 31
0.0
  0
LINE
  5
7E
100
AcDbEntity
  8
LY_3
  6
DASHED
 62
        80
100
AcDbLine
 10
-14.870300293
 20
-18.9638977051
 30
0.0
 11
-32.8702697754
 21
-18.9638977051
 31
0.0
  0
LINE
  5
7F
100
AcDbEntity
  8
LY_3
  6
DASHED
 62
        80
100
AcDbLine
 10
-14.870300293
 20
-4.9639320374
 30
0.0
 11
-32.8702697754
 21
-4.9639320374
 31
0.0
  0
LINE
  5
80
100
AcDbEntity
  8
LY_3
  6
DASHED
 62
        80
100
AcDbLine
 10
-32.8702676951
 20
-4.9639239019
 30
0.0
 11
-33.8702690688
 21
-3.9639231182
 31
0.0
  0
LINE
  5
81
100
AcDbEntity
  8
LY_3
  6
DASHED
 62
        80
100
AcDbLine
 10
-32.8702809231
 20
-18.9639193009
 30
0.0
 11
-33.8702818754
 21
-19.963920506
 31
0.0
  0
LINE
  5
82
100
AcDbEntity
  8
LY_3
  6
DASHED
 62
        80
100
AcDbLine
 10
-32.8702850342
 20
-4.9639167786
 30
0.0
 11
-32.8702850342
 21
-9.4639320374
 31
0.0
  0
LINE
  5
83
100
AcDbEntity
  8
LY_3
  6
DASHED
 62
        80
100
AcDbLine
 10
-33.8702850342
 20
-9.4639320374
 30
0.0
 11
-14.8702850342
 21
-9.4639320374
 31
0.0
  0
LINE
  5
84
100
AcDbEntity
  8
LY_3
  6
DASHED
 62
        80
100
AcDbLine
 10
-33.8702850342
 20
-14.4639320374
 30
0.0
 11
-14.8702850342
 21
-14.4639320374
 31
0.0
  0
LINE
  5
85
100
AcDbEntity
  8
LY_3
  6
DASHED
 62
        80
100
AcDbLine
 10
-32.8702850342
 20
-14.4639320374
 30
0.0
 11
-32.8702850342
 21
-18.9639129639
 31
0.0
  0
LINE
  5
86
100
AcDbEntity
  8
LY_3
  6
DASHED
 62
        80
100
AcDbLine
 10
-2.870300293
 20
-4.9639167786
 30
0.0
 11
15.1297149658
 21
-4.9639167786
 31
0.0
  0
LINE
  5
87
100
AcDbEntity
  8
LY_3
  6
DASHED
 62
        80
100
AcDbLine
 10
-2.870300293
 20
-18.9638977051
 30
0.0
 11
15.129699707
 21
-18.9638977051
 31
0.0
  0
LINE
  5
88
100
AcDbEntity
  8
LY_3
  6
DASHED
 62
        80
100
AcDbLine
 10
-2.870300293
 20
-2.6639137268
 30
0.0
 11
16.1297149658
 21
-2.6639137268
 31
0.0
  0
LINE
  5
89
100
AcDbEntity
  8
LY_3
  6
DASHED
 62
        80
100
AcDbLine
 10
15.1296695276
 20
-18.9638924736
 30
0.0
 11
16.1296709013
 21
-19.9638932573
 31
0.0
  0
LINE
  5
8A
100
AcDbEntity
  8
LY_3
  6
DASHED
 62
        80
100
AcDbLine
 10
15.1296605142
 20
-4.9639082451
 30
0.0
 11
16.1296607921
 21
-3.9639077143
 31
0.0
  0
LINE
  5
8B
100
AcDbEntity
  8
LY_3
  6
DASHED
 62
        80
100
AcDbLine
 10
15.129699707
 20
-18.9638977051
 30
0.0
 11
15.129699707
 21
-4.9639167786
 31
0.0
  0
LINE
  5
8C
100
AcDbEntity
  8
LY_3
  6
DASHED
 62
        80
100
AcDbLine
 10
75.129699707
 20
-19.4638824463
 30
0.0
 11
57.129699707
 21
-19.4638824463
 31
0.0
  0
LINE
  5
8D
100
AcDbEntity
  8
LY_3
  6
DASHED
 62
        80
100
AcDbLine
 10
75.129699707
 20
-4.4639158249
 30
0.0
 11
57.129699707
 21
-4.4639158249
 31
0.0
  0
LINE
  5
8E
100
AcDbEntity
  8
LY_3
  6
DASHED
 62
        80
100
AcDbLine
 10
57.1296338992
 20
-4.4639220466
 30
0.0
 11
56.1296327784
 21
-3.4639210101
 31
0.0
  0
LINE
  5
8F
100
AcDbEntity
  8
LY_3
  6
DASHED
 62
        80
100
AcDbLine
 10
57.1296087254
 20
-19.4639081749
 30
0.0
 11
56.129608026
 21
-20.4639096329
 31
0.0
  0
LINE
  5
90
100
AcDbEntity
  8
LY_3
  6
DASHED
 62
        80
100
AcDbLine
 10
57.1297149658
 20
-4.4639167786
 30
0.0
 11
57.1297149658
 21
-9.4639320374
 31
0.0
  0
LINE
  5
91
100
AcDbEntity
  8
LY_3
  6
DASHED
 62
        80
100
AcDbLine
 10
56.1297149658
 20
-9.4639320374
 30
0.0
 11
75.1297149658
 21
-9.4639320374
 31
0.0
  0
LINE
  5
92
100
AcDbEntity
  8
LY_3
  6
DASHED
 62
        80
100
AcDbLine
 10
56.1297149658
 20
-14.4639320374
 30
0.0
 11
75.1297149658
 21
-14.4639320374
 31
0.0
  0
LINE
  5
93
100
AcDbEntity
  8
LY_3
  6
DASHED
 62
        80
100
AcDbLine
 10
57.1297149658
 20
-14.4639320374
 30
0.0
 11
57.1297149658
 21
-19.4639129639
 31
0.0
  0
LINE
  5
94
100
AcDbEntity
  8
LY_3
  6
DASHED
 62
        80
100
AcDbLine
 10
87.129699707
 20
-4.4639310837
 30
0.0
 11
105.129699707
 21
-4.4639310837
 31
0.0
  0
LINE
  5
95
100
AcDbEntity
  8
LY_3
  6
DASHED
 62
        80
100
AcDbLine
 10
87.129699707
 20
-19.4638824463
 30
0.0
 11
105.129699707
 21
-19.4638824463
 31
0.0
  0
LINE
  5
96
100
AcDbEntity
  8
LY_3
  6
DASHED
 62
        80
100
AcDbLine
 10
87.129699707
 20
-2.1639280319
 30
0.0
 11
106.129699707
 21
-2.1639280319
 31
0.0
  0
LINE
  5
97
100
AcDbEntity
  8
LY_3
  6
DASHED
 62
        80
100
AcDbLine
 10
105.1296107821
 20
-19.4639038353
 30
0.0
 11
106.1296119029
 21
-20.4639048719
 31
0.0
  0
LINE
  5
98
100
AcDbEntity
  8
LY_3
  6
DASHED
 62
        80
100
AcDbLine
 10
105.1296008654
 20
-4.4639061557
 30
0.0
 11
106.1296015648
 21
-3.4639046977
 31
0.0
  0
LINE
  5
99
100
AcDbEntity
  8
LY_3
  6
DASHED
 62
        80
100
AcDbLine
 10
105.129699707
 20
-19.4638824463
 30
0.0
 11
105.129699707
 21
-4.4639158249
 31
0.0
  0
LINE
  5
9A
100
AcDbEntity
  8
LY_3
  6
DASHED
 62
        80
100
AcDbLine
 10
-149.8702850342
 20
-74.9638824463
 30
0.0
 11
-167.8702697754
 21
-74.9638824463
 31
0.0
  0
LINE
  5
9B
100
AcDbEntity
  8
LY_3
  6
DASHED
 62
        80
100
AcDbLine
 10
-149.8702850342
 20
-58.9638977051
 30
0.0
 11
-167.8702850342
 21
-58.9638977051
 31
0.0
  0
LINE
  5
9C
100
AcDbEntity
  8
LY_3
  6
DASHED
 62
        80
100
AcDbLine
 10
-167.8702604581
 20
-58.9638921519
 30
0.0
 11
-168.870240379
 21
-57.9639130739
 31
0.0
  0
LINE
  5
9D
100
AcDbEntity
  8
LY_3
  6
DASHED
 62
        80
100
AcDbLine
 10
-167.8702637303
 20
-74.9639033967
 30
0.0
 11
-168.870264809
 21
-75.9639044754
 31
0.0
  0
LINE
  5
9E
100
AcDbEntity
  8
LY_3
  6
DASHED
 62
        80
100
AcDbLine
 10
-167.8703460693
 20
-58.9639129639
 30
0.0
 11
-167.8703460693
 21
-64.4639282227
 31
0.0
  0
LINE
  5
9F
100
AcDbEntity
  8
LY_3
  6
DASHED
 62
        80
100
AcDbLine
 10
-168.8703460693
 20
-64.4639282227
 30
0.0
 11
-149.8703460693
 21
-64.4639282227
 31
0.0
  0
LINE
  5
A0
100
AcDbEntity
  8
LY_3
  6
DASHED
 62
        80
100
AcDbLine
 10
-168.8703460693
 20
-69.4639282227
 30
0.0
 11
-149.8703460693
 21
-69.4639282227
 31
0.0
  0
LINE
  5
A1
100
AcDbEntity
  8
LY_3
  6
DASHED
 62
        80
100
AcDbLine
 10
-167.8703460693
 20
-69.4639282227
 30
0.0
 11
-167.8703460693
 21
-74.9639129639
 31
0.0
  0
LINE
  5
A2
100
AcDbEntity
  8
LY_3
  6
DASHED
 62
        80
100
AcDbLine
 10
-137.870223999
 20
-58.9639129639
 30
0.0
 11
-119.8702392578
 21
-58.9639129639
 31
0.0
  0
LINE
  5
A3
100
AcDbEntity
  8
LY_3
  6
DASHED
 62
        80
100
AcDbLine
 10
-137.870223999
 20
-74.9638977051
 30
0.0
 11
-119.870223999
 21
-74.9638977051
 31
0.0
  0
LINE
  5
A4
100
AcDbEntity
  8
LY_3
  6
DASHED
 62
        80
100
AcDbLine
 10
-137.870223999
 20
-56.6639099121
 30
0.0
 11
-118.870223999
 21
-56.6639099121
 31
0.0
  0
LINE
  5
A5
100
AcDbEntity
  8
LY_3
  6
DASHED
 62
        80
100
AcDbLine
 10
-119.8702335317
 20
-58.9638861375
 30
0.0
 11
-118.870232453
 21
-57.9638850588
 31
0.0
  0
LINE
  5
A6
100
AcDbEntity
  8
LY_3
  6
DASHED
 62
        80
100
AcDbLine
 10
-119.870223999
 20
-74.9639282227
 30
0.0
 11
-119.870223999
 21
-58.9639282227
 31
0.0
  0
LINE
  5
A7
100
AcDbEntity
  8
LY_3
  6
DASHED
 62
        80
100
AcDbLine
 10
-59.8702545166
 20
-75.9638671875
 30
0.0
 11
-77.8702392578
 21
-75.9638671875
 31
0.0
  0
LINE
  5
A8
100
AcDbEntity
  8
LY_3
  6
DASHED
 62
        80
100
AcDbLine
 10
-59.8702545166
 20
-57.9638824463
 30
0.0
 11
-77.8702545166
 21
-57.9638824463
 31
0.0
  0
LINE
  5
A9
100
AcDbEntity
  8
LY_3
  6
DASHED
 62
        80
100
AcDbLine
 10
-77.8702205061
 20
-57.9638934202
 30
0.0
 11
-78.8702214583
 21
-56.9638922151
 31
0.0
  0
LINE
  5
AA
100
AcDbEntity
  8
LY_3
  6
DASHED
 62
        80
100
AcDbLine
 10
-77.870236269
 20
-75.9638777707
 30
0.0
 11
-78.8702374741
 21
-76.963878723
 31
0.0
  0
LINE
  5
AB
100
AcDbEntity
  8
LY_3
  6
DASHED
 62
        80
100
AcDbLine
 10
-77.870300293
 20
-57.9639129639
 30
0.0
 11
-77.870300293
 21
-63.9639282227
 31
0.0
  0
LINE
  5
AC
100
AcDbEntity
  8
LY_3
  6
DASHED
 62
        80
100
AcDbLine
 10
-78.870300293
 20
-63.9639282227
 30
0.0
 11
-59.870300293
 21
-63.9639282227
 31
0.0
  0
LINE
  5
AD
100
AcDbEntity
  8
LY_3
  6
DASHED
 62
        80
100
AcDbLine
 10
-78.870300293
 20
-69.9639282227
 30
0.0
 11
-59.870300293
 21
-69.9639282227
 31
0.0
  0
LINE
  5
AE
100
AcDbEntity
  8
LY_3
  6
DASHED
 62
        80
100
AcDbLine
 10
-77.870300293
 20
-69.9639282227
 30
0.0
 11
-77.870300293
 21
-75.9639129639
 31
0.0
  0
LINE
  5
AF
100
AcDbEntity
  8
LY_3
  6
DASHED
 62
        80
100
AcDbLine
 10
-47.8702545166
 20
-75.9638824463
 30
0.0
 11
-29.8702545166
 21
-75.9638824463
 31
0.0
  0
LINE
  5
B0
100
AcDbEntity
  8
LY_3
  6
DASHED
 62
        80
100
AcDbLine
 10
-47.8702392578
 20
-55.1638793945
 30
0.0
 11
-28.8702545166
 21
-55.1638793945
 31
0.0
  0
LINE
  5
B1
100
AcDbEntity
  8
LY_3
  6
DASHED
 62
        80
100
AcDbLine
 10
-29.8702971076
 20
-75.9638575402
 30
0.0
 11
-28.8702961553
 21
-76.9638587454
 31
0.0
  0
LINE
  5
B2
100
AcDbEntity
  8
LY_3
  6
DASHED
 62
        80
100
AcDbLine
 10
-29.8702732525
 20
-57.9638812819
 30
0.0
 11
-28.8702720473
 21
-56.9638803297
 31
0.0
  0
LINE
  5
B3
100
AcDbEntity
  8
LY_3
  6
DASHED
 62
        80
100
AcDbLine
 10
-29.8702545166
 20
-75.9638824463
 30
0.0
 11
-29.8702545166
 21
-57.9638824463
 31
0.0
  0
LINE
  5
B4
100
AcDbEntity
  8
LY_3
  6
DASHED
 62
        80
100
AcDbLine
 10
30.129699707
 20
-76.4638519287
 30
0.0
 11
12.1297149658
 21
-76.4638519287
 31
0.0
  0
LINE
  5
B5
100
AcDbEntity
  8
LY_3
  6
DASHED
 62
        80
100
AcDbLine
 10
30.129699707
 20
-57.4638519287
 30
0.0
 11
12.129699707
 21
-57.4638519287
 31
0.0
  0
LINE
  5
B6
100
AcDbEntity
  8
LY_3
  6
DASHED
 62
        80
100
AcDbLine
 10
12.129731598
 20
-57.4638269928
 30
0.0
 11
11.1297302242
 21
-56.4638262092
 31
0.0
  0
LINE
  5
B7
100
AcDbEntity
  8
LY_3
  6
DASHED
 62
        80
100
AcDbLine
 10
12.1297135231
 20
-76.4638171643
 30
0.0
 11
11.1297125708
 21
-77.4638183695
 31
0.0
  0
LINE
  5
B8
100
AcDbEntity
  8
LY_3
  6
DASHED
 62
        80
100
AcDbLine
 10
12.1297149658
 20
-57.4639129639
 30
0.0
 11
12.1297149658
 21
-63.9639282227
 31
0.0
  0
LINE
  5
B9
100
AcDbEntity
  8
LY_3
  6
DASHED
 62
        80
100
AcDbLine
 10
11.1297149658
 20
-63.9639282227
 30
0.0
 11
30.1297149658
 21
-63.9639282227
 31
0.0
  0
LINE
  5
BA
100
AcDbEntity
  8
LY_3
  6
DASHED
 62
        80
100
AcDbLine
 10
11.1297149658
 20
-69.9639282227
 30
0.0
 11
30.1297149658
 21
-69.9639282227
 31
0.0
  0
LINE
  5
BB
100
AcDbEntity
  8
LY_3
  6
DASHED
 62
        80
100
AcDbLine
 10
12.1297149658
 20
-69.9639282227
 30
0.0
 11
12.1297149658
 21
-76.4639129639
 31
0.0
  0
LINE
  5
BC
100
AcDbEntity
  8
LY_3
  6
DASHED
 62
        80
100
AcDbLine
 10
42.129699707
 20
-57.4638671875
 30
0.0
 11
60.129699707
 21
-57.4638671875
 31
0.0
  0
LINE
  5
BD
100
AcDbEntity
  8
LY_3
  6
DASHED
 62
        80
100
AcDbLine
 10
42.129699707
 20
-76.4638519287
 30
0.0
 11
60.129699707
 21
-76.4638519287
 31
0.0
  0
LINE
  5
BE
100
AcDbEntity
  8
LY_3
  6
DASHED
 62
        80
100
AcDbLine
 10
42.129699707
 20
-54.6638641357
 30
0.0
 11
61.129699707
 21
-54.6638641357
 31
0.0
  0
LINE
  5
BF
100
AcDbEntity
  8
LY_3
  6
DASHED
 62
        80
100
AcDbLine
 10
60.1296561344
 20
-76.4638582778
 30
0.0
 11
61.1296575082
 21
-77.4638590615
 31
0.0
  0
LINE
  5
C0
100
AcDbEntity
  8
LY_3
  6
DASHED
 62
        80
100
AcDbLine
 10
60.1296293773
 20
-57.4638809627
 30
0.0
 11
61.1296283065
 21
-56.4638817806
 31
0.0
  0
LINE
  5
C1
100
AcDbEntity
  8
LY_3
  6
DASHED
 62
        80
100
AcDbLine
 10
60.129699707
 20
-76.4638519287
 30
0.0
 11
60.129699707
 21
-57.4638519287
 31
0.0
  0
LINE
  5
C2
100
AcDbEntity
  8
LY_3
  6
DASHED
 62
        80
100
AcDbLine
 10
120.129699707
 20
-76.9638824463
 30
0.0
 11
102.129699707
 21
-76.9638824463
 31
0.0
  0
LINE
  5
C3
100
AcDbEntity
  8
LY_3
  6
DASHED
 62
        80
100
AcDbLine
 10
120.129699707
 20
-56.9638824463
 30
0.0
 11
102.129699707
 21
-56.9638824463
 31
0.0
  0
LINE
  5
C4
100
AcDbEntity
  8
LY_3
  6
DASHED
 62
        80
100
AcDbLine
 10
102.1296283048
 20
-56.9638947696
 30
0.0
 11
101.1296272261
 21
-55.9638936909
 31
0.0
  0
LINE
  5
C5
100
AcDbEntity
  8
LY_3
  6
DASHED
 62
        80
100
AcDbLine
 10
102.1296499531
 20
-76.9639056681
 30
0.0
 11
101.1296492958
 21
-77.9639071683
 31
0.0
  0
LINE
  5
C6
100
AcDbEntity
  8
LY_3
  6
DASHED
 62
        80
100
AcDbLine
 10
102.1297149658
 20
-56.9639129639
 30
0.0
 11
102.1297149658
 21
-63.9639282227
 31
0.0
  0
LINE
  5
C7
100
AcDbEntity
  8
LY_3
  6
DASHED
 62
        80
100
AcDbLine
 10
101.1297149658
 20
-63.9639282227
 30
0.0
 11
120.1297149658
 21
-63.9639282227
 31
0.0
  0
LINE
  5
C8
100
AcDbEntity
  8
LY_3
  6
DASHED
 62
        80
100
AcDbLine
 10
101.1297149658
 20
-69.9639282227
 30
0.0
 11
120.1297149658
 21
-69.9639282227
 31
0.0
  0
LINE
  5
C9
100
AcDbEntity
  8
LY_3
  6
DASHED
 62
        80
100
AcDbLine
 10
102.1297149658
 20
-69.9639282227
 30
0.0
 11
102.1297149658
 21
-76.9639129639
 31
0.0
  0
LINE
  5
CA
100
AcDbEntity
  8
LY_3
  6
DASHED
 62
        80
100
AcDbLine
 10
132.129699707
 20
-56.9638977051
 30
0.0
 11
150.1294708252
 21
-56.9638977051
 31
0.0
  0
LINE
  5
CB
100
AcDbEntity
  8
LY_3
  6
DASHED
 62
        80
100
AcDbLine
 10
132.129699707
 20
-76.9638824463
 30
0.0
 11
150.1294708252
 21
-76.9638824463
 31
0.0
  0
LINE
  5
CC
100
AcDbEntity
  8
LY_3
  6
DASHED
 62
        80
100
AcDbLine
 10
132.129699707
 20
-54.1638946533
 30
0.0
 11
151.1294708252
 21
-54.1638946533
 31
0.0
  0
LINE
  5
CD
100
AcDbEntity
  8
LY_3
  6
DASHED
 62
        80
100
AcDbLine
 10
150.129615345
 20
-76.9638947645
 30
0.0
 11
151.1296164237
 21
-77.9638958432
 31
0.0
  0
LINE
  5
CE
100
AcDbEntity
  8
LY_3
  6
DASHED
 62
        80
100
AcDbLine
 10
150.1296501431
 20
-56.9639070219
 30
0.0
 11
151.1296508003
 21
-55.9639055217
 31
0.0
  0
LINE
  5
CF
100
AcDbEntity
  8
LY_3
  6
DASHED
 62
        80
100
AcDbLine
 10
150.1294708252
 20
-76.9638824463
 30
0.0
 11
150.1294708252
 21
-56.9638824463
 31
0.0
  0
LINE
  5
D0
100
AcDbEntity
  8
LY_3
  6
DASHED
 62
        80
100
AcDbLine
 10
-137.8702697754
 20
-163.7570495605
 30
0.0
 11
-119.8702697754
 21
-163.7570495605
 31
0.0
  0
LINE
  5
D1
100
AcDbEntity
  8
LY_3
  6
DASHED
 62
        80
100
AcDbLine
 10
-119.8702545166
 20
-163.7570495605
 30
0.0
 11
-119.8702545166
 21
-175.7570495605
 31
0.0
  0
LINE
  5
D2
100
AcDbEntity
  8
LY_3
  6
DASHED
 62
        80
100
AcDbLine
 10
-137.8702697754
 20
-175.7570495605
 30
0.0
 11
-119.8702697754
 21
-175.7570495605
 31
0.0
  0
LINE
  5
D3
100
AcDbEntity
  8
LY_3
  6
DASHED
 62
        80
100
AcDbLine
 10
-119.8702766901
 20
-163.757011845
 30
0.0
 11
-118.870286401
 21
-162.7570215559
 31
0.0
  0
LINE
  5
D4
100
AcDbEntity
  8
LY_3
  6
DASHED
 62
        80
100
AcDbLine
 10
-119.8702874797
 20
-175.7569924207
 30
0.0
 11
-118.8702971905
 21
-176.7569827098
 31
0.0
  0
LINE
  5
D5
100
AcDbEntity
  8
LY_3
  6
DASHED
 62
        80
100
AcDbLine
 10
-137.8702697754
 20
-162.2570495605
 30
0.0
 11
-118.8702697754
 21
-162.2570495605
 31
0.0
  0
LINE
  5
D6
100
AcDbEntity
  8
LY_3
  6
DASHED
 62
        80
100
AcDbLine
 10
-47.8702850342
 20
-162.7570343018
 30
0.0
 11
-29.870300293
 21
-162.7570343018
 31
0.0
  0
LINE
  5
D7
100
AcDbEntity
  8
LY_3
  6
DASHED
 62
        80
100
AcDbLine
 10
-47.8702850342
 20
-176.7570343018
 30
0.0
 11
-29.8703155518
 21
-176.7570343018
 31
0.0
  0
LINE
  5
D8
100
AcDbEntity
  8
LY_3
  6
DASHED
 62
        80
100
AcDbLine
 10
-47.8702850342
 20
-160.7570343018
 30
0.0
 11
-28.870300293
 21
-160.7570343018
 31
0.0
  0
LINE
  5
D9
100
AcDbEntity
  8
LY_3
  6
DASHED
 62
        80
100
AcDbLine
 10
-29.8703216712
 20
-176.7569699432
 30
0.0
 11
-28.8703202974
 21
-177.7569707269
 31
0.0
  0
LINE
  5
DA
100
AcDbEntity
  8
LY_3
  6
DASHED
 62
        80
100
AcDbLine
 10
-29.8703208715
 20
-162.7569821744
 30
0.0
 11
-28.8703199193
 21
-161.7569809692
 31
0.0
  0
LINE
  5
DB
100
AcDbEntity
  8
LY_3
  6
DASHED
 62
        80
100
AcDbLine
 10
-29.8703155518
 20
-176.7570343018
 30
0.0
 11
-29.8703155518
 21
-162.7570343018
 31
0.0
  0
LINE
  5
DC
100
AcDbEntity
  8
LY_3
  6
DASHED
 62
        80
100
AcDbLine
 10
42.129699707
 20
-162.2570495605
 30
0.0
 11
60.1294708252
 21
-162.2570495605
 31
0.0
  0
LINE
  5
DD
100
AcDbEntity
  8
LY_3
  6
DASHED
 62
        80
100
AcDbLine
 10
42.129699707
 20
-177.2570343018
 30
0.0
 11
60.1294708252
 21
-177.2570343018
 31
0.0
  0
LINE
  5
DE
100
AcDbEntity
  8
LY_3
  6
DASHED
 62
        80
100
AcDbLine
 10
42.129699707
 20
-160.2570495605
 30
0.0
 11
61.1294708252
 21
-160.2570495605
 31
0.0
  0
LINE
  5
DF
100
AcDbEntity
  8
LY_3
  6
DASHED
 62
        80
100
AcDbLine
 10
60.1296659972
 20
-177.2569699253
 30
0.0
 11
61.1296671181
 21
-178.2569709619
 31
0.0
  0
LINE
  5
E0
100
AcDbEntity
  8
LY_3
  6
DASHED
 62
        80
100
AcDbLine
 10
60.1296553364
 20
-162.2569766289
 30
0.0
 11
61.1296560358
 21
-161.2569751709
 31
0.0
  0
LINE
  5
E1
100
AcDbEntity
  8
LY_3
  6
DASHED
 62
        80
100
AcDbLine
 10
60.1294708252
 20
-177.2570343018
 30
0.0
 11
60.1294708252
 21
-162.2570343018
 31
0.0
  0
LINE
  5
E2
100
AcDbEntity
  8
LY_3
  6
DASHED
 62
        80
100
AcDbLine
 10
132.1297302246
 20
-161.756942749
 30
0.0
 11
150.1296844482
 21
-161.756942749
 31
0.0
  0
LINE
  5
E3
100
AcDbEntity
  8
LY_3
  6
DASHED
 62
        80
100
AcDbLine
 10
132.1297302246
 20
-177.7569122314
 30
0.0
 11
150.129699707
 21
-177.7569122314
 31
0.0
  0
LINE
  5
E4
100
AcDbEntity
  8
LY_3
  6
DASHED
 62
        80
100
AcDbLine
 10
132.1297302246
 20
-159.7569274902
 30
0.0
 11
151.129699707
 21
-159.7569274902
 31
0.0
  0
LINE
  5
E5
100
AcDbEntity
  8
LY_3
  6
DASHED
 62
        80
100
AcDbLine
 10
150.1300678996
 20
-177.7566184048
 30
0.0
 11
151.1300586102
 21
-178.7566082725
 31
0.0
  0
LINE
  5
E6
100
AcDbEntity
  8
LY_3
  6
DASHED
 62
        80
100
AcDbLine
 10
150.1300651362
 20
-161.7566354236
 30
0.0
 11
151.1299583189
 21
-160.7567422409
 31
0.0
  0
LINE
  5
E7
100
AcDbEntity
  8
LY_3
  6
DASHED
 62
        80
100
AcDbLine
 10
150.1297302246
 20
-177.756942749
 30
0.0
 11
150.1297302246
 21
-161.7569580078
 31
0.0
  0
LINE
  5
E8
100
AcDbEntity
  8
LY_3
  6
DASHED
 62
        80
100
AcDbLine
 10
-104.8702697754
 20
-233.7569885254
 30
0.0
 11
-122.8702392578
 21
-233.7569885254
 31
0.0
  0
LINE
  5
E9
100
AcDbEntity
  8
LY_3
  6
DASHED
 62
        80
100
AcDbLine
 10
-104.8702697754
 20
-215.757019043
 30
0.0
 11
-122.8702545166
 21
-215.757019043
 31
0.0
  0
LINE
  5
EA
100
AcDbEntity
  8
LY_3
  6
DASHED
 62
        80
100
AcDbLine
 10
-122.8702748378
 20
-215.7569768747
 30
0.0
 11
-123.8702757901
 21
-214.7569756696
 31
0.0
  0
LINE
  5
EB
100
AcDbEntity
  8
LY_3
  6
DASHED
 62
        80
100
AcDbLine
 10
-122.870244745
 20
-233.7569423434
 30
0.0
 11
-123.8701380542
 21
-234.7568353998
 31
0.0
  0
LINE
  5
EC
100
AcDbEntity
  8
LY_3
  6
DASHED
 62
        80
100
AcDbLine
 10
-122.8702850342
 20
-215.7570343018
 30
0.0
 11
-122.8702850342
 21
-222.2570495605
 31
0.0
  0
LINE
  5
ED
100
AcDbEntity
  8
LY_3
  6
DASHED
 62
        80
100
AcDbLine
 10
-123.8702850342
 20
-222.2570495605
 30
0.0
 11
-104.8702850342
 21
-222.2570495605
 31
0.0
  0
LINE
  5
EE
100
AcDbEntity
  8
LY_3
  6
DASHED
 62
        80
100
AcDbLine
 10
-123.8702850342
 20
-227.2570495605
 30
0.0
 11
-104.8702850342
 21
-227.2570495605
 31
0.0
  0
LINE
  5
EF
100
AcDbEntity
  8
LY_3
  6
DASHED
 62
        80
100
AcDbLine
 10
-122.8702850342
 20
-227.2570495605
 30
0.0
 11
-122.8702850342
 21
-233.7570343018
 31
0.0
  0
LINE
  5
F0
100
AcDbEntity
  8
LY_3
  6
DASHED
 62
        80
100
AcDbLine
 10
-92.8702697754
 20
-215.757019043
 30
0.0
 11
-74.8702545166
 21
-215.757019043
 31
0.0
  0
LINE
  5
F1
100
AcDbEntity
  8
LY_3
  6
DASHED
 62
        80
100
AcDbLine
 10
-92.8702697754
 20
-233.7570037842
 30
0.0
 11
-74.8702545166
 21
-233.7570037842
 31
0.0
  0
LINE
  5
F2
100
AcDbEntity
  8
LY_3
  6
DASHED
 62
        80
100
AcDbLine
 10
-92.8702697754
 20
-213.7570037842
 30
0.0
 11
-73.8702392578
 21
-213.7570037842
 31
0.0
  0
LINE
  5
F3
100
AcDbEntity
  8
LY_3
  6
DASHED
 62
        80
100
AcDbLine
 10
-74.8703008631
 20
-233.7569484126
 30
0.0
 11
-73.8702999109
 21
-234.7569496177
 31
0.0
  0
LINE
  5
F4
100
AcDbEntity
  8
LY_3
  6
DASHED
 62
        80
100
AcDbLine
 10
-74.870277008
 20
-215.7569721543
 30
0.0
 11
-73.8702865925
 21
-214.7569819916
 31
0.0
  0
LINE
  5
F5
100
AcDbEntity
  8
LY_3
  6
DASHED
 62
        80
100
AcDbLine
 10
-74.8702545166
 20
-233.7570037842
 30
0.0
 11
-74.8702545166
 21
-215.757019043
 31
0.0
  0
LINE
  5
F6
100
AcDbEntity
  8
LY_3
  6
DASHED
 62
        80
100
AcDbLine
 10
-14.870300293
 20
-234.2569885254
 30
0.0
 11
-32.8702850342
 21
-234.2569885254
 31
0.0
  0
LINE
  5
F7
100
AcDbEntity
  8
LY_3
  6
DASHED
 62
        80
100
AcDbLine
 10
-14.870300293
 20
-215.2570037842
 30
0.0
 11
-32.8702850342
 21
-215.2570037842
 31
0.0
  0
LINE
  5
F8
100
AcDbEntity
  8
LY_3
  6
DASHED
 62
        80
100
AcDbLine
 10
-32.8703135487
 20
-215.2569584104
 30
0.0
 11
-33.8703149224
 21
-214.2569576268
 31
0.0
  0
LINE
  5
F9
100
AcDbEntity
  8
LY_3
  6
DASHED
 62
        80
100
AcDbLine
 10
-32.8703150672
 20
-234.2569625747
 30
0.0
 11
-33.8703160194
 21
-235.2569637798
 31
0.0
  0
LINE
  5
FA
100
AcDbEntity
  8
LY_3
  6
DASHED
 62
        80
100
AcDbLine
 10
-32.8702850342
 20
-215.2570343018
 30
0.0
 11
-32.8702850342
 21
-222.2570495605
 31
0.0
  0
LINE
  5
FB
100
AcDbEntity
  8
LY_3
  6
DASHED
 62
        80
100
AcDbLine
 10
-33.8702850342
 20
-222.2570495605
 30
0.0
 11
-14.8702850342
 21
-222.2570495605
 31
0.0
  0
LINE
  5
FC
100
AcDbEntity
  8
LY_3
  6
DASHED
 62
        80
100
AcDbLine
 10
-33.8702850342
 20
-227.2570495605
 30
0.0
 11
-14.8702850342
 21
-227.2570495605
 31
0.0
  0
LINE
  5
FD
100
AcDbEntity
  8
LY_3
  6
DASHED
 62
        80
100
AcDbLine
 10
-32.8702850342
 20
-227.2570495605
 30
0.0
 11
-32.8702850342
 21
-234.2570343018
 31
0.0
  0
LINE
  5
FE
100
AcDbEntity
  8
LY_3
  6
DASHED
 62
        80
100
AcDbLine
 10
-2.870300293
 20
-215.2570343018
 30
0.0
 11
15.1296844482
 21
-215.2570343018
 31
0.0
  0
LINE
  5
FF
100
AcDbEntity
  8
LY_3
  6
DASHED
 62
        80
100
AcDbLine
 10
-2.870300293
 20
-234.2570037842
 30
0.0
 11
15.1296844482
 21
-234.2570037842
 31
0.0
  0
LINE
  5
100
100
AcDbEntity
  8
LY_3
  6
DASHED
 62
        80
100
AcDbLine
 10
-2.870300293
 20
-213.257019043
 30
0.0
 11
16.1296844482
 21
-213.257019043
 31
0.0
  0
LINE
  5
101
100
AcDbEntity
  8
LY_3
  6
DASHED
 62
        80
100
AcDbLine
 10
15.1296790971
 20
-234.2569431653
 30
0.0
 11
16.1296804708
 21
-235.256943949
 31
0.0
  0
LINE
  5
102
100
AcDbEntity
  8
LY_3
  6
DASHED
 62
        80
100
AcDbLine
 10
15.1296803603
 20
-215.2569899581
 30
0.0
 11
16.1296813126
 21
-214.256988753
 31
0.0
  0
LINE
  5
103
100
AcDbEntity
  8
LY_3
  6
DASHED
 62
        80
100
AcDbLine
 10
15.1296844482
 20
-234.2570037842
 30
0.0
 11
15.1296844482
 21
-215.257019043
 31
0.0
  0
LINE
  5
104
100
AcDbEntity
  8
LY_3
  6
DASHED
 62
        80
100
AcDbLine
 10
75.129699707
 20
-234.7569885254
 30
0.0
 11
57.1296844482
 21
-234.7569885254
 31
0.0
  0
LINE
  5
105
100
AcDbEntity
  8
LY_3
  6
DASHED
 62
        80
100
AcDbLine
 10
75.129699707
 20
-214.7570037842
 30
0.0
 11
57.1296844482
 21
-214.7570037842
 31
0.0
  0
LINE
  5
106
100
AcDbEntity
  8
LY_3
  6
DASHED
 62
        80
100
AcDbLine
 10
57.1296984486
 20
-214.756958963
 30
0.0
 11
56.1296973699
 21
-213.7569578843
 31
0.0
  0
LINE
  5
107
100
AcDbEntity
  8
LY_3
  6
DASHED
 62
        80
100
AcDbLine
 10
57.1296894954
 20
-234.7569348796
 30
0.0
 11
56.1296888381
 21
-235.7569363797
 31
0.0
  0
LINE
  5
108
100
AcDbEntity
  8
LY_3
  6
DASHED
 62
        80
100
AcDbLine
 10
57.1297149658
 20
-214.7570343018
 30
0.0
 11
57.1297149658
 21
-222.2570495605
 31
0.0
  0
LINE
  5
109
100
AcDbEntity
  8
LY_3
  6
DASHED
 62
        80
100
AcDbLine
 10
56.1297149658
 20
-222.2570495605
 30
0.0
 11
75.1297149658
 21
-222.2570495605
 31
0.0
  0
LINE
  5
10A
100
AcDbEntity
  8
LY_3
  6
DASHED
 62
        80
100
AcDbLine
 10
56.1297149658
 20
-227.2570495605
 30
0.0
 11
75.1297149658
 21
-227.2570495605
 31
0.0
  0
LINE
  5
10B
100
AcDbEntity
  8
LY_3
  6
DASHED
 62
        80
100
AcDbLine
 10
57.1297149658
 20
-227.2570495605
 30
0.0
 11
57.1297149658
 21
-234.7570343018
 31
0.0
  0
LINE
  5
10C
100
AcDbEntity
  8
LY_3
  6
DASHED
 62
        80
100
AcDbLine
 10
87.1294708252
 20
-214.757019043
 30
0.0
 11
105.1294708252
 21
-214.757019043
 31
0.0
  0
LINE
  5
10D
100
AcDbEntity
  8
LY_3
  6
DASHED
 62
        80
100
AcDbLine
 10
87.1294708252
 20
-234.7569885254
 30
0.0
 11
105.1294708252
 21
-234.7569885254
 31
0.0
  0
LINE
  5
10E
100
AcDbEntity
  8
LY_3
  6
DASHED
 62
        80
100
AcDbLine
 10
87.1294708252
 20
-212.7570037842
 30
0.0
 11
106.1294708252
 21
-212.7570037842
 31
0.0
  0
LINE
  5
10F
100
AcDbEntity
  8
LY_3
  6
DASHED
 62
        80
100
AcDbLine
 10
105.1295775929
 20
-234.756851062
 30
0.0
 11
106.1296434092
 21
-235.7569168782
 31
0.0
  0
LINE
  5
110
100
AcDbEntity
  8
LY_3
  6
DASHED
 62
        80
100
AcDbLine
 10
105.1296896854
 20
-214.7569362334
 30
0.0
 11
106.1296903426
 21
-213.7569347332
 31
0.0
  0
LINE
  5
111
100
AcDbEntity
  8
LY_3
  6
DASHED
 62
        80
100
AcDbLine
 10
105.1294708252
 20
-234.7569885254
 30
0.0
 11
105.1294708252
 21
-214.7570037842
 31
0.0
  0
MTEXT
  5
112
100
AcDbEntity
  8
LY_3
  6
CONTINUOUS
 62
       110
100
AcDbMText
 10
-108.5553398787
 20
92.6673583984
 30
0.0
 40
13.0
 41
0.0
 71
         1
 72
         1
  1
\W1.024;\A1;JAW-FLEX COUPLING
  0
MTEXT
  5
113
100
AcDbEntity
  8
LY_3
  6
CONTINUOUS
 62
       110
100
AcDbMText
 10
-72.1271033521
 20
68.6673583984
 30
0.0
 40
15.0
 41
0.0
 71
         1
 72
         1
  1
\W1.154;\A1;L070-S,M,H
  0
MTEXT
  5
114
100
AcDbEntity
  8
LY_3
  6
CONTINUOUS
 62
       110
100
AcDbMText
 10
-17.6567819057
 20
33.7906951904
 30
0.0
 40
3.1499938965
 41
0.0
 71
         1
 72
         1
  1
\W1.230;\A1;J: JIS B 1301-1976
  0
MTEXT
  5
115
100
AcDbEntity
  8
LY_3
  6
CONTINUOUS
 62
       110
100
AcDbMText
 10
-23.7675908926
 20
39.5703277587
 30
0.0
 40
3.1499938965
 41
0.0
 71
         1
 72
         1
  1
\W1.010;\A1;KEY WAY
  0
MTEXT
  5
116
100
AcDbEntity
  8
LY_3
  6
CONTINUOUS
 62
       110
100
AcDbMText
 10
108.5234756235
 20
-91.9635162354
 30
0.0
 40
3.1499938965
 41
0.0
 71
         1
 72
         1
  1
\W1.500;\A1;11
  0
MTEXT
  5
117
100
AcDbEntity
  8
LY_3
  6
CONTINUOUS
 62
       110
100
AcDbMText
 10
-133.931135182
 20
-46.2122192383
 30
0.0
 40
3.1499938965
 41
0.0
 71
         1
 72
         1
  1
\W1.125;\A1;16J
  0
MTEXT
  5
118
100
AcDbEntity
  8
LY_3
  6
CONTINUOUS
 62
       110
100
AcDbMText
 10
-72.7289104506
 20
-46.4631195069
 30
0.0
 40
3.1499938965
 41
0.0
 71
         1
 72
         1
  1
\W1.125;\A1;18J
  0
MTEXT
  5
119
100
AcDbEntity
  8
LY_3
  6
CONTINUOUS
 62
       110
100
AcDbMText
 10
-42.8791027113
 20
-46.2799987793
 30
0.0
 40
3.1499938965
 41
0.0
 71
         1
 72
         1
  1
\W1.125;\A1;18J
  0
MTEXT
  5
11A
100
AcDbEntity
  8
LY_3
  6
CONTINUOUS
 62
       110
100
AcDbMText
 10
106.5162360958
 20
-46.5342102051
 30
0.0
 40
3.1499938965
 41
0.0
 71
         1
 72
         1
  1
\W1.165;\A1; 20J
  0
MTEXT
  5
11B
100
AcDbEntity
  8
LY_3
  6
CONTINUOUS
 62
       110
100
AcDbMText
 10
133.4666145138
 20
-46.162765503
 30
0.0
 40
3.1499938965
 41
0.0
 71
         1
 72
         1
  1
\W1.165;\A1; 20J
  0
MTEXT
  5
11C
100
AcDbEntity
  8
LY_3
  6
CONTINUOUS
 62
       110
100
AcDbMText
 10
90.4134998278
 20
4.8810005188
 30
0.0
 40
3.1499938965
 41
0.0
 71
         1
 72
         1
  1
\W1.125;\A1;15J
  0
MTEXT
  5
11D
100
AcDbEntity
  8
LY_3
  6
CONTINUOUS
 62
       110
100
AcDbMText
 10
14.9679440554
 20
-46.2627410889
 30
0.0
 40
3.1499938965
 41
0.0
 71
         1
 72
         1
  1
\W1.091;\A1;19JN
  0
MTEXT
  5
11E
100
AcDbEntity
  8
LY_3
  6
CONTINUOUS
 62
       110
100
AcDbMText
 10
45.3434018191
 20
-45.9770812989
 30
0.0
 40
3.1499938965
 41
0.0
 71
         1
 72
         1
  1
\W1.091;\A1;19JN
  0
MTEXT
  5
11F
100
AcDbEntity
  8
LY_3
  6
CONTINUOUS
 62
       110
100
AcDbMText
 10
-163.2544536635
 20
-48.8426970472
 30
0.0
 40
3.1499938965
 41
0.0
 71
         1
 72
         1
  1
\W1.125;\A1;16E
  0
MTEXT
  5
120
100
AcDbEntity
  8
LY_3
  6
CONTINUOUS
 62
       110
100
AcDbMText
 10
-163.2544536635
 20
-44.1177062024
 30
0.0
 40
3.1499938965
 41
0.0
 71
         1
 72
         1
  1
\W1.125;\A1;16J
  0
MTEXT
  5
121
100
AcDbEntity
  8
LY_3
  6
CONTINUOUS
 62
       110
100
AcDbMText
 10
-88.7717266127
 20
4.9944648742
 30
0.0
 40
3.1499938965
 41
0.0
 71
         1
 72
         1
  1
\W1.125;\A1;12J
  0
MTEXT
  5
122
100
AcDbEntity
  8
LY_3
  6
CONTINUOUS
 62
       110
100
AcDbMText
 10
-30.4696780149
 20
2.7187491427
 30
0.0
 40
3.1499938965
 41
0.0
 71
         1
 72
         1
  1
\W1.091;\A1;14EN
  0
MTEXT
  5
123
100
AcDbEntity
  8
LY_3
  6
CONTINUOUS
 62
       110
100
AcDbMText
 10
-30.4696780149
 20
7.4437399875
 30
0.0
 40
3.1499938965
 41
0.0
 71
         1
 72
         1
  1
\W1.091;\A1;14JN
  0
MTEXT
  5
124
100
AcDbEntity
  8
LY_3
  6
CONTINUOUS
 62
       110
100
AcDbMText
 10
1.5927914675
 20
4.7767934799
 30
0.0
 40
3.1499938965
 41
0.0
 71
         1
 72
         1
  1
\W1.091;\A1;14JN
  0
MTEXT
  5
125
100
AcDbEntity
  8
LY_3
  6
CONTINUOUS
 62
       110
100
AcDbMText
 10
60.3998279528
 20
3.8950005542
 30
0.0
 40
3.1499938965
 41
0.0
 71
         1
 72
         1
  1
\W1.125;\A1;15E
  0
MTEXT
  5
126
100
AcDbEntity
  8
LY_3
  6
CONTINUOUS
 62
       110
100
AcDbMText
 10
60.3998279528
 20
8.6199913989
 30
0.0
 40
3.1499938965
 41
0.0
 71
         1
 72
         1
  1
\W1.125;\A1;15J
  0
MTEXT
  5
127
100
AcDbEntity
  8
LY_3
  6
CONTINUOUS
 62
       110
100
AcDbMText
 10
-118.5003032728
 20
3.0178967486
 30
0.0
 40
3.1499938965
 41
0.0
 71
         1
 72
         1
  1
\W1.125;\A1;12E
  0
MTEXT
  5
128
100
AcDbEntity
  8
LY_3
  6
CONTINUOUS
 62
       110
100
AcDbMText
 10
-118.5003032728
 20
7.7428875933
 30
0.0
 40
3.1499938965
 41
0.0
 71
         1
 72
         1
  1
\W1.125;\A1;12J
  0
MTEXT
  5
129
100
AcDbEntity
  8
LY_3
  6
CONTINUOUS
 62
       110
100
AcDbMText
 10
-17.6567819057
 20
25.8433227539
 30
0.0
 40
3.1499938965
 41
0.0
 71
         1
 72
         1
  1
\W1.230;\A1;E: JIS B 1301-1959
  0
MTEXT
  5
12A
100
AcDbEntity
  8
LY_3
  6
CONTINUOUS
 62
       110
100
AcDbMText
 10
135.0134601549
 20
-152.2550048829
 30
0.0
 40
3.1499938965
 41
0.0
 71
         1
 72
         1
  1
\W1.125;\A1;16E
  0
MTEXT
  5
12B
100
AcDbEntity
  8
LY_3
  6
CONTINUOUS
 62
       110
100
AcDbMText
 10
-120.5151500746
 20
-203.0845031739
 30
0.0
 40
3.1499938965
 41
0.0
 71
         1
 72
         1
  1
\W1.125;\A1;18E
  0
MTEXT
  5
12C
100
AcDbEntity
  8
LY_3
  6
CONTINUOUS
 62
       110
100
AcDbMText
 10
-88.2873821303
 20
-202.8181610108
 30
0.0
 40
3.1499938965
 41
0.0
 71
         1
 72
         1
  1
\W1.125;\A1;18E
  0
MTEXT
  5
12D
100
AcDbEntity
  8
LY_3
  6
CONTINUOUS
 62
       110
100
AcDbMText
 10
59.28886488
 20
-203.0845031739
 30
0.0
 40
3.1499938965
 41
0.0
 71
         1
 72
         1
  1
\W1.165;\A1; 20E
  0
MTEXT
  5
12E
100
AcDbEntity
  8
LY_3
  6
CONTINUOUS
 62
       110
100
AcDbMText
 10
88.2078407101
 20
-202.6658172608
 30
0.0
 40
3.1499938965
 41
0.0
 71
         1
 72
         1
  1
\W1.165;\A1; 20E
  0
MTEXT
  5
12F
100
AcDbEntity
  8
LY_3
  6
CONTINUOUS
 62
       110
100
AcDbMText
 10
-134.7936840101
 20
-152.4012451172
 30
0.0
 40
3.1499938965
 41
0.0
 71
         1
 72
         1
  1
\W1.125;\A1;12E
  0
MTEXT
  5
130
100
AcDbEntity
  8
LY_3
  6
CONTINUOUS
 62
       110
100
AcDbMText
 10
-46.3820773069
 20
-152.4861755372
 30
0.0
 40
3.1499938965
 41
0.0
 71
         1
 72
         1
  1
\W1.091;\A1;14EN
  0
MTEXT
  5
131
100
AcDbEntity
  8
LY_3
  6
CONTINUOUS
 62
       110
100
AcDbMText
 10
45.8474140123
 20
-152.6609191895
 30
0.0
 40
3.1499938965
 41
0.0
 71
         1
 72
         1
  1
\W1.125;\A1;15E
  0
MTEXT
  5
132
100
AcDbEntity
  8
LY_3
  6
CONTINUOUS
 62
       110
100
AcDbMText
 10
-30.2420321409
 20
-203.3508605957
 30
0.0
 40
3.1499938965
 41
0.0
 71
         1
 72
         1
  1
\W1.091;\A1;19EN
  0
MTEXT
  5
133
100
AcDbEntity
  8
LY_3
  6
CONTINUOUS
 62
       110
100
AcDbMText
 10
1.1866997774
 20
-202.8181610108
 30
0.0
 40
3.1499938965
 41
0.0
 71
         1
 72
         1
  1
\W1.091;\A1;19EN
  0
ENDSEC
  0
SECTION
  2
OBJECTS
  0
DICTIONARY
  5
19
100
AcDbDictionary
  3
ACAD_GROUP
350
1A
  3
ACAD_MLINESTYLE
350
1B
  0
DICTIONARY
  5
1A
102
{ACAD_REACTORS
330
19
102
}
100
AcDbDictionary
  0
DICTIONARY
  5
1B
102
{ACAD_REACTORS
330
19
102
}
100
AcDbDictionary
  3
STANDARD
350
1C
  0
MLINESTYLE
  5
1C
102
{ACAD_REACTORS
330
1B
102
}
100
AcDbMlineStyle
  2
Standard
 70
         0
  3

 62
         0
 51
90.0
 52
90.0
 71
         2
 49
0.5
 62
       256
  6
ByLayer
 49
-0.5
 62
       256
  6
ByLayer
  0
ENDSEC
  0
EOF
