  0
SECTION
  2
HEADER
  9
$ACADVER
  1
AC1014
  9
$ACADMAINTVER
 70
         0
  9
$DWGCODEPAGE
  3
ANSI_932
  9
$INSBASE
 10
0.0
 20
0.0
 30
0.0
  9
$EXTMIN
 10
-149.7476530076
 20
-149.4067125993
 30
0.0
  9
$EXTMAX
 10
110.2258167266
 20
122.1256914138
 30
0.0
  9
$LIMMIN
 10
-149.7476530076
 20
-149.4067125993
  9
$LIMMAX
 10
110.2258167266
 20
122.1256914138
  9
$ORTHOMODE
 70
         0
  9
$REGENMODE
 70
         1
  9
$FILLMODE
 70
         1
  9
$QTEXTMODE
 70
         0
  9
$MIRRTEXT
 70
         1
  9
$DRAGMODE
 70
         2
  9
$LTSCALE
 40
1.0
  9
$OSMODE
 70
         0
  9
$ATTMODE
 70
         1
  9
$TEXTSIZE
 40
3.2000000477
  9
$TRACEWID
 40
0.05
  9
$TEXTSTYLE
  7
MX_NOTE_STANDARD
  9
$CLAYER
  8
0
  9
$CELTYPE
  6
CONTINUOUS
  9
$CECOLOR
 62
       256
  9
$CELTSCALE
 40
1.0
  9
$DELOBJ
 70
         1
  9
$DISPSILH
 70
         0
  9
$DIMSCALE
 40
1.0
  9
$DIMASZ
 40
2.5
  9
$DIMEXO
 40
0.0
  9
$DIMDLI
 40
3.75
  9
$DIMRND
 40
0.0
  9
$DIMDLE
 40
0.0
  9
$DIMEXE
 40
2.5
  9
$DIMTP
 40
0.0
  9
$DIMTM
 40
0.0
  9
$DIMTXT
 40
3.2000000477
  9
$DIMCEN
 40
2.5
  9
$DIMTSZ
 40
0.0
  9
$DIMTOL
 70
         0
  9
$DIMLIM
 70
         0
  9
$DIMTIH
 70
         0
  9
$DIMTOH
 70
         0
  9
$DIMSE1
 70
         0
  9
$DIMSE2
 70
         0
  9
$DIMTAD
 70
         1
  9
$DIMZIN
 70
         8
  9
$DIMBLK
  1

  9
$DIMASO
 70
         1
  9
$DIMSHO
 70
         1
  9
$DIMPOST
  1

  9
$DIMAPOST
  1

  9
$DIMALT
 70
         0
  9
$DIMALTD
 70
         4
  9
$DIMALTF
 40
0.0393700787
  9
$DIMLFAC
 40
1.0
  9
$DIMTOFL
 70
         1
  9
$DIMTVP
 40
0.0
  9
$DIMTIX
 70
         0
  9
$DIMSOXD
 70
         0
  9
$DIMSAH
 70
         1
  9
$DIMBLK1
  1
_OPEN30
  9
$DIMBLK2
  1
_OPEN30
  9
$DIMSTYLE
  2
MXDIMSTYLE
  9
$DIMCLRD
 70
         0
  9
$DIMCLRE
 70
         0
  9
$DIMCLRT
 70
         0
  9
$DIMTFAC
 40
1.0
  9
$DIMGAP
 40
1.0
  9
$DIMJUST
 70
         0
  9
$DIMSD1
 70
         0
  9
$DIMSD2
 70
         0
  9
$DIMTOLJ
 70
         0
  9
$DIMTZIN
 70
         0
  9
$DIMALTZ
 70
         0
  9
$DIMALTTZ
 70
         0
  9
$DIMFIT
 70
         3
  9
$DIMUPT
 70
         0
  9
$DIMUNIT
 70
         2
  9
$DIMDEC
 70
         2
  9
$DIMTDEC
 70
         2
  9
$DIMALTU
 70
         2
  9
$DIMALTTD
 70
         4
  9
$DIMTXSTY
  7
MX_NOTE_STANDARD
  9
$DIMAUNIT
 70
         0
  9
$LUNITS
 70
         2
  9
$LUPREC
 70
         4
  9
$SKETCHINC
 40
0.1
  9
$FILLETRAD
 40
0.0
  9
$AUNITS
 70
         0
  9
$AUPREC
 70
         0
  9
$MENU
  1
acad
  9
$ELEVATION
 40
0.0
  9
$PELEVATION
 40
0.0
  9
$THICKNESS
 40
0.0
  9
$LIMCHECK
 70
         0
  9
$BLIPMODE
 70
         1
  9
$CHAMFERA
 40
0.0
  9
$CHAMFERB
 40
0.0
  9
$CHAMFERC
 40
0.0
  9
$CHAMFERD
 40
0.0
  9
$SKPOLY
 70
         0
  9
$TDCREATE
 40
2456603.469965278
  9
$TDUPDATE
 40
2456603.469965278
  9
$TDINDWG
 40
0.0000000000
  9
$TDUSRTIMER
 40
0.0000000000
  9
$USRTIMER
 70
         1
  9
$ANGBASE
 50
0.0
  9
$ANGDIR
 70
         0
  9
$PDMODE
 70
         0
  9
$PDSIZE
 40
0.0
  9
$PLINEWID
 40
0.0
  9
$COORDS
 70
         1
  9
$SPLFRAME
 70
         0
  9
$SPLINETYPE
 70
         6
  9
$SPLINESEGS
 70
         8
  9
$ATTDIA
 70
         0
  9
$ATTREQ
 70
         1
  9
$HANDLING
 70
         1
  9
$HANDSEED
  5
C9
  9
$SURFTAB1
 70
         6
  9
$SURFTAB2
 70
         6
  9
$SURFTYPE
 70
         6
  9
$SURFU
 70
         6
  9
$SURFV
 70
         6
  9
$UCSNAME
  2

  9
$UCSORG
 10
0.0
 20
0.0
 30
0.0
  9
$UCSXDIR
 10
1.0
 20
0.0
 30
0.0
  9
$UCSYDIR
 10
0.0
 20
1.0
 30
0.0
  9
$PUCSNAME
  2

  9
$PUCSORG
 10
0.0
 20
0.0
 30
0.0
  9
$PUCSXDIR
 10
1.0
 20
0.0
 30
0.0
  9
$PUCSYDIR
 10
0.0
 20
1.0
 30
0.0
  9
$USERI1
 70
         0
  9
$USERI2
 70
         0
  9
$USERI3
 70
         0
  9
$USERI4
 70
         0
  9
$USERI5
 70
         0
  9
$USERR1
 40
0.0
  9
$USERR2
 40
0.0
  9
$USERR3
 40
0.0
  9
$USERR4
 40
0.0
  9
$USERR5
 40
0.0
  9
$WORLDVIEW
 70
         1
  9
$SHADEDGE
 70
         3
  9
$SHADEDIF
 70
        70
  9
$TILEMODE
 70
         1
  9
$MAXACTVP
 70
        16
  9
$PINSBASE
 10
0.0
 20
0.0
 30
0.0
  9
$PLIMCHECK
 70
         0
  9
$PEXTMIN
 10
1.0000000000E+20
 20
1.0000000000E+20
 30
1.0000000000E+20
  9
$PEXTMAX
 10
-1.0000000000E+20
 20
-1.0000000000E+20
 30
-1.0000000000E+20
  9
$PLIMMIN
 10
0.0
 20
0.0
  9
$PLIMMAX
 10
12.0
 20
9.0
  9
$UNITMODE
 70
         0
  9
$VISRETAIN
 70
         0
  9
$PLINEGEN
 70
         1
  9
$PSLTSCALE
 70
         0
  9
$TREEDEPTH
 70
      3020
  9
$PICKSTYLE
 70
         1
  9
$CMLSTYLE
  2
Standard
  9
$CMLJUST
 70
         0
  9
$CMLSCALE
 40
1.0
  9
$PROXYGRAPHICS
 70
         0
  9
$MEASUREMENT
 70
         1
  0
ENDSEC
  0
SECTION
  2
CLASSES
  0
CLASS
  1
LWPOLYLINE
  2
AcDbPolyline
  3
"AutoCAD"
 90
        0
280
         0
281
         1
  0
CLASS
  1
IMAGE
  2
AcDbRasterImage
  3
ISM
 90
      127
280
         0
281
         1
  0
CLASS
  1
OLE2FRAME
  2
AcDbOle2Frame
  3
""
 90
        0
280
         0
281
         1
  0
CLASS
  1
HATCH
  2
AcDbHatch
  3
"ACAD_SEDONA"
 90
        0
280
         0
281
         1
  0
CLASS
  1
DICTIONARYVAR
  2
AcDbDictionaryVar
  3
"AutoCAD"
 90
        0
280
         0
281
         0
  0
CLASS
  1
RASTERVARIABLES
  2
AcDbRasterVariables
  3
ISM
 90
        0
280
         0
281
         0
  0
CLASS
  1
IMAGEDEF
  2
AcDbRasterImageDef
  3
ISM
 90
        0
280
         0
281
         0
  0
CLASS
  1
IMAGEDEF_REACTOR
  2
AcDbRasterImageDefReactor
  3
ISM
 90
        1
280
         0
281
         0
  0
CLASS
  1
IDBUFFER
  2
AcDbIdBuffer
  3
"Acad"
 90
        0
280
         0
281
         0
  0
CLASS
  1
SPATIAL_FILTER
  2
AcDbSpatialFilter
  3
"Acad"
 90
        0
280
         0
281
         0
  0
CLASS
  1
XRECORD
  2
AcDbXrecord
  3
"<Built In>"
 90
        0
280
         0
281
         0
  0
CLASS
  1
SORTENTSTABLE
  2
AcDbSortentsTable
  3
"AutoCAD"
 90
        0
280
         0
281
         0
  0
CLASS
  1
LAYER_INDEX
  2
AcDbLayerIndex
  3
"Acad"
 90
        0
280
         0
281
         0
  0
CLASS
  1
SPATIAL_INDEX
  2
AcDbSpatialIndex
  3
"Acad"
 90
        0
280
         0
281
         0
  0
CLASS
  1
OBJECT_PTR
  2
CAseDLPNTableRecord
  3
"ASE-LPNTableRecord"
 90
        1
280
         0
281
         0
  0
CLASS
  1
LAYOUT
  2
AcDbLayout
  3
"AutoCAD 2000"
 90
        0
280
         0
281
         0
  0
CLASS
  1
PLOTSETTINGS
  2
AcDbPlotSettings
  3
"AutoCAD 2000"
 90
        0
280
         0
281
         0
  0
CLASS
  1
ACDBDICTIONARYWDFLT
  2
AcDbDictionaryWithDefault
  3
"AutoCAD 2000"
 90
        0
280
         0
281
         0
  0
CLASS
  1
ACDBPLACEHOLDER
  2
AcDbPlaceHolder
  3
"AutoCAD 2000"
 90
        0
280
         0
281
         0
  0
ENDSEC
  0
SECTION
  2
TABLES
  0
TABLE
  2
VPORT
  5
7
100
AcDbSymbolTable
 70
         1
  0
VPORT
  5
15
100
AcDbSymbolTableRecord
100
AcDbViewportTableRecord
  2
*ACTIVE
 70
         0
 10
0.0
 20
0.0
 11
1.0
 21
1.0
 12
-19.7609181405
 22
-13.6405105927
 13
0.0
 23
0.0
 14
1.0
 24
1.0
 15
0.0
 25
0.0
 16
0.0
 26
0.0
 36
1.0
 17
0.0
 27
0.0
 37
0.0
 40
274.2477280533
 41
1.7320508076
 42
50.0
 43
0.0
 44
0.0
 50
0.0
 51
0.0
 71
         0
 72
       100
 73
         1
 74
         1
 75
         0
 76
         0
 77
         0
 78
         0
  0
ENDTAB
  0
TABLE
  2
LTYPE
  5
4
100
AcDbSymbolTable
 70
         6
  0
LTYPE
  5
11
100
AcDbSymbolTableRecord
100
AcDbLinetypeTableRecord
  2
BYBLOCK
 70
        64
  3

 72
        65
 73
         0
 40
0.0
  0
LTYPE
  5
12
100
AcDbSymbolTableRecord
100
AcDbLinetypeTableRecord
  2
BYLAYER
 70
        64
  3

 72
        65
 73
         0
 40
0.0
  0
LTYPE
  5
13
100
AcDbSymbolTableRecord
100
AcDbLinetypeTableRecord
  2
CONTINUOUS
 70
        64
  3
Solid line
 72
        65
 73
         0
 40
0.0
  0
LTYPE
  5
46
100
AcDbSymbolTableRecord
100
AcDbLinetypeTableRecord
  2
CENTER
 70
        64
  3
Center ____ _ ____ _ ____ _ ____ _ ____ _ ____
 72
        65
 73
         4
 40
50.8
 49
31.75
 74
         0
 49
-6.35
 74
         0
 49
6.35
 74
         0
 49
-6.35
 74
         0
  0
LTYPE
  5
52
100
AcDbSymbolTableRecord
100
AcDbLinetypeTableRecord
  2
PHANTOM
 70
        64
  3
Phantom ______  __  __  ______  __  __  ______
 72
        65
 73
         6
 40
63.5
 49
31.75
 74
         0
 49
-6.35
 74
         0
 49
6.35
 74
         0
 49
-6.35
 74
         0
 49
6.35
 74
         0
 49
-6.35
 74
         0
  0
LTYPE
  5
57
100
AcDbSymbolTableRecord
100
AcDbLinetypeTableRecord
  2
DASHED
 70
        64
  3
Dashed __ __ __ __ __ __ __ __ __ __ __ __ __ _
 72
        65
 73
         2
 40
19.05
 49
12.7
 74
         0
 49
-6.35
 74
         0
  0
ENDTAB
  0
TABLE
  2
LAYER
  5
2
100
AcDbSymbolTable
 70
         3
  0
LAYER
  5
14
100
AcDbSymbolTableRecord
100
AcDbLayerTableRecord
  2
0
 70
         0
 62
         7
  6
CONTINUOUS
  0
LAYER
  5
1D
100
AcDbSymbolTableRecord
100
AcDbLayerTableRecord
  2
DEFPOINTS
 70
         0
 62
         7
  6
CONTINUOUS
  0
LAYER
  5
1E
100
AcDbSymbolTableRecord
100
AcDbLayerTableRecord
  2
LY_3
 70
         0
 62
         7
  6
CONTINUOUS
  0
ENDTAB
  0
TABLE
  2
STYLE
  5
3
100
AcDbSymbolTable
 70
         1
  0
STYLE
  5
17
100
AcDbSymbolTableRecord
100
AcDbTextStyleTableRecord
  2
MX_NOTE_STANDARD
 70
         0
 40
0.0
 41
1.0
 50
0.0
 71
         0
 42
3.2000000477
  3
txt.shx
  4
extfont.shx
  0
ENDTAB
  0
TABLE
  2
VIEW
  5
5
100
AcDbSymbolTable
 70
         0
  0
ENDTAB
  0
TABLE
  2
UCS
  5
6
100
AcDbSymbolTable
 70
         0
  0
ENDTAB
  0
TABLE
  2
APPID
  5
8
100
AcDbSymbolTable
 70
         1
  0
APPID
  5
16
100
AcDbSymbolTableRecord
100
AcDbRegAppTableRecord
  2
ACAD
 70
         0
  0
ENDTAB
  0
TABLE
  2
DIMSTYLE
  5
9
100
AcDbSymbolTable
 70
         1
  0
DIMSTYLE
105
18
100
AcDbSymbolTableRecord
100
AcDbDimStyleTableRecord
  2
MXDIMSTYLE
 70
         0
  3

  4

  5

  6
_OPEN30
  7
_OPEN30
 40
1.0
 41
2.5
 42
0.0
 43
3.75
 44
2.5
 45
0.0
 46
0.0
 47
0.0
 48
0.0
 71
         0
 72
         0
 73
         0
 74
         0
 75
         0
 76
         0
 77
         1
 78
         8
140
3.2000000477
141
2.5
142
0.0
143
0.0393700787
144
1.0
145
0.0
146
1.0
147
1.0
170
         0
171
         4
172
         1
173
         1
174
         0
175
         0
176
         0
177
         0
178
         0
270
         2
271
         2
272
         2
273
         2
274
         4
275
         0
280
         0
281
         0
282
         0
283
         0
284
         0
285
         0
286
         0
287
         3
288
         0
340
17
  0
ENDTAB
  0
TABLE
  2
BLOCK_RECORD
  5
1
100
AcDbSymbolTable
 70
         1
  0
BLOCK_RECORD
  5
A
100
AcDbSymbolTableRecord
100
AcDbBlockTableRecord
  2
*MODEL_SPACE
  0
BLOCK_RECORD
  5
B
100
AcDbSymbolTableRecord
100
AcDbBlockTableRecord
  2
*PAPER_SPACE
  0
BLOCK_RECORD
  5
1F
100
AcDbSymbolTableRecord
100
AcDbBlockTableRecord
  2
_OPEN30
  0
ENDTAB
  0
ENDSEC
  0
SECTION
  2
BLOCKS
  0
BLOCK
  5
D
100
AcDbEntity
  8
0
100
AcDbBlockBegin
  2
*MODEL_SPACE
 70
         0
 10
0.0
 20
0.0
 30
0.0
  3
*MODEL_SPACE
  1

  0
ENDBLK
  5
E
100
AcDbEntity
  8
0
100
AcDbBlockEnd
  0
BLOCK
  5
F
100
AcDbEntity
 67
         1
  8
0
100
AcDbBlockBegin
  2
*PAPER_SPACE
 70
         0
 10
0.0
 20
0.0
 30
0.0
  3
*PAPER_SPACE
  1

  0
ENDBLK
  5
10
100
AcDbEntity
 67
         1
  8
0
100
AcDbBlockEnd
  0
BLOCK
  5
20
100
AcDbEntity
  8
0
  6
ByBlock
 62
         0
100
AcDbBlockBegin
  2
_OPEN30
 70
         2
 10
0.0
 20
0.0
 30
0.0
  3
_OPEN30
  1

  0
LINE
  5
21
100
AcDbEntity
  8
0
  6
ByBlock
 62
         0
100
AcDbLine
 10
-1.0
 20
0.267949
 30
0.0
 11
0.0
 21
0.0
 31
0.0
  0
LINE
  5
22
100
AcDbEntity
  8
0
  6
ByBlock
 62
         0
100
AcDbLine
 10
0.0
 20
0.0
 30
0.0
 11
-1.0
 21
-0.267949
 31
0.0
  0
LINE
  5
23
100
AcDbEntity
  8
0
  6
ByBlock
 62
         0
100
AcDbLine
 10
0.0
 20
0.0
 30
0.0
 11
-1.0
 21
0.0
 31
0.0
  0
ENDBLK
  5
24
100
AcDbEntity
  8
0
  6
ByBlock
 62
         0
100
AcDbBlockEnd
  0
ENDSEC
  0
SECTION
  2
ENTITIES
  0
MTEXT
  5
25
100
AcDbEntity
  8
0
  6
CONTINUOUS
 62
       110
100
AcDbMText
 10
-147.4464030812
 20
117.7423582077
 30
0.0
 40
13.1499996185
 41
0.0
 71
         1
 72
         1
  1
\W1.050;\A1;TSUBAKI
  0
POINT
  5
26
100
AcDbEntity
  8
LY_3
  6
CONTINUOUS
 62
       172
100
AcDbPoint
 10
12.8291015625
 20
-85.406829834
 30
0.0
  0
POINT
  5
27
100
AcDbEntity
  8
LY_3
  6
CONTINUOUS
 62
       172
100
AcDbPoint
 10
89.4915924072
 20
-100.406829834
 30
0.0
  0
POINT
  5
28
100
AcDbEntity
  8
LY_3
  6
CONTINUOUS
 62
       172
100
AcDbPoint
 10
-31.6708679199
 20
-85.406829834
 30
0.0
  0
POINT
  5
29
100
AcDbEntity
  8
LY_3
  6
CONTINUOUS
 62
       172
100
AcDbPoint
 10
89.4915924072
 20
-70.406829834
 30
0.0
  0
POINT
  5
2A
100
AcDbEntity
  8
LY_3
  6
CONTINUOUS
 62
       172
100
AcDbPoint
 10
-28.8271331787
 20
0.7825126648
 30
0.0
  0
POINT
  5
2B
100
AcDbEntity
  8
LY_3
  6
CONTINUOUS
 62
       172
100
AcDbPoint
 10
71.1728210449
 20
0.7825231552
 30
0.0
  0
POINT
  5
2C
100
AcDbEntity
  8
LY_3
  6
CONTINUOUS
 62
       172
100
AcDbPoint
 10
21.1728363037
 20
0.7825126648
 30
0.0
  0
POINT
  5
2D
100
AcDbEntity
  8
LY_3
  6
CONTINUOUS
 62
       172
100
AcDbPoint
 10
-78.8271484375
 20
-42.4836578369
 30
0.0
  0
POINT
  5
2E
100
AcDbEntity
  8
LY_3
  6
CONTINUOUS
 62
       172
100
AcDbPoint
 10
71.1728057861
 20
-42.4836425781
 30
0.0
  0
POINT
  5
2F
100
AcDbEntity
  8
LY_3
  6
CONTINUOUS
 62
       172
100
AcDbPoint
 10
-78.8271484375
 20
0.7825126648
 30
0.0
  0
POINT
  5
30
100
AcDbEntity
  8
LY_3
  6
CONTINUOUS
 62
       172
100
AcDbPoint
 10
-78.8271484375
 20
-140.406829834
 30
0.0
  0
POINT
  5
31
100
AcDbEntity
  8
LY_3
  6
CONTINUOUS
 62
       172
100
AcDbPoint
 10
-28.8271331787
 20
-140.406829834
 30
0.0
  0
POINT
  5
32
100
AcDbEntity
  8
LY_3
  6
CONTINUOUS
 62
       172
100
AcDbPoint
 10
21.1728515625
 20
-140.406829834
 30
0.0
  0
POINT
  5
33
100
AcDbEntity
  8
LY_3
  6
CONTINUOUS
 62
       172
100
AcDbPoint
 10
-28.8271331787
 20
-42.4836425781
 30
0.0
  0
POINT
  5
34
100
AcDbEntity
  8
LY_3
  6
CONTINUOUS
 62
       172
100
AcDbPoint
 10
21.1728515625
 20
-42.4836425781
 30
0.0
  0
POINT
  5
35
100
AcDbEntity
  8
LY_3
  6
CONTINUOUS
 62
       172
100
AcDbPoint
 10
71.1728057861
 20
-140.406829834
 30
0.0
  0
LINE
  5
36
100
AcDbEntity
  8
LY_3
  6
CONTINUOUS
 62
         3
100
AcDbLine
 10
-31.6708679199
 20
-72.778137207
 30
0.0
 11
-31.6708679199
 21
-98.0355377197
 31
0.0
  0
LINE
  5
37
100
AcDbEntity
  8
LY_3
  6
CONTINUOUS
 62
         3
100
AcDbLine
 10
-30.8708648682
 20
-99.1068267822
 30
0.0
 11
-4.9708862305
 21
-99.1068267822
 31
0.0
  0
LINE
  5
38
100
AcDbEntity
  8
LY_3
  6
CONTINUOUS
 62
         3
100
AcDbLine
 10
-15.7708740234
 20
-73.4759368896
 30
0.0
 11
-15.7708740234
 21
-97.3377227783
 31
0.0
  0
LINE
  5
39
100
AcDbEntity
  8
LY_3
  6
CONTINUOUS
 62
         3
100
AcDbLine
 10
12.8291015625
 20
-72.778137207
 30
0.0
 11
12.8291015625
 21
-98.0355224609
 31
0.0
  0
LINE
  5
3A
100
AcDbEntity
  8
LY_3
  6
CONTINUOUS
 62
         3
100
AcDbLine
 10
-3.0708770752
 20
-99.1068267822
 30
0.0
 11
12.0290985107
 21
-99.1068267822
 31
0.0
  0
LINE
  5
3B
100
AcDbEntity
  8
LY_3
  6
CONTINUOUS
 62
         3
100
AcDbLine
 10
-15.0108795166
 20
-90.5886383057
 30
0.0
 11
-3.0708770752
 21
-90.5886383057
 31
0.0
  0
LINE
  5
3C
100
AcDbEntity
  8
LY_3
  6
CONTINUOUS
 62
         3
100
AcDbLine
 10
-13.870880127
 20
-80.2250061035
 30
0.0
 11
-13.870880127
 21
-90.5886383057
 31
0.0
  0
LINE
  5
3D
100
AcDbEntity
  8
LY_3
  6
CONTINUOUS
 62
         3
100
AcDbLine
 10
-3.0708770752
 20
-90.5886383057
 30
0.0
 11
-3.0708770752
 21
-99.1068267822
 31
0.0
  0
LINE
  5
3E
100
AcDbEntity
  8
LY_3
  6
CONTINUOUS
 62
         3
100
AcDbLine
 10
-30.8708648682
 20
-71.7068328857
 30
0.0
 11
-30.8708648682
 21
-99.1068267822
 31
0.0
  0
LINE
  5
3F
100
AcDbEntity
  8
LY_3
  6
CONTINUOUS
 62
         3
100
AcDbLine
 10
-31.6708719267
 20
-98.0353460698
 30
0.0
 11
-30.8708711831
 21
-98.7066263677
 31
0.0
  0
LINE
  5
40
100
AcDbEntity
  8
LY_3
  6
CONTINUOUS
 62
         3
100
AcDbLine
 10
12.0290985107
 20
-71.7068328857
 30
0.0
 11
12.0290985107
 21
-99.1068267822
 31
0.0
  0
LINE
  5
41
100
AcDbEntity
  8
LY_3
  6
CONTINUOUS
 62
         3
100
AcDbLine
 10
12.0291207122
 20
-98.7066353074
 30
0.0
 11
12.8291214558
 21
-98.0353550095
 31
0.0
  0
LINE
  5
42
100
AcDbEntity
  8
LY_3
  6
CONTINUOUS
 62
         3
100
AcDbLine
 10
-15.0108795166
 20
-73.4759368896
 30
0.0
 11
-15.0108795166
 21
-97.3377227783
 31
0.0
  0
LINE
  5
43
100
AcDbEntity
  8
LY_3
  6
CONTINUOUS
 62
         3
100
AcDbLine
 10
-3.8308868408
 20
-90.5886383057
 30
0.0
 11
-3.8308868408
 21
-97.3377227783
 31
0.0
  0
LINE
  5
44
100
AcDbEntity
  8
LY_3
  6
CONTINUOUS
 62
         3
100
AcDbLine
 10
-15.7708740234
 20
-97.3377227783
 30
0.0
 11
-3.8308868408
 21
-97.3377227783
 31
0.0
  0
LINE
  5
45
100
AcDbEntity
  8
LY_3
  6
CONTINUOUS
 62
         3
100
AcDbLine
 10
-4.9708862305
 20
-97.3377227783
 30
0.0
 11
-4.9708862305
 21
-99.1068267822
 31
0.0
  0
LINE
  5
47
100
AcDbEntity
  8
LY_3
  6
CENTER
 62
        80
100
AcDbLine
 10
4.8291168213
 20
-86.906829834
 30
0.0
 11
4.8291168213
 21
-70.2068328857
 31
0.0
  0
LINE
  5
48
100
AcDbEntity
  8
LY_3
  6
CONTINUOUS
 62
         3
100
AcDbLine
 10
-4.9708862305
 20
-71.7068328857
 30
0.0
 11
-30.8708648682
 21
-71.7068328857
 31
0.0
  0
LINE
  5
49
100
AcDbEntity
  8
LY_3
  6
CONTINUOUS
 62
         3
100
AcDbLine
 10
12.0290985107
 20
-71.7068328857
 30
0.0
 11
-3.0708770752
 21
-71.7068328857
 31
0.0
  0
LINE
  5
4A
100
AcDbEntity
  8
LY_3
  6
CENTER
 62
        80
100
AcDbLine
 10
-23.6708679199
 20
-100.6068267822
 30
0.0
 11
-23.6708679199
 21
-83.906829834
 31
0.0
  0
LINE
  5
4B
100
AcDbEntity
  8
LY_3
  6
CONTINUOUS
 62
         3
100
AcDbLine
 10
-30.8708405157
 20
-72.1066732674
 30
0.0
 11
-31.6708412592
 21
-72.7779535653
 31
0.0
  0
LINE
  5
4C
100
AcDbEntity
  8
LY_3
  6
CONTINUOUS
 62
         3
100
AcDbLine
 10
12.8290790995
 20
-72.7779348174
 30
0.0
 11
12.0290783559
 21
-72.1066545195
 31
0.0
  0
LINE
  5
4D
100
AcDbEntity
  8
LY_3
  6
CONTINUOUS
 62
         3
100
AcDbLine
 10
-3.0708770752
 20
-80.2250061035
 30
0.0
 11
-15.0108795166
 21
-80.2250061035
 31
0.0
  0
LINE
  5
4E
100
AcDbEntity
  8
LY_3
  6
CONTINUOUS
 62
         3
100
AcDbLine
 10
-3.0708770752
 20
-71.7068328857
 30
0.0
 11
-3.0708770752
 21
-80.2250061035
 31
0.0
  0
LINE
  5
4F
100
AcDbEntity
  8
LY_3
  6
CONTINUOUS
 62
         3
100
AcDbLine
 10
-3.8308868408
 20
-73.4759368896
 30
0.0
 11
-3.8308868408
 21
-80.2250061035
 31
0.0
  0
LINE
  5
50
100
AcDbEntity
  8
LY_3
  6
CONTINUOUS
 62
         3
100
AcDbLine
 10
-3.8308868408
 20
-73.4759368896
 30
0.0
 11
-15.7708740234
 21
-73.4759368896
 31
0.0
  0
LINE
  5
51
100
AcDbEntity
  8
LY_3
  6
CONTINUOUS
 62
         3
100
AcDbLine
 10
-4.9708862305
 20
-71.7068328857
 30
0.0
 11
-4.9708862305
 21
-73.4759368896
 31
0.0
  0
LINE
  5
53
100
AcDbEntity
  8
LY_3
  6
PHANTOM
 62
        80
100
AcDbLine
 10
-32.6458587646
 20
-77.406829834
 30
0.0
 11
-15.3852996826
 21
-77.406829834
 31
0.0
  0
LINE
  5
54
100
AcDbEntity
  8
LY_3
  6
PHANTOM
 62
        80
100
AcDbLine
 10
-32.6458587646
 20
-93.4068145752
 30
0.0
 11
-15.5491943359
 21
-93.4068145752
 31
0.0
  0
LINE
  5
55
100
AcDbEntity
  8
LY_3
  6
PHANTOM
 62
        80
100
AcDbLine
 10
-3.3666534424
 20
-77.406829834
 30
0.0
 11
13.7961120605
 21
-77.406829834
 31
0.0
  0
LINE
  5
56
100
AcDbEntity
  8
LY_3
  6
PHANTOM
 62
        80
100
AcDbLine
 10
-3.4212799072
 20
-93.4068145752
 30
0.0
 11
13.7961120605
 21
-93.4068145752
 31
0.0
  0
LINE
  5
58
100
AcDbEntity
  8
LY_3
  6
DASHED
 62
        80
100
AcDbLine
 10
88.4915008545
 20
-75.4067840576
 30
0.0
 11
73.5915222168
 21
-75.4067840576
 31
0.0
  0
LINE
  5
59
100
AcDbEntity
  8
LY_3
  6
DASHED
 62
        80
100
AcDbLine
 10
88.4915008545
 20
-65.4067840576
 30
0.0
 11
73.5915222168
 21
-65.4067840576
 31
0.0
  0
LINE
  5
5A
100
AcDbEntity
  8
LY_3
  6
DASHED
 62
        80
100
AcDbLine
 10
88.4914210131
 20
-75.406791481
 30
0.0
 11
89.4914115129
 21
-76.4067815594
 31
0.0
  0
LINE
  5
5B
100
AcDbEntity
  8
LY_3
  6
DASHED
 62
        80
100
AcDbLine
 10
88.4914128366
 20
-65.4068083423
 30
0.0
 11
89.4914137046
 21
-64.4068070529
 31
0.0
  0
LINE
  5
5C
100
AcDbEntity
  8
LY_3
  6
DASHED
 62
        80
100
AcDbLine
 10
88.4915008545
 20
-75.4067840576
 30
0.0
 11
88.4915008545
 21
-65.4067840576
 31
0.0
  0
LINE
  5
5D
100
AcDbEntity
  8
LY_3
  6
DASHED
 62
        80
100
AcDbLine
 10
88.4915161133
 20
-105.9067840576
 30
0.0
 11
73.5915374756
 21
-105.9067840576
 31
0.0
  0
LINE
  5
5E
100
AcDbEntity
  8
LY_3
  6
DASHED
 62
        80
100
AcDbLine
 10
88.4915161133
 20
-94.9067840576
 30
0.0
 11
73.5915374756
 21
-94.9067840576
 31
0.0
  0
LINE
  5
5F
100
AcDbEntity
  8
LY_3
  6
DASHED
 62
        80
100
AcDbLine
 10
88.491492178
 20
-105.9067272751
 30
0.0
 11
89.4914826779
 21
-106.9067173535
 31
0.0
  0
LINE
  5
60
100
AcDbEntity
  8
LY_3
  6
DASHED
 62
        80
100
AcDbLine
 10
88.4914635603
 20
-94.9067632882
 30
0.0
 11
89.4914644283
 21
-93.9067619988
 31
0.0
  0
LINE
  5
61
100
AcDbEntity
  8
LY_3
  6
DASHED
 62
        80
100
AcDbLine
 10
88.4915161133
 20
-105.9067840576
 30
0.0
 11
88.4915161133
 21
-94.9067840576
 31
0.0
  0
LINE
  5
62
100
AcDbEntity
  8
LY_3
  6
DASHED
 62
        80
100
AcDbLine
 10
-62.9271087646
 20
-5.2174739838
 30
0.0
 11
-77.8271179199
 21
-5.2174739838
 31
0.0
  0
LINE
  5
63
100
AcDbEntity
  8
LY_3
  6
DASHED
 62
        80
100
AcDbLine
 10
-77.8271179199
 20
-5.2174739838
 30
0.0
 11
-77.8271179199
 21
-1.2174892426
 31
0.0
  0
LINE
  5
64
100
AcDbEntity
  8
LY_3
  6
DASHED
 62
        80
100
AcDbLine
 10
-62.9271087646
 20
6.782409668
 30
0.0
 11
-77.8271179199
 21
6.782409668
 31
0.0
  0
LINE
  5
65
100
AcDbEntity
  8
LY_3
  6
DASHED
 62
        80
100
AcDbLine
 10
-77.8270514324
 20
-5.217491224
 30
0.0
 11
-78.8270525111
 21
-6.2174923027
 31
0.0
  0
LINE
  5
66
100
AcDbEntity
  8
LY_3
  6
DASHED
 62
        80
100
AcDbLine
 10
-77.8270514324
 20
6.7825001412
 30
0.0
 11
-78.8270417216
 21
7.7824904303
 31
0.0
  0
LINE
  5
67
100
AcDbEntity
  8
LY_3
  6
DASHED
 62
        80
100
AcDbLine
 10
-78.8271484375
 20
2.7825164795
 30
0.0
 11
-62.9271392822
 21
2.7825164795
 31
0.0
  0
LINE
  5
68
100
AcDbEntity
  8
LY_3
  6
DASHED
 62
        80
100
AcDbLine
 10
-78.8271484375
 20
-1.2174835205
 30
0.0
 11
-62.9271392822
 21
-1.2174835205
 31
0.0
  0
LINE
  5
69
100
AcDbEntity
  8
LY_3
  6
DASHED
 62
        80
100
AcDbLine
 10
-77.8271179199
 20
2.782409668
 30
0.0
 11
-77.8271179199
 21
6.782409668
 31
0.0
  0
LINE
  5
6A
100
AcDbEntity
  8
LY_3
  6
DASHED
 62
        80
100
AcDbLine
 10
-44.7271118164
 20
6.782409668
 30
0.0
 11
-29.8271179199
 21
6.782409668
 31
0.0
  0
LINE
  5
6B
100
AcDbEntity
  8
LY_3
  6
DASHED
 62
        80
100
AcDbLine
 10
-29.8271179199
 20
6.782409668
 30
0.0
 11
-29.8271179199
 21
-5.2174739838
 31
0.0
  0
LINE
  5
6C
100
AcDbEntity
  8
LY_3
  6
DASHED
 62
        80
100
AcDbLine
 10
-44.7271118164
 20
-5.2174739838
 30
0.0
 11
-29.8271179199
 21
-5.2174739838
 31
0.0
  0
LINE
  5
6D
100
AcDbEntity
  8
LY_3
  6
DASHED
 62
        80
100
AcDbLine
 10
-29.8271183402
 20
6.7824893516
 30
0.0
 11
-28.8271233306
 21
7.7824843612
 31
0.0
  0
LINE
  5
6E
100
AcDbEntity
  8
LY_3
  6
DASHED
 62
        80
100
AcDbLine
 10
-29.8271291298
 20
-5.2174696448
 30
0.0
 11
-28.8271307485
 21
-6.2174680261
 31
0.0
  0
LINE
  5
6F
100
AcDbEntity
  8
LY_3
  6
DASHED
 62
        80
100
AcDbLine
 10
-44.7271118164
 20
8.5824127197
 30
0.0
 11
-28.8271331787
 21
8.5824127197
 31
0.0
  0
LINE
  5
70
100
AcDbEntity
  8
LY_3
  6
DASHED
 62
        80
100
AcDbLine
 10
37.0728607178
 20
-6.2174739838
 30
0.0
 11
22.1728363037
 21
-6.2174739838
 31
0.0
  0
LINE
  5
71
100
AcDbEntity
  8
LY_3
  6
DASHED
 62
        80
100
AcDbLine
 10
22.1728363037
 20
-6.2174739838
 30
0.0
 11
22.1728363037
 21
-1.7174739838
 31
0.0
  0
LINE
  5
72
100
AcDbEntity
  8
LY_3
  6
DASHED
 62
        80
100
AcDbLine
 10
37.0728607178
 20
7.7824249268
 30
0.0
 11
22.1728363037
 21
7.7824249268
 31
0.0
  0
LINE
  5
73
100
AcDbEntity
  8
LY_3
  6
DASHED
 62
        80
100
AcDbLine
 10
22.1727516319
 20
-6.2174518418
 30
0.0
 11
21.1727505532
 21
-7.2174529205
 31
0.0
  0
LINE
  5
74
100
AcDbEntity
  8
LY_3
  6
DASHED
 62
        80
100
AcDbLine
 10
22.1727833264
 20
7.7824938021
 30
0.0
 11
21.1727822477
 21
8.7824948808
 31
0.0
  0
LINE
  5
75
100
AcDbEntity
  8
LY_3
  6
DASHED
 62
        80
100
AcDbLine
 10
21.1728515625
 20
3.2825164795
 30
0.0
 11
37.0728607178
 21
3.2825164795
 31
0.0
  0
LINE
  5
76
100
AcDbEntity
  8
LY_3
  6
DASHED
 62
        80
100
AcDbLine
 10
21.1728515625
 20
-1.7174835205
 30
0.0
 11
37.0728607178
 21
-1.7174835205
 31
0.0
  0
LINE
  5
77
100
AcDbEntity
  8
LY_3
  6
DASHED
 62
        80
100
AcDbLine
 10
22.1728363037
 20
3.282409668
 30
0.0
 11
22.1728363037
 21
7.7824249268
 31
0.0
  0
LINE
  5
78
100
AcDbEntity
  8
LY_3
  6
DASHED
 62
        80
100
AcDbLine
 10
55.2728424072
 20
7.782409668
 30
0.0
 11
70.1728363037
 21
7.782409668
 31
0.0
  0
LINE
  5
79
100
AcDbEntity
  8
LY_3
  6
DASHED
 62
        80
100
AcDbLine
 10
70.1728363037
 20
7.782409668
 30
0.0
 11
70.1728363037
 21
-6.2174739838
 31
0.0
  0
LINE
  5
7A
100
AcDbEntity
  8
LY_3
  6
DASHED
 62
        80
100
AcDbLine
 10
55.2728424072
 20
-6.2174739838
 30
0.0
 11
70.1728363037
 21
-6.2174739838
 31
0.0
  0
LINE
  5
7B
100
AcDbEntity
  8
LY_3
  6
DASHED
 62
        80
100
AcDbLine
 10
70.17273058
 20
7.7825335887
 30
0.0
 11
71.1727316587
 21
8.7825346674
 31
0.0
  0
LINE
  5
7C
100
AcDbEntity
  8
LY_3
  6
DASHED
 62
        80
100
AcDbLine
 10
70.17273058
 20
-6.217459934
 30
0.0
 11
71.1727316587
 21
-7.2174610127
 31
0.0
  0
LINE
  5
7D
100
AcDbEntity
  8
LY_3
  6
DASHED
 62
        80
100
AcDbLine
 10
55.2728424072
 20
10.0824127197
 30
0.0
 11
71.1728210449
 21
10.0824127197
 31
0.0
  0
LINE
  5
7E
100
AcDbEntity
  8
LY_3
  6
DASHED
 62
        80
100
AcDbLine
 10
-62.9270782471
 20
-49.9836425781
 30
0.0
 11
-77.8271179199
 21
-49.9836425781
 31
0.0
  0
LINE
  5
7F
100
AcDbEntity
  8
LY_3
  6
DASHED
 62
        80
100
AcDbLine
 10
-77.8271179199
 20
-49.9836425781
 30
0.0
 11
-77.8271179199
 21
-44.9836425781
 31
0.0
  0
LINE
  5
80
100
AcDbEntity
  8
LY_3
  6
DASHED
 62
        80
100
AcDbLine
 10
-62.9270935059
 20
-34.9836578369
 30
0.0
 11
-77.8271179199
 21
-34.9836578369
 31
0.0
  0
LINE
  5
81
100
AcDbEntity
  8
LY_3
  6
DASHED
 62
        80
100
AcDbLine
 10
-77.8270514324
 20
-49.9835998055
 30
0.0
 11
-78.8270417216
 21
-50.9835900946
 31
0.0
  0
LINE
  5
82
100
AcDbEntity
  8
LY_3
  6
DASHED
 62
        80
100
AcDbLine
 10
-77.8270406429
 20
-34.9836159938
 30
0.0
 11
-78.827030932
 21
-33.9836257046
 31
0.0
  0
LINE
  5
83
100
AcDbEntity
  8
LY_3
  6
DASHED
 62
        80
100
AcDbLine
 10
-78.8271484375
 20
-39.9836578369
 30
0.0
 11
-62.9271392822
 21
-39.9836578369
 31
0.0
  0
LINE
  5
84
100
AcDbEntity
  8
LY_3
  6
DASHED
 62
        80
100
AcDbLine
 10
-78.8271484375
 20
-44.9836578369
 30
0.0
 11
-62.9271392822
 21
-44.9836578369
 31
0.0
  0
LINE
  5
85
100
AcDbEntity
  8
LY_3
  6
DASHED
 62
        80
100
AcDbLine
 10
-77.8271179199
 20
-39.9836425781
 30
0.0
 11
-77.8271179199
 21
-34.9836578369
 31
0.0
  0
LINE
  5
86
100
AcDbEntity
  8
LY_3
  6
DASHED
 62
        80
100
AcDbLine
 10
-44.7270965576
 20
-34.9836578369
 30
0.0
 11
-29.8271179199
 21
-34.9836578369
 31
0.0
  0
LINE
  5
87
100
AcDbEntity
  8
LY_3
  6
DASHED
 62
        80
100
AcDbLine
 10
-29.8271179199
 20
-34.9836578369
 30
0.0
 11
-29.8271179199
 21
-49.9836425781
 31
0.0
  0
LINE
  5
88
100
AcDbEntity
  8
LY_3
  6
DASHED
 62
        80
100
AcDbLine
 10
-44.7270965576
 20
-49.9836425781
 30
0.0
 11
-29.8271179199
 21
-49.9836425781
 31
0.0
  0
LINE
  5
89
100
AcDbEntity
  8
LY_3
  6
DASHED
 62
        80
100
AcDbLine
 10
-29.8271156428
 20
-34.983597112
 30
0.0
 11
-28.8271253537
 21
-33.9836068229
 31
0.0
  0
LINE
  5
8A
100
AcDbEntity
  8
LY_3
  6
DASHED
 62
        80
100
AcDbLine
 10
-29.8271385707
 20
-49.9835472063
 30
0.0
 11
-28.8271482816
 21
-50.9835374954
 31
0.0
  0
LINE
  5
8B
100
AcDbEntity
  8
LY_3
  6
DASHED
 62
        80
100
AcDbLine
 10
-44.7270965576
 20
-32.6836547852
 30
0.0
 11
-28.8271331787
 21
-32.6836547852
 31
0.0
  0
LINE
  5
8C
100
AcDbEntity
  8
LY_3
  6
DASHED
 62
        80
100
AcDbLine
 10
37.072845459
 20
-50.4836425781
 30
0.0
 11
22.1728057861
 21
-50.4836425781
 31
0.0
  0
LINE
  5
8D
100
AcDbEntity
  8
LY_3
  6
DASHED
 62
        80
100
AcDbLine
 10
22.1728057861
 20
-50.4836425781
 30
0.0
 11
22.1728057861
 21
-44.9836425781
 31
0.0
  0
LINE
  5
8E
100
AcDbEntity
  8
LY_3
  6
DASHED
 62
        80
100
AcDbLine
 10
37.072845459
 20
-34.4836578369
 30
0.0
 11
22.1728057861
 21
-34.4836578369
 31
0.0
  0
LINE
  5
8F
100
AcDbEntity
  8
LY_3
  6
DASHED
 62
        80
100
AcDbLine
 10
22.1727759085
 20
-50.4835895553
 30
0.0
 11
21.1727856194
 21
-51.4835798444
 31
0.0
  0
LINE
  5
90
100
AcDbEntity
  8
LY_3
  6
DASHED
 62
        80
100
AcDbLine
 10
22.172742191
 20
-34.4836275927
 30
0.0
 11
21.1727519019
 21
-33.4836373036
 31
0.0
  0
LINE
  5
91
100
AcDbEntity
  8
LY_3
  6
DASHED
 62
        80
100
AcDbLine
 10
21.1728515625
 20
-39.9836578369
 30
0.0
 11
37.0728607178
 21
-39.9836578369
 31
0.0
  0
LINE
  5
92
100
AcDbEntity
  8
LY_3
  6
DASHED
 62
        80
100
AcDbLine
 10
21.1728515625
 20
-44.9836578369
 30
0.0
 11
37.0728607178
 21
-44.9836578369
 31
0.0
  0
LINE
  5
93
100
AcDbEntity
  8
LY_3
  6
DASHED
 62
        80
100
AcDbLine
 10
22.1728057861
 20
-39.9836425781
 30
0.0
 11
22.1728057861
 21
-34.4836578369
 31
0.0
  0
LINE
  5
94
100
AcDbEntity
  8
LY_3
  6
DASHED
 62
        80
100
AcDbLine
 10
55.2728271484
 20
-34.4836578369
 30
0.0
 11
70.1728057861
 21
-34.4836578369
 31
0.0
  0
LINE
  5
95
100
AcDbEntity
  8
LY_3
  6
DASHED
 62
        80
100
AcDbLine
 10
70.1728057861
 20
-34.4836578369
 30
0.0
 11
70.1728057861
 21
-50.4836425781
 31
0.0
  0
LINE
  5
96
100
AcDbEntity
  8
LY_3
  6
DASHED
 62
        80
100
AcDbLine
 10
55.2728271484
 20
-50.4836425781
 30
0.0
 11
70.1728057861
 21
-50.4836425781
 31
0.0
  0
LINE
  5
97
100
AcDbEntity
  8
LY_3
  6
DASHED
 62
        80
100
AcDbLine
 10
70.1727197904
 20
-34.4836586128
 30
0.0
 11
71.1727100795
 21
-33.4836683237
 31
0.0
  0
LINE
  5
98
100
AcDbEntity
  8
LY_3
  6
DASHED
 62
        80
100
AcDbLine
 10
70.1727116982
 20
-50.4836192267
 30
0.0
 11
71.1727019873
 21
-51.4836095158
 31
0.0
  0
LINE
  5
99
100
AcDbEntity
  8
LY_3
  6
DASHED
 62
        80
100
AcDbLine
 10
55.2728271484
 20
-32.1836547852
 30
0.0
 11
71.1727905273
 21
-32.1836547852
 31
0.0
  0
LINE
  5
9A
100
AcDbEntity
  8
LY_3
  6
DASHED
 62
        80
100
AcDbLine
 10
-94.7270965576
 20
-134.4068603516
 30
0.0
 11
-79.8270721436
 21
-134.4068603516
 31
0.0
  0
LINE
  5
9B
100
AcDbEntity
  8
LY_3
  6
DASHED
 62
        80
100
AcDbLine
 10
-79.8270721436
 20
-134.4068603516
 30
0.0
 11
-79.8270721436
 21
-146.4067993164
 31
0.0
  0
LINE
  5
9C
100
AcDbEntity
  8
LY_3
  6
DASHED
 62
        80
100
AcDbLine
 10
-94.7270965576
 20
-146.4067993164
 30
0.0
 11
-79.8270721436
 21
-146.4067993164
 31
0.0
  0
LINE
  5
9D
100
AcDbEntity
  8
LY_3
  6
DASHED
 62
        80
100
AcDbLine
 10
-79.827129117
 20
-134.406717998
 30
0.0
 11
-78.8271280383
 21
-133.4067169193
 31
0.0
  0
LINE
  5
9E
100
AcDbEntity
  8
LY_3
  6
DASHED
 62
        80
100
AcDbLine
 10
-79.8271399066
 20
-146.4066985736
 30
0.0
 11
-78.8271388279
 21
-147.4066996523
 31
0.0
  0
LINE
  5
9F
100
AcDbEntity
  8
LY_3
  6
DASHED
 62
        80
100
AcDbLine
 10
-94.7270965576
 20
-132.9068603516
 30
0.0
 11
-78.8270874023
 21
-132.9068603516
 31
0.0
  0
LINE
  5
A0
100
AcDbEntity
  8
LY_3
  6
DASHED
 62
        80
100
AcDbLine
 10
-44.7270355225
 20
-133.4068756104
 30
0.0
 11
-29.827041626
 21
-133.4068756104
 31
0.0
  0
LINE
  5
A1
100
AcDbEntity
  8
LY_3
  6
DASHED
 62
        80
100
AcDbLine
 10
-29.827041626
 20
-133.4068756104
 30
0.0
 11
-29.827041626
 21
-147.4068145752
 31
0.0
  0
LINE
  5
A2
100
AcDbEntity
  8
LY_3
  6
DASHED
 62
        80
100
AcDbLine
 10
-44.7270355225
 20
-147.4068145752
 30
0.0
 11
-29.827041626
 21
-147.4068145752
 31
0.0
  0
LINE
  5
A3
100
AcDbEntity
  8
LY_3
  6
DASHED
 62
        80
100
AcDbLine
 10
-29.8271291298
 20
-133.4067061297
 30
0.0
 11
-28.8271280511
 21
-132.406705051
 31
0.0
  0
LINE
  5
A4
100
AcDbEntity
  8
LY_3
  6
DASHED
 62
        80
100
AcDbLine
 10
-29.8271291298
 20
-147.4066996523
 30
0.0
 11
-28.8271280511
 21
-148.4067007311
 31
0.0
  0
LINE
  5
A5
100
AcDbEntity
  8
LY_3
  6
DASHED
 62
        80
100
AcDbLine
 10
-44.7270355225
 20
-131.4068756104
 30
0.0
 11
-28.8270568848
 21
-131.4068756104
 31
0.0
  0
LINE
  5
A6
100
AcDbEntity
  8
LY_3
  6
DASHED
 62
        80
100
AcDbLine
 10
5.2728404999
 20
-132.9068450928
 30
0.0
 11
20.1728057861
 21
-132.9068450928
 31
0.0
  0
LINE
  5
A7
100
AcDbEntity
  8
LY_3
  6
DASHED
 62
        80
100
AcDbLine
 10
20.1728057861
 20
-132.9068450928
 30
0.0
 11
20.1728057861
 21
-147.906829834
 31
0.0
  0
LINE
  5
A8
100
AcDbEntity
  8
LY_3
  6
DASHED
 62
        80
100
AcDbLine
 10
5.2728404999
 20
-147.906829834
 30
0.0
 11
20.1728057861
 21
-147.906829834
 31
0.0
  0
LINE
  5
A9
100
AcDbEntity
  8
LY_3
  6
DASHED
 62
        80
100
AcDbLine
 10
20.172881647
 20
-132.9067379591
 30
0.0
 11
21.1728719361
 21
-131.90674767
 31
0.0
  0
LINE
  5
AA
100
AcDbEntity
  8
LY_3
  6
DASHED
 62
        80
100
AcDbLine
 10
20.1728708574
 20
-147.9067001917
 30
0.0
 11
21.1728611466
 21
-148.9066904808
 31
0.0
  0
LINE
  5
AB
100
AcDbEntity
  8
LY_3
  6
DASHED
 62
        80
100
AcDbLine
 10
5.2728404999
 20
-130.906829834
 30
0.0
 11
21.1727905273
 21
-130.906829834
 31
0.0
  0
LINE
  5
AC
100
AcDbEntity
  8
LY_3
  6
DASHED
 62
        80
100
AcDbLine
 10
55.2727966309
 20
-132.4068450928
 30
0.0
 11
70.1727905273
 21
-132.4068450928
 31
0.0
  0
LINE
  5
AD
100
AcDbEntity
  8
LY_3
  6
DASHED
 62
        80
100
AcDbLine
 10
70.1727905273
 20
-132.4068450928
 30
0.0
 11
70.1727905273
 21
-148.406829834
 31
0.0
  0
LINE
  5
AE
100
AcDbEntity
  8
LY_3
  6
DASHED
 62
        80
100
AcDbLine
 10
55.2727966309
 20
-148.406829834
 30
0.0
 11
70.1727905273
 21
-148.406829834
 31
0.0
  0
LINE
  5
AF
100
AcDbEntity
  8
LY_3
  6
DASHED
 62
        80
100
AcDbLine
 10
70.1728276863
 20
-132.4067482094
 30
0.0
 11
71.1728179754
 21
-131.4067579202
 31
0.0
  0
LINE
  5
B0
100
AcDbEntity
  8
LY_3
  6
DASHED
 62
        80
100
AcDbLine
 10
70.1728276863
 20
-148.4067223102
 30
0.0
 11
71.1728179754
 21
-149.4067125993
 31
0.0
  0
LINE
  5
B1
100
AcDbEntity
  8
LY_3
  6
DASHED
 62
        80
100
AcDbLine
 10
55.2727966309
 20
-130.406829834
 30
0.0
 11
71.1727752686
 21
-130.406829834
 31
0.0
  0
MTEXT
  5
B2
100
AcDbEntity
  8
LY_3
  6
CONTINUOUS
 62
       110
100
AcDbMText
 10
-108.5553398787
 20
92.6673583984
 30
0.0
 40
13.0
 41
0.0
 71
         1
 72
         1
  1
\W1.024;\A1;JAW-FLEX COUPLING
  0
MTEXT
  5
B3
100
AcDbEntity
  8
LY_3
  6
CONTINUOUS
 62
       110
100
AcDbMText
 10
-56.9570440094
 20
68.6673583984
 30
0.0
 40
15.0
 41
0.0
 71
         1
 72
         1
  1
\W1.116;\A1;L050-S,H
  0
MTEXT
  5
B4
100
AcDbEntity
  8
LY_3
  6
CONTINUOUS
 62
       110
100
AcDbMText
 10
78.0767381456
 20
-57.8162231446
 30
0.0
 40
3.1499938965
 41
0.0
 71
         1
 72
         1
  1
\W1.333;\A1;10
  0
MTEXT
  5
B5
100
AcDbEntity
  8
LY_3
  6
CONTINUOUS
 62
       110
100
AcDbMText
 10
78.4709701303
 20
-86.3424224854
 30
0.0
 40
3.1499938965
 41
0.0
 71
         1
 72
         1
  1
\W1.500;\A1;11
  0
MTEXT
  5
B6
100
AcDbEntity
  8
LY_3
  6
CONTINUOUS
 62
       110
100
AcDbMText
 10
-41.9653759047
 20
17.6401824951
 30
0.0
 40
3.1499938965
 41
0.0
 71
         1
 72
         1
  1
\W1.125;\A1;12J
  0
MTEXT
  5
B7
100
AcDbEntity
  8
LY_3
  6
CONTINUOUS
 62
       110
100
AcDbMText
 10
-74.4791240736
 20
-26.0399321546
 30
0.0
 40
3.1499938965
 41
0.0
 71
         1
 72
         1
  1
\W1.125;\A1;15E
  0
MTEXT
  5
B8
100
AcDbEntity
  8
LY_3
  6
CONTINUOUS
 62
       110
100
AcDbMText
 10
-74.4791240736
 20
-21.3149413099
 30
0.0
 40
3.1499938965
 41
0.0
 71
         1
 72
         1
  1
\W1.125;\A1;15J
  0
MTEXT
  5
B9
100
AcDbEntity
  8
LY_3
  6
CONTINUOUS
 62
       110
100
AcDbMText
 10
-41.9952373549
 20
-24.421661377
 30
0.0
 40
3.1499938965
 41
0.0
 71
         1
 72
         1
  1
\W1.125;\A1;15J
  0
MTEXT
  5
BA
100
AcDbEntity
  8
LY_3
  6
CONTINUOUS
 62
       110
100
AcDbMText
 10
58.1808948473
 20
-24.2341156006
 30
0.0
 40
3.1499938965
 41
0.0
 71
         1
 72
         1
  1
\W1.125;\A1;16J
  0
MTEXT
  5
BB
100
AcDbEntity
  8
LY_3
  6
CONTINUOUS
 62
       110
100
AcDbMText
 10
-73.8656444594
 20
16.5959931384
 30
0.0
 40
3.1499938965
 41
0.0
 71
         1
 72
         1
  1
\W1.125;\A1;12E
  0
MTEXT
  5
BC
100
AcDbEntity
  8
LY_3
  6
CONTINUOUS
 62
       110
100
AcDbMText
 10
-73.8656444594
 20
21.3209839831
 30
0.0
 40
3.1499938965
 41
0.0
 71
         1
 72
         1
  1
\W1.125;\A1;12J
  0
MTEXT
  5
BD
100
AcDbEntity
  8
LY_3
  6
CONTINUOUS
 62
       110
100
AcDbMText
 10
23.5775784548
 20
15.6879426013
 30
0.0
 40
3.1499938965
 41
0.0
 71
         1
 72
         1
  1
\W1.091;\A1;14EN
  0
MTEXT
  5
BE
100
AcDbEntity
  8
LY_3
  6
CONTINUOUS
 62
       110
100
AcDbMText
 10
23.5775784548
 20
20.412933446
 30
0.0
 40
3.1499938965
 41
0.0
 71
         1
 72
         1
  1
\W1.091;\A1;14JN
  0
MTEXT
  5
BF
100
AcDbEntity
  8
LY_3
  6
CONTINUOUS
 62
       110
100
AcDbMText
 10
25.2092151598
 20
-25.1197356214
 30
0.0
 40
3.1499938965
 41
0.0
 71
         1
 72
         1
  1
\W1.125;\A1;16E
  0
MTEXT
  5
C0
100
AcDbEntity
  8
LY_3
  6
CONTINUOUS
 62
       110
100
AcDbMText
 10
25.2092151598
 20
-20.3947447766
 30
0.0
 40
3.1499938965
 41
0.0
 71
         1
 72
         1
  1
\W1.125;\A1;16J
  0
MTEXT
  5
C1
100
AcDbEntity
  8
LY_3
  6
CONTINUOUS
 62
       110
100
AcDbMText
 10
56.7848538454
 20
17.9469146728
 30
0.0
 40
3.1499938965
 41
0.0
 71
         1
 72
         1
  1
\W1.091;\A1;14JN
  0
MTEXT
  5
C2
100
AcDbEntity
  8
LY_3
  6
CONTINUOUS
 62
       110
100
AcDbMText
 10
-93.2874126478
 20
-122.9610748291
 30
0.0
 40
3.1499938965
 41
0.0
 71
         1
 72
         1
  1
\W1.125;\A1;12E
  0
MTEXT
  5
C3
100
AcDbEntity
  8
LY_3
  6
CONTINUOUS
 62
       110
100
AcDbMText
 10
-43.8199130003
 20
-123.2439575196
 30
0.0
 40
3.1499938965
 41
0.0
 71
         1
 72
         1
  1
\W1.091;\A1;14EN
  0
MTEXT
  5
C4
100
AcDbEntity
  8
LY_3
  6
CONTINUOUS
 62
       110
100
AcDbMText
 10
5.8688068346
 20
-123.4871826172
 30
0.0
 40
3.1499938965
 41
0.0
 71
         1
 72
         1
  1
\W1.125;\A1;15E
  0
MTEXT
  5
C5
100
AcDbEntity
  8
LY_3
  6
CONTINUOUS
 62
       110
100
AcDbMText
 10
56.9184894518
 20
-123.4518737793
 30
0.0
 40
3.1499938965
 41
0.0
 71
         1
 72
         1
  1
\W1.125;\A1;16E
  0
MTEXT
  5
C6
100
AcDbEntity
  8
LY_3
  6
CONTINUOUS
 62
       110
100
AcDbMText
 10
-26.099683517
 20
38.8530883789
 30
0.0
 40
3.1499938965
 41
0.0
 71
         1
 72
         1
  1
\W1.230;\A1;J: JIS B 1301-1976
  0
MTEXT
  5
C7
100
AcDbEntity
  8
LY_3
  6
CONTINUOUS
 62
       110
100
AcDbMText
 10
-32.2104925039
 20
44.6327209472
 30
0.0
 40
3.1499938965
 41
0.0
 71
         1
 72
         1
  1
\W1.010;\A1;KEY WAY
  0
MTEXT
  5
C8
100
AcDbEntity
  8
LY_3
  6
CONTINUOUS
 62
       110
100
AcDbMText
 10
-26.099683517
 20
30.9057159423
 30
0.0
 40
3.1499938965
 41
0.0
 71
         1
 72
         1
  1
\W1.230;\A1;E: JIS B 1301-1959
  0
ENDSEC
  0
SECTION
  2
OBJECTS
  0
DICTIONARY
  5
19
100
AcDbDictionary
  3
ACAD_GROUP
350
1A
  3
ACAD_MLINESTYLE
350
1B
  0
DICTIONARY
  5
1A
102
{ACAD_REACTORS
330
19
102
}
100
AcDbDictionary
  0
DICTIONARY
  5
1B
102
{ACAD_REACTORS
330
19
102
}
100
AcDbDictionary
  3
STANDARD
350
1C
  0
MLINESTYLE
  5
1C
102
{ACAD_REACTORS
330
1B
102
}
100
AcDbMlineStyle
  2
Standard
 70
         0
  3

 62
         0
 51
90.0
 52
90.0
 71
         2
 49
0.5
 62
       256
  6
ByLayer
 49
-0.5
 62
       256
  6
ByLayer
  0
ENDSEC
  0
EOF
