  0
SECTION
  2
HEADER
  9
$ACADVER
  1
AC1014
  9
$ACADMAINTVER
 70
     9
  9
$DWGCODEPAGE
  3
ANSI_932
  9
$INSBASE
 10
0.0
 20
0.0
 30
0.0
  9
$EXTMIN
 10
-601.0710260000001
 20
-362.3378610011582
 30
0.0
  9
$EXTMAX
 10
468.204028
 20
74.23713000057904
 30
0.0
  9
$LIMMIN
 10
-247.500786
 20
-290.938847
  9
$LIMMAX
 10
247.500786
 20
290.938847
  9
$ORTHOMODE
 70
     0
  9
$REGENMODE
 70
     1
  9
$FILLMODE
 70
     1
  9
$QTEXTMODE
 70
     0
  9
$MIRRTEXT
 70
     1
  9
$DRAGMODE
 70
     2
  9
$LTSCALE
 40
1.0
  9
$OSMODE
 70
    37
  9
$ATTMODE
 70
     1
  9
$TEXTSIZE
 40
0.2
  9
$TRACEWID
 40
0.05
  9
$TEXTSTYLE
  7
STANDARD
  9
$CLAYER
  8
0
  9
$CELTYPE
  6
BYLAYER
  9
$CECOLOR
 62
   256
  9
$CELTSCALE
 40
1.0
  9
$DELOBJ
 70
     1
  9
$DISPSILH
 70
     0
  9
$DIMSCALE
 40
1.0
  9
$DIMASZ
 40
2.5
  9
$DIMEXO
 40
0.0625
  9
$DIMDLI
 40
0.38
  9
$DIMRND
 40
0.0
  9
$DIMDLE
 40
0.0
  9
$DIMEXE
 40
0.18
  9
$DIMTP
 40
0.0
  9
$DIMTM
 40
0.0
  9
$DIMTXT
 40
0.18
  9
$DIMCEN
 40
0.09
  9
$DIMTSZ
 40
0.0
  9
$DIMTOL
 70
     0
  9
$DIMLIM
 70
     0
  9
$DIMTIH
 70
     1
  9
$DIMTOH
 70
     1
  9
$DIMSE1
 70
     0
  9
$DIMSE2
 70
     0
  9
$DIMTAD
 70
     3
  9
$DIMZIN
 70
     0
  9
$DIMBLK
  1

  9
$DIMASO
 70
     1
  9
$DIMSHO
 70
     1
  9
$DIMPOST
  1

  9
$DIMAPOST
  1

  9
$DIMALT
 70
     0
  9
$DIMALTD
 70
     2
  9
$DIMALTF
 40
25.4
  9
$DIMLFAC
 40
1.0
  9
$DIMTOFL
 70
     0
  9
$DIMTVP
 40
0.0
  9
$DIMTIX
 70
     0
  9
$DIMSOXD
 70
     0
  9
$DIMSAH
 70
     0
  9
$DIMBLK1
  1

  9
$DIMBLK2
  1

  9
$DIMSTYLE
  2
STANDARD
  9
$DIMCLRD
 70
     0
  9
$DIMCLRE
 70
     0
  9
$DIMCLRT
 70
     0
  9
$DIMTFAC
 40
1.0
  9
$DIMGAP
 40
0.09
  9
$DIMJUST
 70
     0
  9
$DIMSD1
 70
     0
  9
$DIMSD2
 70
     0
  9
$DIMTOLJ
 70
     1
  9
$DIMTZIN
 70
     0
  9
$DIMALTZ
 70
     0
  9
$DIMALTTZ
 70
     0
  9
$DIMFIT
 70
     3
  9
$DIMUPT
 70
     0
  9
$DIMUNIT
 70
     2
  9
$DIMDEC
 70
     4
  9
$DIMTDEC
 70
     4
  9
$DIMALTU
 70
     2
  9
$DIMALTTD
 70
     2
  9
$DIMTXSTY
  7
STANDARD
  9
$DIMAUNIT
 70
     0
  9
$LUNITS
 70
     2
  9
$LUPREC
 70
     4
  9
$SKETCHINC
 40
0.1
  9
$FILLETRAD
 40
0.5
  9
$AUNITS
 70
     0
  9
$AUPREC
 70
     0
  9
$MENU
  1
.
  9
$ELEVATION
 40
0.0
  9
$PELEVATION
 40
0.0
  9
$THICKNESS
 40
0.0
  9
$LIMCHECK
 70
     0
  9
$CHAMFERA
 40
0.5
  9
$CHAMFERB
 40
0.5
  9
$CHAMFERC
 40
1.0
  9
$CHAMFERD
 40
0.0
  9
$SKPOLY
 70
     0
  9
$TDCREATE
 40
2454068.485662731
  9
$TDUPDATE
 40
2454068.485662743
  9
$TDINDWG
 40
0.0000000116
  9
$TDUSRTIMER
 40
0.0000000116
  9
$USRTIMER
 70
     1
  9
$ANGBASE
 50
0.0
  9
$ANGDIR
 70
     0
  9
$PDMODE
 70
     0
  9
$PDSIZE
 40
1.0
  9
$PLINEWID
 40
0.0
  9
$COORDS
 70
     1
  9
$SPLFRAME
 70
     0
  9
$SPLINETYPE
 70
     6
  9
$SPLINESEGS
 70
     8
  9
$ATTDIA
 70
     0
  9
$ATTREQ
 70
     1
  9
$HANDLING
 70
     1
  9
$HANDSEED
  5
1A4
  9
$SURFTAB1
 70
     6
  9
$SURFTAB2
 70
     6
  9
$SURFTYPE
 70
     6
  9
$SURFU
 70
     6
  9
$SURFV
 70
     6
  9
$UCSNAME
  2

  9
$UCSORG
 10
0.0
 20
0.0
 30
0.0
  9
$UCSXDIR
 10
1.0
 20
0.0
 30
0.0
  9
$UCSYDIR
 10
0.0
 20
1.0
 30
0.0
  9
$PUCSNAME
  2

  9
$PUCSORG
 10
0.0
 20
0.0
 30
0.0
  9
$PUCSXDIR
 10
1.0
 20
0.0
 30
0.0
  9
$PUCSYDIR
 10
0.0
 20
1.0
 30
0.0
  9
$USERI1
 70
     0
  9
$USERI2
 70
     0
  9
$USERI3
 70
     0
  9
$USERI4
 70
     0
  9
$USERI5
 70
     0
  9
$USERR1
 40
0.0
  9
$USERR2
 40
0.0
  9
$USERR3
 40
0.0
  9
$USERR4
 40
0.0
  9
$USERR5
 40
0.0
  9
$WORLDVIEW
 70
     1
  9
$SHADEDGE
 70
     3
  9
$SHADEDIF
 70
    70
  9
$TILEMODE
 70
     1
  9
$MAXACTVP
 70
    64
  9
$PINSBASE
 10
0.0
 20
0.0
 30
0.0
  9
$PLIMCHECK
 70
     0
  9
$PEXTMIN
 10
1.000000000000000E+20
 20
1.000000000000000E+20
 30
1.000000000000000E+20
  9
$PEXTMAX
 10
-1.000000000000000E+20
 20
-1.000000000000000E+20
 30
-1.000000000000000E+20
  9
$PLIMMIN
 10
0.0
 20
0.0
  9
$PLIMMAX
 10
12.0
 20
9.0
  9
$UNITMODE
 70
     0
  9
$VISRETAIN
 70
     0
  9
$PLINEGEN
 70
     1
  9
$PSLTSCALE
 70
     0
  9
$TREEDEPTH
 70
  3020
  9
$PICKSTYLE
 70
     1
  9
$CMLSTYLE
  2
STANDARD
  9
$CMLJUST
 70
     0
  9
$CMLSCALE
 40
1.0
  9
$PROXYGRAPHICS
 70
     0
  9
$MEASUREMENT
 70
     1
  0
ENDSEC
  0
SECTION
  2
CLASSES
  0
CLASS
  1
ACDBDICTIONARYWDFLT
  2
AcDbDictionaryWithDefault
  3
ObjectDBX Classes
 90
        0
280
     0
281
     0
  0
CLASS
  1
XRECORD
  2
AcDbXrecord
  3
AutoCAD 2000
 90
        0
280
     0
281
     0
  0
CLASS
  1
LWPOLYLINE
  2
AcDbPolyline
  3
AutoCAD 2000
 90
        0
280
     0
281
     1
  0
CLASS
  1
HATCH
  2
AcDbHatch
  3
AutoCAD 2000
 90
        0
280
     0
281
     1
  0
CLASS
  1
ACDBPLACEHOLDER
  2
AcDbPlaceHolder
  3
ObjectDBX Classes
 90
        0
280
     0
281
     0
  0
CLASS
  1
LAYOUT
  2
AcDbLayout
  3
ObjectDBX Classes
 90
        0
280
     0
281
     0
  0
ENDSEC
  0
SECTION
  2
TABLES
  0
TABLE
  2
VPORT
  5
8
330
0
100
AcDbSymbolTable
 70
     1
  0
VPORT
  5
29
330
8
100
AcDbSymbolTableRecord
100
AcDbViewportTableRecord
  2
*ACTIVE
 70
     0
 10
0.0
 20
0.0
 11
1.0
 21
1.0
 12
0.0
 22
0.0
 13
0.0
 23
0.0
 14
0.5
 24
0.5
 15
0.5
 25
0.5
 16
0.0
 26
0.0
 36
1.0
 17
-66.43349899999998
 27
-144.0503655002896
 37
0.0
 40
148.4354969405907
 41
2.449235700713202
 42
50.0
 43
0.0
 44
0.0
 50
0.0
 51
0.0
 71
     0
 72
  1000
 73
     1
 74
     1
 75
     0
 76
     0
 77
     0
 78
     0
  0
ENDTAB
  0
TABLE
  2
LTYPE
  5
5
330
0
100
AcDbSymbolTable
 70
    28
  0
LTYPE
  5
14
330
5
100
AcDbSymbolTableRecord
100
AcDbLinetypeTableRecord
  2
BYBLOCK
 70
     0
  3

 72
    65
 73
     0
 40
0.0
  0
LTYPE
  5
15
330
5
100
AcDbSymbolTableRecord
100
AcDbLinetypeTableRecord
  2
BYLAYER
 70
     0
  3

 72
    65
 73
     0
 40
0.0
  0
LTYPE
  5
16
330
5
100
AcDbSymbolTableRecord
100
AcDbLinetypeTableRecord
  2
CONTINUOUS
 70
     0
  3
Solid line
 72
    65
 73
     0
 40
0.0
  0
LTYPE
  5
2C
330
5
100
AcDbSymbolTableRecord
100
AcDbLinetypeTableRecord
  2
HIDDENX2
 70
     0
  3
CADPAC LINETYPE
 72
    65
 73
     2
 40
12.77448285400658
 49
9.580862140504934
 74
     0
 49
-3.193620713501645
 74
     0
  0
LTYPE
  5
2D
330
5
100
AcDbSymbolTableRecord
100
AcDbLinetypeTableRecord
  2
HIDDEN
 70
     0
  3
CADPAC LINETYPE
 72
    65
 73
     2
 40
9.580862140504934
 49
6.387241427003289
 74
     0
 49
-3.193620713501645
 74
     0
  0
LTYPE
  5
2E
330
5
100
AcDbSymbolTableRecord
100
AcDbLinetypeTableRecord
  2
HIDDEN2
 70
     0
  3
CADPAC LINETYPE
 72
    65
 73
     2
 40
7.984051783754111
 49
4.790431070252467
 74
     0
 49
-3.193620713501645
 74
     0
  0
LTYPE
  5
2F
330
5
100
AcDbSymbolTableRecord
100
AcDbLinetypeTableRecord
  2
DASHED
 70
     0
  3
CADPAC LINETYPE
 72
    65
 73
     2
 40
7.66468971240397
 49
3.832344856201985
 74
     0
 49
-3.832344856201985
 74
     0
  0
LTYPE
  5
30
330
5
100
AcDbSymbolTableRecord
100
AcDbLinetypeTableRecord
  2
DASHED2
 70
     0
  3
CADPAC LINETYPE
 72
    65
 73
     2
 40
4.471068998902354
 49
3.832344856201985
 74
     0
 49
-0.6387241427003687
 74
     0
  0
LTYPE
  5
31
330
5
100
AcDbSymbolTableRecord
100
AcDbLinetypeTableRecord
  2
DASHEDX2
 70
     0
  3
CADPAC LINETYPE
 72
    65
 73
     2
 40
4.471068998902354
 49
3.832344856201985
 74
     0
 49
-0.6387241427003687
 74
     0
  0
LTYPE
  5
32
330
5
100
AcDbSymbolTableRecord
100
AcDbLinetypeTableRecord
  2
DOTX2
 70
     0
  3
CADPAC LINETYPE
 72
    65
 73
     2
 40
0.7984051783754609
 49
0.0
 74
     0
 49
-0.7984051783754609
 74
     0
  0
LTYPE
  5
33
330
5
100
AcDbSymbolTableRecord
100
AcDbLinetypeTableRecord
  2
DOT
 70
     0
  3
CADPAC LINETYPE
 72
    65
 73
     2
 40
0.6387241427003687
 49
0.0
 74
     0
 49
-0.6387241427003687
 74
     0
  0
LTYPE
  5
34
330
5
100
AcDbSymbolTableRecord
100
AcDbLinetypeTableRecord
  2
DOT2
 70
     0
  3
CADPAC LINETYPE
 72
    65
 73
     2
 40
0.4790431070252765
 49
0.0
 74
     0
 49
-0.4790431070252765
 74
     0
  0
LTYPE
  5
35
330
5
100
AcDbSymbolTableRecord
100
AcDbLinetypeTableRecord
  2
CENTERX2
 70
     0
  3
CADPAC LINETYPE
 72
    65
 73
     4
 40
19.16172428100987
 49
7.984051783754111
 74
     0
 49
-3.992025891877056
 74
     0
 49
3.193620713501645
 74
     0
 49
-3.992025891877056
 74
     0
  0
LTYPE
  5
36
330
5
100
AcDbSymbolTableRecord
100
AcDbLinetypeTableRecord
  2
CENTER
 70
     0
  3
CADPAC LINETYPE
 72
    65
 73
     4
 40
14.69065528210757
 49
6.387241427003289
 74
     0
 49
-3.193620713501645
 74
     0
 49
1.916172428100987
 74
     0
 49
-3.193620713501645
 74
     0
  0
LTYPE
  5
37
330
5
100
AcDbSymbolTableRecord
100
AcDbLinetypeTableRecord
  2
CENTER2
 70
     0
  3
CADPAC LINETYPE
 72
    65
 73
     4
 40
10.21958628320526
 49
4.790431070252467
 74
     0
 49
-2.395215535126233
 74
     0
 49
0.638724142700329
 74
     0
 49
-2.395215535126233
 74
     0
  0
LTYPE
  5
38
330
5
100
AcDbSymbolTableRecord
100
AcDbLinetypeTableRecord
  2
DASHDOTX2
 70
     0
  3
CADPAC LINETYPE
 72
    65
 73
     4
 40
8.94213799780465
 49
7.664689712403913
 74
     0
 49
-0.6387241427003687
 74
     0
 49
0.0
 74
     0
 49
-0.6387241427003687
 74
     0
  0
LTYPE
  5
39
330
5
100
AcDbSymbolTableRecord
100
AcDbLinetypeTableRecord
  2
DASHDOT
 70
     0
  3
CADPAC LINETYPE
 72
    65
 73
     4
 40
10.85831042590564
 49
7.664689712403913
 74
     0
 49
-0.6387241427003687
 74
     0
 49
1.916172428100992
 74
     0
 49
-0.6387241427003687
 74
     0
  0
LTYPE
  5
3A
330
5
100
AcDbSymbolTableRecord
100
AcDbLinetypeTableRecord
  2
DASHDOT2
 70
     0
  3
CADPAC LINETYPE
 72
    65
 73
     4
 40
6.898220741163587
 49
5.748517284302935
 74
     0
 49
-0.4790431070252765
 74
     0
 49
0.1916172428100993
 74
     0
 49
-0.4790431070252765
 74
     0
  0
LTYPE
  5
3B
330
5
100
AcDbSymbolTableRecord
100
AcDbLinetypeTableRecord
  2
DIVIDEX2
 70
     0
  3
CADPAC LINETYPE
 72
    65
 73
     6
 40
9.580862140505019
 49
7.664689712403913
 74
     0
 49
-0.6387241427003687
 74
     0
 49
0.0
 74
     0
 49
-0.6387241427003687
 74
     0
 49
0.0
 74
     0
 49
-0.6387241427003687
 74
     0
  0
LTYPE
  5
3C
330
5
100
AcDbSymbolTableRecord
100
AcDbLinetypeTableRecord
  2
DIVIDE
 70
     0
  3
CADPAC LINETYPE
 72
    65
 73
     6
 40
13.413206996707
 49
7.664689712403913
 74
     0
 49
-0.6387241427003687
 74
     0
 49
1.916172428100992
 74
     0
 49
-0.6387241427003687
 74
     0
 49
1.916172428100992
 74
     0
 49
-0.6387241427003687
 74
     0
  0
LTYPE
  5
3D
330
5
100
AcDbSymbolTableRecord
100
AcDbLinetypeTableRecord
  2
DIVIDE2
 70
     0
  3
CADPAC LINETYPE
 72
    65
 73
     6
 40
10.05990524753025
 49
5.748517284302935
 74
     0
 49
-0.4790431070252765
 74
     0
 49
1.437129321075744
 74
     0
 49
-0.4790431070252765
 74
     0
 49
1.437129321075744
 74
     0
 49
-0.4790431070252765
 74
     0
  0
LTYPE
  5
3E
330
5
100
AcDbSymbolTableRecord
100
AcDbLinetypeTableRecord
  2
BORDERX2
 70
     0
  3
CADPAC LINETYPE
 72
    65
 73
     6
 40
27.94418124313939
 49
7.984051783754111
 74
     0
 49
-3.992025891877056
 74
     0
 49
7.984051783754111
 74
     0
 49
-3.992025891877056
 74
     0
 49
0.0
 74
     0
 49
-3.992025891877056
 74
     0
  0
LTYPE
  5
3F
330
5
100
AcDbSymbolTableRecord
100
AcDbLinetypeTableRecord
  2
BORDER
 70
     0
  3
CADPAC LINETYPE
 72
    65
 73
     6
 40
22.35534499451151
 49
6.387241427003289
 74
     0
 49
-3.193620713501645
 74
     0
 49
6.387241427003289
 74
     0
 49
-3.193620713501645
 74
     0
 49
0.0
 74
     0
 49
-3.193620713501645
 74
     0
  0
LTYPE
  5
40
330
5
100
AcDbSymbolTableRecord
100
AcDbLinetypeTableRecord
  2
BORDER2
 70
     0
  3
CADPAC LINETYPE
 72
    65
 73
     6
 40
8.303413855104367
 49
3.832344856201985
 74
     0
 49
-0.6387241427003687
 74
     0
 49
0.0
 74
     0
 49
-0.6387241427003687
 74
     0
 49
0.0
 74
     0
 49
-3.193620713501645
 74
     0
  0
LTYPE
  5
41
330
5
100
AcDbSymbolTableRecord
100
AcDbLinetypeTableRecord
  2
PHANTOMX2
 70
     0
  3
CADPAC LINETYPE
 72
    65
 73
     6
 40
23.95215535126233
 49
7.984051783754111
 74
     0
 49
-3.193620713501645
 74
     0
 49
3.193620713501645
 74
     0
 49
-3.193620713501645
 74
     0
 49
3.193620713501645
 74
     0
 49
-3.193620713501645
 74
     0
  0
LTYPE
  5
42
330
5
100
AcDbSymbolTableRecord
100
AcDbLinetypeTableRecord
  2
PHANTOM
 70
     0
  3
CADPAC LINETYPE
 72
    65
 73
     6
 40
19.8004484237102
 49
6.387241427003289
 74
     0
 49
-3.193620713501645
 74
     0
 49
1.916172428100987
 74
     0
 49
-3.193620713501645
 74
     0
 49
1.916172428100987
 74
     0
 49
-3.193620713501645
 74
     0
  0
LTYPE
  5
43
330
5
100
AcDbSymbolTableRecord
100
AcDbLinetypeTableRecord
  2
PHANTOM2
 70
     0
  3
CADPAC LINETYPE
 72
    65
 73
     6
 40
16.92618978155872
 49
4.790431070252467
 74
     0
 49
-3.193620713501645
 74
     0
 49
1.277448285400658
 74
     0
 49
-3.193620713501645
 74
     0
 49
1.277448285400658
 74
     0
 49
-3.193620713501645
 74
     0
  0
LTYPE
  5
44
330
5
100
AcDbSymbolTableRecord
100
AcDbLinetypeTableRecord
  2
ACAD_ISO06W100
 70
     0
  3
CADPAC LINETYPE
 72
    65
 73
     8
 40
10.21958628320539
 49
7.664689712403913
 74
     0
 49
-0.6387241427003687
 74
     0
 49
0.0
 74
     0
 49
-0.6387241427003687
 74
     0
 49
0.0
 74
     0
 49
-0.6387241427003687
 74
     0
 49
0.0
 74
     0
 49
-0.6387241427003687
 74
     0
  0
LTYPE
  5
45
330
5
100
AcDbSymbolTableRecord
100
AcDbLinetypeTableRecord
  2
ACAD_ISO13W100
 70
     0
  3
CADPAC LINETYPE
 72
    65
 73
     8
 40
25.54896570801316
 49
6.387241427003289
 74
     0
 49
-3.193620713501645
 74
     0
 49
6.387241427003289
 74
     0
 49
-3.193620713501645
 74
     0
 49
0.0
 74
     0
 49
-3.193620713501645
 74
     0
 49
0.0
 74
     0
 49
-3.193620713501645
 74
     0
  0
LTYPE
  5
46
330
5
100
AcDbSymbolTableRecord
100
AcDbLinetypeTableRecord
  2
ACAD_ISO14W100
 70
     0
  3
CADPAC LINETYPE
 72
    65
 73
     8
 40
19.16172428100987
 49
6.387241427003289
 74
     0
 49
-3.193620713501645
 74
     0
 49
0.0
 74
     0
 49
-3.193620713501645
 74
     0
 49
0.0
 74
     0
 49
-3.193620713501645
 74
     0
 49
0.0
 74
     0
 49
-3.193620713501645
 74
     0
  0
ENDTAB
  0
TABLE
  2
LAYER
  5
2
330
0
100
AcDbSymbolTable
 70
     1
  0
LAYER
  5
10
330
2
100
AcDbSymbolTableRecord
100
AcDbLayerTableRecord
  2
0
 70
     0
 62
     7
  6
CONTINUOUS
  0
ENDTAB
  0
TABLE
  2
STYLE
  5
3
330
0
100
AcDbSymbolTable
 70
     2
  0
STYLE
  5
11
330
3
100
AcDbSymbolTableRecord
100
AcDbTextStyleTableRecord
  2
STANDARD
 70
     0
 40
0.0
 41
1.0
 50
0.0
 71
     0
 42
0.2
  3
txt
  4

  0
STYLE
  5
181
330
3
100
AcDbSymbolTableRecord
100
AcDbTextStyleTableRecord
  2
FDASTYLE0
 70
     0
 40
3.200000047683716
 41
0.6684682349718109
 50
0.0
 71
     0
 42
0.2
  3
txt.shx
  4
bigfont
  0
ENDTAB
  0
TABLE
  2
VIEW
  5
6
330
0
100
AcDbSymbolTable
 70
     0
  0
ENDTAB
  0
TABLE
  2
UCS
  5
7
330
0
100
AcDbSymbolTable
 70
     0
  0
ENDTAB
  0
TABLE
  2
APPID
  5
9
330
0
100
AcDbSymbolTable
 70
     2
  0
APPID
  5
12
330
9
100
AcDbSymbolTableRecord
100
AcDbRegAppTableRecord
  2
ACAD
 70
     0
  0
APPID
  5
2A
330
9
100
AcDbSymbolTableRecord
100
AcDbRegAppTableRecord
  2
DAFUSIONOUT
 70
     0
  0
ENDTAB
  0
TABLE
  2
DIMSTYLE
  5
A
330
0
100
AcDbSymbolTable
 70
     1
  0
DIMSTYLE
105
27
330
A
100
AcDbSymbolTableRecord
100
AcDbDimStyleTableRecord
  2
STANDARD
 70
     0
  3

  4

  5

  6

  7

 40
1.0
 41
0.18
 42
0.0625
 43
0.38
 44
0.18
 45
0.0
 46
0.0
 47
0.0
 48
0.0
140
0.18
141
0.09
142
0.0
143
25.4
144
1.0
145
0.0
146
1.0
147
0.09
 71
     0
 72
     0
 73
     1
 74
     1
 75
     0
 76
     0
 77
     0
 78
     0
170
     0
171
     2
172
     0
173
     0
174
     0
175
     0
176
     0
177
     0
178
     0
270
     2
271
     4
272
     4
273
     2
274
     2
340
11
275
     0
280
     0
281
     0
282
     0
283
     1
284
     0
285
     0
286
     0
287
     3
288
     0
  0
ENDTAB
  0
TABLE
  2
BLOCK_RECORD
  5
1
330
0
100
AcDbSymbolTable
 70
     1
  0
BLOCK_RECORD
  5
1F
330
1
100
AcDbSymbolTableRecord
100
AcDbBlockTableRecord
  2
*MODEL_SPACE
  0
BLOCK_RECORD
  5
1B
330
1
100
AcDbSymbolTableRecord
100
AcDbBlockTableRecord
  2
*PAPER_SPACE
  0
ENDTAB
  0
ENDSEC
  0
SECTION
  2
BLOCKS
  0
BLOCK
  5
20
330
1F
100
AcDbEntity
  8
0
100
AcDbBlockBegin
  2
*MODEL_SPACE
 70
     0
 71
     0
 10
0.0
 20
0.0
 30
0.0
  3
*MODEL_SPACE
  1

  0
ENDBLK
  5
21
330
1F
100
AcDbEntity
  8
0
100
AcDbBlockEnd
  0
BLOCK
  5
1C
330
1B
100
AcDbEntity
 67
     1
  8
0
100
AcDbBlockBegin
  2
*PAPER_SPACE
 70
     0
 71
     0
 10
0.0
 20
0.0
 30
0.0
  3
*PAPER_SPACE
  1

  0
ENDBLK
  5
1D
330
1B
100
AcDbEntity
 67
     1
  8
0
100
AcDbBlockEnd
  0
ENDSEC
  0
SECTION
  2
ENTITIES
  0
LINE
  5
47
330
1F
100
AcDbEntity
  8
0
  6
CENTER
 62
     7
100
AcDbLine
 10
-231.221018
 20
-125.537897
 30
0.0
 11
-231.221018
 21
-152.312877
 31
0.0
  0
LINE
  5
48
330
1F
100
AcDbEntity
  8
0
  6
CENTER
 62
     7
100
AcDbLine
 10
-244.646008
 20
-139.187867
 30
0.0
 11
-216.820998
 21
-139.187867
 31
0.0
  0
LINE
  5
49
330
1F
100
AcDbEntity
  8
0
  6
CENTER
 62
     7
100
AcDbLine
 10
-90.920998
 20
-99.84537700000004
 30
0.0
 11
-90.920998
 21
-135.537857
 31
0.0
  0
LINE
  5
4A
330
1F
100
AcDbEntity
  8
0
  6
CENTER
 62
     7
100
AcDbLine
 10
-148.620988
 20
-99.84537700000004
 30
0.0
 11
-148.620988
 21
-135.537857
 31
0.0
  0
LINE
  5
4B
330
1F
100
AcDbEntity
  8
0
  6
CENTER
 62
     7
100
AcDbLine
 10
40.079013
 20
-71.28786700000003
 30
0.0
 11
40.079013
 21
-211.637867
 31
0.0
  0
LINE
  5
4C
330
1F
100
AcDbEntity
  8
0
  6
CENTER
 62
     7
100
AcDbLine
 10
-21.94600800000001
 20
-139.187867
 30
0.0
 11
111.77901
 21
-139.187867
 31
0.0
  0
LINE
  5
4D
330
1F
100
AcDbEntity
  8
0
  6
CENTER
 62
     7
100
AcDbLine
 10
-173.845958
 20
-139.187867
 30
0.0
 11
-66.045998
 21
-139.187867
 31
0.0
  0
LINE
  5
4E
330
1F
100
AcDbEntity
  8
0
  6
CENTER
 62
     7
100
AcDbLine
 10
-90.920998
 20
-102.860787
 30
0.0
 11
-90.920998
 21
-122.374067
 31
0.0
  0
LINE
  5
4F
330
1F
100
AcDbEntity
  8
0
  6
CENTER
 62
     7
100
AcDbLine
 10
-148.620988
 20
-102.860787
 30
0.0
 11
-148.620988
 21
-122.374067
 31
0.0
  0
CIRCLE
  5
50
330
1F
100
AcDbEntity
  8
0
  6
CENTER
 62
     7
100
AcDbCircle
 10
40.079013
 20
-139.187867
 30
0.0
 40
45.709999
  0
LINE
  5
51
330
1F
100
AcDbEntity
  8
0
  6
DIVIDE
 62
     7
100
AcDbLine
 10
-87.59598800000001
 20
-104.187877
 30
0.0
 11
-87.59598800000001
 21
-132.687877
 31
0.0
  0
LINE
  5
52
330
1F
100
AcDbEntity
  8
0
  6
DIVIDE
 62
     7
100
AcDbLine
 10
-94.24598799999998
 20
-104.187877
 30
0.0
 11
-94.24598799999998
 21
-132.687877
 31
0.0
  0
LINE
  5
53
330
1F
100
AcDbEntity
  8
0
  6
DIVIDE
 62
     7
100
AcDbLine
 10
-145.295968
 20
-104.187877
 30
0.0
 11
-145.295968
 21
-132.687877
 31
0.0
  0
LINE
  5
54
330
1F
100
AcDbEntity
  8
0
  6
DIVIDE
 62
     7
100
AcDbLine
 10
-144.620988
 20
-104.187877
 30
0.0
 11
-144.620988
 21
-132.687877
 31
0.0
  0
LINE
  5
55
330
1F
100
AcDbEntity
  8
0
  6
DIVIDE
 62
     7
100
AcDbLine
 10
-152.621048
 20
-104.187877
 30
0.0
 11
-152.621048
 21
-132.687877
 31
0.0
  0
LINE
  5
56
330
1F
100
AcDbEntity
  8
0
  6
DIVIDE
 62
     7
100
AcDbLine
 10
-151.945998
 20
-104.187877
 30
0.0
 11
-151.945998
 21
-132.687877
 31
0.0
  0
LINE
  5
57
330
1F
100
AcDbEntity
  8
0
  6
DIVIDE
 62
     7
100
AcDbLine
 10
-86.92097100000001
 20
-104.187882
 30
0.0
 11
-86.92097100000001
 21
-132.687882
 31
0.0
  0
LINE
  5
58
330
1F
100
AcDbEntity
  8
0
  6
DIVIDE
 62
     7
100
AcDbLine
 10
-94.92100199999999
 20
-104.187882
 30
0.0
 11
-94.92100199999999
 21
-132.687882
 31
0.0
  0
LINE
  5
59
330
1F
100
AcDbEntity
  8
0
  6
DIVIDE
 62
     7
100
AcDbLine
 10
-144.620984
 20
-104.187882
 30
0.0
 11
-144.620984
 21
-132.687882
 31
0.0
  0
LINE
  5
5A
330
1F
100
AcDbEntity
  8
0
  6
DIVIDE
 62
     7
100
AcDbLine
 10
-152.621045
 20
-104.187882
 30
0.0
 11
-152.621045
 21
-132.687882
 31
0.0
  0
LINE
  5
5B
330
1F
100
AcDbEntity
  8
0
  6
DASHED
 62
     7
100
AcDbLine
 10
-114.920998
 20
-92.68786700000004
 30
0.0
 11
-114.920998
 21
-98.55785700000004
 31
0.0
  0
LINE
  5
5C
330
1F
100
AcDbEntity
  8
0
  6
DASHED
 62
     7
100
AcDbLine
 10
-106.521008
 20
-92.68786700000004
 30
0.0
 11
-106.521008
 21
-98.55785700000004
 31
0.0
  0
LINE
  5
5D
330
1F
100
AcDbEntity
  8
0
  6
DASHED
 62
     7
100
AcDbLine
 10
-113.420988
 20
-91.18786700000004
 30
0.0
 11
-108.021008
 21
-91.18786700000004
 31
0.0
  0
LINE
  5
5E
330
1F
100
AcDbEntity
  8
0
  6
DASHED
 62
     7
100
AcDbLine
 10
-114.921158
 20
-92.68770700000002
 30
0.0
 11
-113.4211580000001
 21
-91.18770700000005
 31
0.0
  0
LINE
  5
5F
330
1F
100
AcDbEntity
  8
0
  6
DASHED
 62
     7
100
AcDbLine
 10
-108.0210079999999
 20
-91.18784700000009
 30
0.0
 11
-106.520988
 21
-92.68786700000004
 31
0.0
  0
LINE
  5
60
330
1F
100
AcDbEntity
  8
0
  6
DASHED
 62
     7
100
AcDbLine
 10
-124.621018
 20
-92.68786700000004
 30
0.0
 11
-124.621018
 21
-98.55785700000004
 31
0.0
  0
LINE
  5
61
330
1F
100
AcDbEntity
  8
0
  6
DASHED
 62
     7
100
AcDbLine
 10
-133.021008
 20
-92.68786700000004
 30
0.0
 11
-133.021008
 21
-98.55785700000004
 31
0.0
  0
LINE
  5
62
330
1F
100
AcDbEntity
  8
0
  6
DASHED
 62
     7
100
AcDbLine
 10
-126.120998
 20
-91.18786700000004
 30
0.0
 11
-131.521008
 21
-91.18786700000004
 31
0.0
  0
LINE
  5
63
330
1F
100
AcDbEntity
  8
0
  6
DASHED
 62
     7
100
AcDbLine
 10
-124.620988
 20
-92.68781700000005
 30
0.0
 11
-126.120998
 21
-91.18779700000005
 31
0.0
  0
LINE
  5
64
330
1F
100
AcDbEntity
  8
0
  6
DASHED
 62
     7
100
AcDbLine
 10
-131.5210580000001
 20
-91.18779699999999
 30
0.0
 11
-133.021038
 21
-92.68779699999999
 31
0.0
  0
LINE
  5
65
330
1F
100
AcDbEntity
  8
0
 62
     7
100
AcDbLine
 10
-69.920998
 20
-132.687877
 30
0.0
 11
-69.920998
 21
-171.687947
 31
0.0
  0
LINE
  5
66
330
1F
100
AcDbEntity
  8
0
 62
     7
100
AcDbLine
 10
-94.920998
 20
-104.187877
 30
0.0
 11
-86.92096799999999
 21
-104.187877
 31
0.0
  0
LINE
  5
67
330
1F
100
AcDbEntity
  8
0
 62
     7
100
AcDbLine
 10
-169.620988
 20
-132.687877
 30
0.0
 11
-169.620988
 21
-171.687867
 31
0.0
  0
LINE
  5
68
330
1F
100
AcDbEntity
  8
0
 62
     7
100
AcDbLine
 10
-144.620988
 20
-104.187877
 30
0.0
 11
-152.621048
 21
-104.187877
 31
0.0
  0
LINE
  5
69
330
1F
100
AcDbEntity
  8
0
 62
     7
100
AcDbLine
 10
-124.621018
 20
-132.687877
 30
0.0
 11
-124.621018
 21
-139.187867
 31
0.0
  0
LINE
  5
6A
330
1F
100
AcDbEntity
  8
0
 62
     7
100
AcDbLine
 10
-114.920998
 20
-132.687877
 30
0.0
 11
-114.920998
 21
-139.187867
 31
0.0
  0
LINE
  5
6B
330
1F
100
AcDbEntity
  8
0
 62
     7
100
AcDbLine
 10
-162.271008
 20
-174.187867
 30
0.0
 11
-167.121018
 21
-174.187867
 31
0.0
  0
LINE
  5
6C
330
1F
100
AcDbEntity
  8
0
 62
     7
100
AcDbLine
 10
-167.121018
 20
-174.187827
 30
0.0
 11
-169.621018
 21
-171.6878370000001
 31
0.0
  0
LINE
  5
6D
330
1F
100
AcDbEntity
  8
0
 62
     7
100
AcDbLine
 10
-72.42095799999996
 20
-174.1879070000001
 30
0.0
 11
-69.92095799999993
 21
-171.687897
 31
0.0
  0
LINE
  5
6E
330
1F
100
AcDbEntity
  8
0
 62
     7
100
AcDbLine
 10
-76.694288
 20
-174.187867
 30
0.0
 11
-72.420998
 21
-174.187867
 31
0.0
  0
LINE
  5
6F
330
1F
100
AcDbEntity
  8
0
 62
     7
100
AcDbLine
 10
39.578998
 20
-200.185833
 30
0.0
 11
39.578998
 21
-175.684457
 31
0.0
  0
LINE
  5
70
330
1F
100
AcDbEntity
  8
0
 62
     7
100
AcDbLine
 10
40.578968
 20
-200.185833
 30
0.0
 11
40.578968
 21
-175.684457
 31
0.0
  0
LINE
  5
71
330
1F
100
AcDbEntity
  8
0
 62
     7
100
AcDbLine
 10
-152.621048
 20
-132.687877
 30
0.0
 11
-144.620988
 21
-132.687877
 31
0.0
  0
LINE
  5
72
330
1F
100
AcDbEntity
  8
0
 62
     7
100
AcDbLine
 10
-94.920998
 20
-132.687877
 30
0.0
 11
-86.92096799999999
 21
-132.687877
 31
0.0
  0
LINE
  5
73
330
1F
100
AcDbEntity
  8
0
 62
     7
100
AcDbLine
 10
-5.087547999999998
 20
-153.565137
 30
0.0
 11
-3.76212799999999
 21
-157.206707
 31
0.0
  0
LINE
  5
74
330
1F
100
AcDbEntity
  8
0
 62
     7
100
AcDbLine
 10
-1.986557999999988
 20
-152.436427
 30
0.0
 11
-0.6611079999999987
 21
-156.078077
 31
0.0
  0
LINE
  5
75
330
1F
100
AcDbEntity
  8
0
 62
     7
100
AcDbLine
 10
5.044682000000051
 20
-107.261137
 30
0.0
 11
2.553702000000044
 21
-110.229767
 31
0.0
  0
LINE
  5
76
330
1F
100
AcDbEntity
  8
0
 62
     7
100
AcDbLine
 10
7.572632000000027
 20
-109.3822770000001
 30
0.0
 11
5.081602000000032
 21
-112.3509770000001
 31
0.0
  0
LINE
  5
77
330
1F
100
AcDbEntity
  8
0
 62
     7
100
AcDbLine
 10
-7.280988000000008
 20
-137.2502070000001
 30
0.0
 11
-7.280988000000008
 21
-141.125487
 31
0.0
  0
LINE
  5
78
330
1F
100
AcDbEntity
  8
0
 62
     7
100
AcDbLine
 10
-3.980987999999996
 20
-137.250167
 30
0.0
 11
-3.980987999999996
 21
-141.125527
 31
0.0
  0
LINE
  5
79
330
1F
100
AcDbEntity
  8
0
 62
     7
100
AcDbLine
 10
-3.762098000000009
 20
-121.1689870000001
 30
0.0
 11
-5.087517999999989
 21
-124.8105570000001
 31
0.0
  0
LINE
  5
7A
330
1F
100
AcDbEntity
  8
0
 62
     7
100
AcDbLine
 10
-0.6610980000000097
 20
-122.297617
 30
0.0
 11
-1.986558000000002
 21
-125.939267
 31
0.0
  0
LINE
  5
7B
330
1F
100
AcDbEntity
  8
0
 62
     7
100
AcDbLine
 10
39.579036
 20
-78.18988700000003
 30
0.0
 11
39.579036
 21
-102.691267
 31
0.0
  0
LINE
  5
7C
330
1F
100
AcDbEntity
  8
0
 62
     7
100
AcDbLine
 10
40.57900600000001
 20
-78.18988700000003
 30
0.0
 11
40.57900600000001
 21
-102.691267
 31
0.0
  0
LINE
  5
7D
330
1F
100
AcDbEntity
  8
0
 62
     7
100
AcDbLine
 10
-167.121018
 20
-139.187867
 30
0.0
 11
-167.121018
 21
-174.187867
 31
0.0
  0
LINE
  5
7E
330
1F
100
AcDbEntity
  8
0
 62
     7
100
AcDbLine
 10
-72.42095799999999
 20
-139.187867
 30
0.0
 11
-72.42095799999999
 21
-174.187867
 31
0.0
  0
LINE
  5
7F
330
1F
100
AcDbEntity
  8
0
 62
     7
100
AcDbLine
 10
-84.97196800000003
 20
-189.937867
 30
0.0
 11
-83.67292800000001
 21
-192.1878620000001
 31
0.0
  0
LINE
  5
80
330
1F
100
AcDbEntity
  8
0
 62
     7
100
AcDbLine
 10
-87.57004799999999
 20
-189.937867
 30
0.0
 11
-84.971968
 21
-189.937867
 31
0.0
  0
LINE
  5
81
330
1F
100
AcDbEntity
  8
0
 62
     7
100
AcDbLine
 10
-88.86908800000001
 20
-192.187862
 30
0.0
 11
-87.57004799999999
 21
-189.937867
 31
0.0
  0
LINE
  5
82
330
1F
100
AcDbEntity
  8
0
 62
     7
100
AcDbLine
 10
-87.57004800000001
 20
-194.437862
 30
0.0
 11
-88.86908800000003
 21
-192.187862
 31
0.0
  0
LINE
  5
83
330
1F
100
AcDbEntity
  8
0
 62
     7
100
AcDbLine
 10
-84.971968
 20
-194.4378620000001
 30
0.0
 11
-87.57004799999999
 21
-194.4378620000001
 31
0.0
  0
LINE
  5
84
330
1F
100
AcDbEntity
  8
0
 62
     7
100
AcDbLine
 10
-83.67292800000001
 20
-192.1878620000001
 30
0.0
 11
-84.97196800000003
 21
-194.4378620000001
 31
0.0
  0
LINE
  5
85
330
1F
100
AcDbEntity
  8
0
 62
     7
100
AcDbLine
 10
-154.5699879999999
 20
-189.937867
 30
0.0
 11
-155.869028
 21
-192.1878630000001
 31
0.0
  0
LINE
  5
86
330
1F
100
AcDbEntity
  8
0
 62
     7
100
AcDbLine
 10
-151.971908
 20
-189.937867
 30
0.0
 11
-154.569988
 21
-189.937867
 31
0.0
  0
LINE
  5
87
330
1F
100
AcDbEntity
  8
0
 62
     7
100
AcDbLine
 10
-150.672868
 20
-192.1878620000001
 30
0.0
 11
-151.971908
 21
-189.937867
 31
0.0
  0
LINE
  5
88
330
1F
100
AcDbEntity
  8
0
 62
     7
100
AcDbLine
 10
-151.971908
 20
-194.4378620000001
 30
0.0
 11
-150.672868
 21
-192.187862
 31
0.0
  0
LINE
  5
89
330
1F
100
AcDbEntity
  8
0
 62
     7
100
AcDbLine
 10
-154.569988
 20
-194.4378620000001
 30
0.0
 11
-151.971908
 21
-194.4378620000001
 31
0.0
  0
LINE
  5
8A
330
1F
100
AcDbEntity
  8
0
 62
     7
100
AcDbLine
 10
-155.869028
 20
-192.1878630000001
 30
0.0
 11
-154.5699879999999
 21
-194.437862
 31
0.0
  0
LINE
  5
8B
330
1F
100
AcDbEntity
  8
0
 62
     7
100
AcDbLine
 10
-85.16096799999997
 20
-101.6983870000001
 30
0.0
 11
-81.65047799999999
 21
-98.18788700000008
 31
0.0
  0
LINE
  5
8C
330
1F
100
AcDbEntity
  8
0
 62
     7
100
AcDbLine
 10
-84.99256800000001
 20
-100.182947
 30
0.0
 11
-82.99753800000002
 21
-98.18790700000002
 31
0.0
  0
LINE
  5
8D
330
1F
100
AcDbEntity
  8
0
 62
     7
100
AcDbLine
 10
-80.91526799999994
 20
-104.1878770000001
 30
0.0
 11
-80.18541799999994
 21
-103.4580270000001
 31
0.0
  0
LINE
  5
8E
330
1F
100
AcDbEntity
  8
0
 62
     7
100
AcDbLine
 10
-84.8241779999999
 20
-98.66751700000009
 30
0.0
 11
-84.34459799999993
 21
-98.18793700000012
 31
0.0
  0
LINE
  5
8F
330
1F
100
AcDbEntity
  8
0
 62
     7
100
AcDbLine
 10
-82.26231799999999
 20
-104.187887
 30
0.0
 11
-80.32012800000001
 21
-102.245697
 31
0.0
  0
LINE
  5
90
330
1F
100
AcDbEntity
  8
0
 62
     7
100
AcDbLine
 10
39.75159400000001
 20
-102.691267
 30
0.0
 11
40.57899800000001
 21
-101.863857
 31
0.0
  0
LINE
  5
91
330
1F
100
AcDbEntity
  8
0
 62
     7
100
AcDbLine
 10
39.57902899999999
 20
-101.067777
 30
0.0
 11
40.57899899999998
 21
-100.067807
 31
0.0
  0
LINE
  5
92
330
1F
100
AcDbEntity
  8
0
 62
     7
100
AcDbLine
 10
39.57902999999999
 20
-99.271727
 30
0.0
 11
40.57899900000001
 21
-98.27174700000001
 31
0.0
  0
LINE
  5
93
330
1F
100
AcDbEntity
  8
0
 62
     7
100
AcDbLine
 10
39.57903
 20
-97.47566700000004
 30
0.0
 11
40.57900000000001
 21
-96.47569700000003
 31
0.0
  0
LINE
  5
94
330
1F
100
AcDbEntity
  8
0
 62
     7
100
AcDbLine
 10
39.57903099999999
 20
-95.67961700000004
 30
0.0
 11
40.57900100000001
 21
-94.67964700000005
 31
0.0
  0
LINE
  5
95
330
1F
100
AcDbEntity
  8
0
 62
     7
100
AcDbLine
 10
39.57903099999999
 20
-93.883567
 30
0.0
 11
40.57900099999998
 21
-92.88358700000003
 31
0.0
  0
LINE
  5
96
330
1F
100
AcDbEntity
  8
0
 62
     7
100
AcDbLine
 10
39.57903200000004
 20
-92.08750700000007
 30
0.0
 11
40.57900200000003
 21
-91.08753700000005
 31
0.0
  0
LINE
  5
97
330
1F
100
AcDbEntity
  8
0
 62
     7
100
AcDbLine
 10
39.57903199999998
 20
-90.29145699999998
 30
0.0
 11
40.57900199999996
 21
-89.29148700000002
 31
0.0
  0
LINE
  5
98
330
1F
100
AcDbEntity
  8
0
 62
     7
100
AcDbLine
 10
39.57903300000002
 20
-88.49540700000003
 30
0.0
 11
40.579003
 21
-87.49542700000004
 31
0.0
  0
LINE
  5
99
330
1F
100
AcDbEntity
  8
0
 62
     7
100
AcDbLine
 10
39.57903399999999
 20
-86.69934699999999
 30
0.0
 11
40.57900299999997
 21
-85.69937699999997
 31
0.0
  0
LINE
  5
9A
330
1F
100
AcDbEntity
  8
0
 62
     7
100
AcDbLine
 10
39.57903400000001
 20
-84.90329700000001
 30
0.0
 11
40.579004
 21
-83.90332700000002
 31
0.0
  0
LINE
  5
9B
330
1F
100
AcDbEntity
  8
0
 62
     7
100
AcDbLine
 10
39.57903499999999
 20
-83.107237
 30
0.0
 11
40.57900500000001
 21
-82.10726700000001
 31
0.0
  0
LINE
  5
9C
330
1F
100
AcDbEntity
  8
0
 62
     7
100
AcDbLine
 10
39.57903499999998
 20
-81.31118700000002
 30
0.0
 11
40.57900499999998
 21
-80.311217
 31
0.0
  0
LINE
  5
9D
330
1F
100
AcDbEntity
  8
0
 62
     7
100
AcDbLine
 10
39.57903599999999
 20
-79.51513700000004
 30
0.0
 11
40.57900599999999
 21
-78.51516700000002
 31
0.0
  0
LINE
  5
9E
330
1F
100
AcDbEntity
  8
0
 62
     7
100
AcDbLine
 10
40.579005
 20
-79.48865700000002
 30
0.0
 11
39.579036
 21
-78.48868700000003
 31
0.0
  0
LINE
  5
9F
330
1F
100
AcDbEntity
  8
0
 62
     7
100
AcDbLine
 10
40.579005
 20
-81.284707
 30
0.0
 11
39.57903599999997
 21
-80.28473700000001
 31
0.0
  0
LINE
  5
A0
330
1F
100
AcDbEntity
  8
0
 62
     7
100
AcDbLine
 10
40.579004
 20
-83.08075700000001
 30
0.0
 11
39.57903500000001
 21
-82.08078699999999
 31
0.0
  0
LINE
  5
A1
330
1F
100
AcDbEntity
  8
0
 62
     7
100
AcDbLine
 10
40.57900400000003
 20
-84.87680700000001
 30
0.0
 11
39.57903400000004
 21
-83.87683700000002
 31
0.0
  0
LINE
  5
A2
330
1F
100
AcDbEntity
  8
0
 62
     7
100
AcDbLine
 10
40.579003
 20
-86.67285700000005
 30
0.0
 11
39.57903399999998
 21
-85.67288700000003
 31
0.0
  0
LINE
  5
A3
330
1F
100
AcDbEntity
  8
0
 62
     7
100
AcDbLine
 10
40.579003
 20
-88.468907
 30
0.0
 11
39.57903300000001
 21
-87.46893700000001
 31
0.0
  0
LINE
  5
A4
330
1F
100
AcDbEntity
  8
0
 62
     7
100
AcDbLine
 10
40.57900200000002
 20
-90.26494700000004
 30
0.0
 11
39.57903300000002
 21
-89.26498700000005
 31
0.0
  0
LINE
  5
A5
330
1F
100
AcDbEntity
  8
0
 62
     7
100
AcDbLine
 10
40.57900099999998
 20
-92.06099699999999
 30
0.0
 11
39.57903199999998
 21
-91.061037
 31
0.0
  0
LINE
  5
A6
330
1F
100
AcDbEntity
  8
0
 62
     7
100
AcDbLine
 10
40.57900100000001
 20
-93.85704700000002
 30
0.0
 11
39.57903200000001
 21
-92.85708700000004
 31
0.0
  0
LINE
  5
A7
330
1F
100
AcDbEntity
  8
0
 62
     7
100
AcDbLine
 10
40.57899999999998
 20
-95.65309699999997
 30
0.0
 11
39.57903099999999
 21
-94.65312699999998
 31
0.0
  0
LINE
  5
A8
330
1F
100
AcDbEntity
  8
0
 62
     7
100
AcDbLine
 10
40.57900000000001
 20
-97.44914700000004
 30
0.0
 11
39.57903099999999
 21
-96.44917700000002
 31
0.0
  0
LINE
  5
A9
330
1F
100
AcDbEntity
  8
0
 62
     7
100
AcDbLine
 10
40.57899900000002
 20
-99.24519700000002
 30
0.0
 11
39.57903
 21
-98.245227
 31
0.0
  0
LINE
  5
AA
330
1F
100
AcDbEntity
  8
0
 62
     7
100
AcDbLine
 10
40.57899900000001
 20
-101.041247
 30
0.0
 11
39.57902900000002
 21
-100.041277
 31
0.0
  0
LINE
  5
AB
330
1F
100
AcDbEntity
  8
0
 62
     7
100
AcDbLine
 10
40.43296899999999
 20
-102.691267
 30
0.0
 11
39.57902899999999
 21
-101.837327
 31
0.0
  0
LINE
  5
AC
330
1F
100
AcDbEntity
  8
0
 62
     7
100
AcDbLine
 10
39.579036
 20
-199.8506860000001
 30
0.0
 11
40.57900500000001
 21
-198.850715
 31
0.0
  0
LINE
  5
AD
330
1F
100
AcDbEntity
  8
0
 62
     7
100
AcDbLine
 10
39.579036
 20
-198.054634
 30
0.0
 11
40.57900500000001
 21
-197.054663
 31
0.0
  0
LINE
  5
AE
330
1F
100
AcDbEntity
  8
0
 62
     7
100
AcDbLine
 10
39.57903499999999
 20
-196.258582
 30
0.0
 11
40.579004
 21
-195.25861
 31
0.0
  0
LINE
  5
AF
330
1F
100
AcDbEntity
  8
0
 62
     7
100
AcDbLine
 10
39.57903400000002
 20
-194.462529
 30
0.0
 11
40.57900400000001
 21
-193.462558
 31
0.0
  0
LINE
  5
B0
330
1F
100
AcDbEntity
  8
0
 62
     7
100
AcDbLine
 10
39.57903400000001
 20
-192.666477
 30
0.0
 11
40.579003
 21
-191.666505
 31
0.0
  0
LINE
  5
B1
330
1F
100
AcDbEntity
  8
0
 62
     7
100
AcDbLine
 10
39.579033
 20
-190.870427
 30
0.0
 11
40.57900299999999
 21
-189.870457
 31
0.0
  0
LINE
  5
B2
330
1F
100
AcDbEntity
  8
0
 62
     7
100
AcDbLine
 10
39.57903300000001
 20
-189.0743670000001
 30
0.0
 11
40.579002
 21
-188.074397
 31
0.0
  0
LINE
  5
B3
330
1F
100
AcDbEntity
  8
0
 62
     7
100
AcDbLine
 10
39.57903200000001
 20
-187.278317
 30
0.0
 11
40.57900100000001
 21
-186.2783470000001
 31
0.0
  0
LINE
  5
B4
330
1F
100
AcDbEntity
  8
0
 62
     7
100
AcDbLine
 10
39.579032
 20
-185.482267
 30
0.0
 11
40.57900099999999
 21
-184.482297
 31
0.0
  0
LINE
  5
B5
330
1F
100
AcDbEntity
  8
0
 62
     7
100
AcDbLine
 10
39.57903099999999
 20
-183.686217
 30
0.0
 11
40.57899999999999
 21
-182.686247
 31
0.0
  0
LINE
  5
B6
330
1F
100
AcDbEntity
  8
0
 62
     7
100
AcDbLine
 10
39.57903099999997
 20
-181.890157
 30
0.0
 11
40.57899999999999
 21
-180.890187
 31
0.0
  0
LINE
  5
B7
330
1F
100
AcDbEntity
  8
0
 62
     7
100
AcDbLine
 10
39.57902999999999
 20
-180.094107
 30
0.0
 11
40.578999
 21
-179.094137
 31
0.0
  0
LINE
  5
B8
330
1F
100
AcDbEntity
  8
0
 62
     7
100
AcDbLine
 10
39.57902899999999
 20
-178.298057
 30
0.0
 11
40.578999
 21
-177.298087
 31
0.0
  0
LINE
  5
B9
330
1F
100
AcDbEntity
  8
0
 62
     7
100
AcDbLine
 10
39.57902900000002
 20
-176.5020070000001
 30
0.0
 11
40.39657200000002
 21
-175.6844570000001
 31
0.0
  0
LINE
  5
BA
330
1F
100
AcDbEntity
  8
0
 62
     7
100
AcDbLine
 10
40.578998
 20
-176.475317
 30
0.0
 11
39.78813600000001
 21
-175.684457
 31
0.0
  0
LINE
  5
BB
330
1F
100
AcDbEntity
  8
0
 62
     7
100
AcDbLine
 10
40.57899900000002
 20
-178.2713670000001
 30
0.0
 11
39.57902900000002
 21
-177.2714070000001
 31
0.0
  0
LINE
  5
BC
330
1F
100
AcDbEntity
  8
0
 62
     7
100
AcDbLine
 10
40.57899900000001
 20
-180.067417
 30
0.0
 11
39.57902999999999
 21
-179.067457
 31
0.0
  0
LINE
  5
BD
330
1F
100
AcDbEntity
  8
0
 62
     7
100
AcDbLine
 10
40.57900000000002
 20
-181.863467
 30
0.0
 11
39.57903
 21
-180.863507
 31
0.0
  0
LINE
  5
BE
330
1F
100
AcDbEntity
  8
0
 62
     7
100
AcDbLine
 10
40.57900100000003
 20
-183.6595170000001
 30
0.0
 11
39.579031
 21
-182.6595570000001
 31
0.0
  0
LINE
  5
BF
330
1F
100
AcDbEntity
  8
0
 62
     7
100
AcDbLine
 10
40.57900100000001
 20
-185.455567
 30
0.0
 11
39.579031
 21
-184.455607
 31
0.0
  0
LINE
  5
C0
330
1F
100
AcDbEntity
  8
0
 62
     7
100
AcDbLine
 10
40.57900200000002
 20
-187.251617
 30
0.0
 11
39.57903200000001
 21
-186.251657
 31
0.0
  0
LINE
  5
C1
330
1F
100
AcDbEntity
  8
0
 62
     7
100
AcDbLine
 10
40.579002
 20
-189.0476670000001
 30
0.0
 11
39.57903200000004
 21
-188.0477070000001
 31
0.0
  0
LINE
  5
C2
330
1F
100
AcDbEntity
  8
0
 62
     7
100
AcDbLine
 10
40.57900299999997
 20
-190.843717
 30
0.0
 11
39.57903299999998
 21
-189.843757
 31
0.0
  0
LINE
  5
C3
330
1F
100
AcDbEntity
  8
0
 62
     7
100
AcDbLine
 10
40.57900300000003
 20
-192.6397700000001
 30
0.0
 11
39.57903400000001
 21
-191.639803
 31
0.0
  0
LINE
  5
C4
330
1F
100
AcDbEntity
  8
0
 62
     7
100
AcDbLine
 10
40.57900400000001
 20
-194.43582
 30
0.0
 11
39.57903400000001
 21
-193.435853
 31
0.0
  0
LINE
  5
C5
330
1F
100
AcDbEntity
  8
0
 62
     7
100
AcDbLine
 10
40.57900500000001
 20
-196.23187
 30
0.0
 11
39.57903500000001
 21
-195.2319030000001
 31
0.0
  0
LINE
  5
C6
330
1F
100
AcDbEntity
  8
0
 62
     7
100
AcDbLine
 10
40.57900500000001
 20
-198.0279200000001
 30
0.0
 11
39.57903500000001
 21
-197.0279530000001
 31
0.0
  0
LINE
  5
C7
330
1F
100
AcDbEntity
  8
0
 62
     7
100
AcDbLine
 10
40.57900600000002
 20
-199.82397
 30
0.0
 11
39.57903600000002
 21
-198.8240020000001
 31
0.0
  0
LINE
  5
C8
330
1F
100
AcDbEntity
  8
0
 62
     7
100
AcDbLine
 10
-142.637158
 20
-93.47786700000003
 30
0.0
 11
-97.79584800000001
 21
-93.47786700000003
 31
0.0
  0
LINE
  5
C9
330
1F
100
AcDbEntity
  8
0
 62
     7
100
AcDbLine
 10
-140.836008
 20
-91.12044700000004
 30
0.0
 11
-140.836008
 21
-95.83522700000003
 31
0.0
  0
LINE
  5
CA
330
1F
100
AcDbEntity
  8
0
 62
     7
100
AcDbLine
 10
-140.135998
 20
-90.93287700000005
 30
0.0
 11
-140.135998
 21
-96.02285700000005
 31
0.0
  0
LINE
  5
CB
330
1F
100
AcDbEntity
  8
0
 62
     7
100
AcDbLine
 10
-140.835998
 20
-91.12048700000003
 30
0.0
 11
-140.1359880000001
 21
-90.93291700000006
 31
0.0
  0
LINE
  5
CC
330
1F
100
AcDbEntity
  8
0
 62
     7
100
AcDbLine
 10
-140.135998
 20
-90.93287700000005
 30
0.0
 11
-138.385998
 21
-90.93287700000005
 31
0.0
  0
LINE
  5
CD
330
1F
100
AcDbEntity
  8
0
 62
     7
100
AcDbLine
 10
-140.8359679999999
 20
-95.83523700000006
 30
0.0
 11
-140.135988
 21
-96.02280700000003
 31
0.0
  0
LINE
  5
CE
330
1F
100
AcDbEntity
  8
0
 62
     7
100
AcDbLine
 10
-140.135998
 20
-96.02285700000005
 30
0.0
 11
-138.385998
 21
-96.02285700000005
 31
0.0
  0
LINE
  5
CF
330
1F
100
AcDbEntity
  8
0
 62
     7
100
AcDbLine
 10
-138.385998
 20
-87.87786700000004
 30
0.0
 11
-138.385998
 21
-99.07787700000003
 31
0.0
  0
LINE
  5
D0
330
1F
100
AcDbEntity
  8
0
 62
     7
100
AcDbLine
 10
-138.385998
 20
-87.87786700000004
 30
0.0
 11
-137.586008
 21
-87.87786700000004
 31
0.0
  0
LINE
  5
D1
330
1F
100
AcDbEntity
  8
0
 62
     7
100
AcDbLine
 10
-137.586008
 20
-86.97785700000003
 30
0.0
 11
-137.586008
 21
-99.97785700000003
 31
0.0
  0
LINE
  5
D2
330
1F
100
AcDbEntity
  8
0
 62
     7
100
AcDbLine
 10
-135.586008
 20
-86.97785700000003
 30
0.0
 11
-137.586008
 21
-86.97785700000003
 31
0.0
  0
LINE
  5
D3
330
1F
100
AcDbEntity
  8
0
 62
     7
100
AcDbLine
 10
-135.586008
 20
-85.97786700000003
 30
0.0
 11
-135.586008
 21
-100.977867
 31
0.0
  0
LINE
  5
D4
330
1F
100
AcDbEntity
  8
0
 62
     7
100
AcDbLine
 10
-133.585978
 20
-85.97785700000003
 30
0.0
 11
-135.586008
 21
-85.97785700000003
 31
0.0
  0
LINE
  5
D5
330
1F
100
AcDbEntity
  8
0
 62
     7
100
AcDbLine
 10
-124.355988
 20
-88.39786700000002
 30
0.0
 11
-133.285978
 21
-88.39786700000002
 31
0.0
  0
LINE
  5
D6
330
1F
100
AcDbEntity
  8
0
 62
     7
100
AcDbLine
 10
-133.285978
 20
-88.39787699999999
 30
0.0
 11
-133.585988
 21
-88.69786700000003
 31
0.0
  0
LINE
  5
D7
330
1F
100
AcDbEntity
  8
0
 62
     7
100
AcDbLine
 10
-133.585978
 20
-85.97785700000003
 30
0.0
 11
-133.585978
 21
-100.977867
 31
0.0
  0
LINE
  5
D8
330
1F
100
AcDbEntity
  8
0
 62
     7
100
AcDbLine
 10
-124.355988
 20
-88.39786700000002
 30
0.0
 11
-124.0559680000001
 21
-88.69788700000004
 31
0.0
  0
LINE
  5
D9
330
1F
100
AcDbEntity
  8
0
 62
     7
100
AcDbLine
 10
-124.055978
 20
-100.977867
 30
0.0
 11
-124.055978
 21
-85.97785700000003
 31
0.0
  0
LINE
  5
DA
330
1F
100
AcDbEntity
  8
0
 62
     7
100
AcDbLine
 10
-133.285978
 20
-98.55787700000005
 30
0.0
 11
-124.355968
 21
-98.55787700000005
 31
0.0
  0
LINE
  5
DB
330
1F
100
AcDbEntity
  8
0
 62
     7
100
AcDbLine
 10
-133.585968
 20
-98.25787700000001
 30
0.0
 11
-133.285978
 21
-98.55787700000005
 31
0.0
  0
LINE
  5
DC
330
1F
100
AcDbEntity
  8
0
 62
     7
100
AcDbLine
 10
-138.385998
 20
-99.07787700000003
 30
0.0
 11
-137.586008
 21
-99.07787700000003
 31
0.0
  0
LINE
  5
DD
330
1F
100
AcDbEntity
  8
0
 62
     7
100
AcDbLine
 10
-135.586008
 20
-99.97785700000003
 30
0.0
 11
-137.586008
 21
-99.97785700000003
 31
0.0
  0
LINE
  5
DE
330
1F
100
AcDbEntity
  8
0
 62
     7
100
AcDbLine
 10
-133.585978
 20
-100.977867
 30
0.0
 11
-135.586008
 21
-100.977867
 31
0.0
  0
LINE
  5
DF
330
1F
100
AcDbEntity
  8
0
 62
     7
100
AcDbLine
 10
-121.913498
 20
-85.97785700000003
 30
0.0
 11
-124.055978
 21
-85.97785700000003
 31
0.0
  0
LINE
  5
E0
330
1F
100
AcDbEntity
  8
0
 62
     7
100
AcDbLine
 10
-121.913498
 20
-85.97785700000003
 30
0.0
 11
-121.913498
 21
-100.977867
 31
0.0
  0
LINE
  5
E1
330
1F
100
AcDbEntity
  8
0
 62
     7
100
AcDbLine
 10
-121.955578
 20
-100.977867
 30
0.0
 11
-124.055978
 21
-100.977867
 31
0.0
  0
LINE
  5
E2
330
1F
100
AcDbEntity
  8
0
 62
     7
100
AcDbLine
 10
-119.771008
 20
-86.97785700000003
 30
0.0
 11
-119.771008
 21
-99.97785700000003
 31
0.0
  0
LINE
  5
E3
330
1F
100
AcDbEntity
  8
0
 62
     7
100
AcDbLine
 10
-121.913498
 20
-99.97785700000003
 30
0.0
 11
-117.628488
 21
-99.97785700000003
 31
0.0
  0
LINE
  5
E4
330
1F
100
AcDbEntity
  8
0
 62
     7
100
AcDbLine
 10
-117.628488
 20
-85.97785700000003
 30
0.0
 11
-117.628488
 21
-100.977867
 31
0.0
  0
LINE
  5
E5
330
1F
100
AcDbEntity
  8
0
 62
     7
100
AcDbLine
 10
-115.486008
 20
-100.977867
 30
0.0
 11
-115.486008
 21
-85.97785700000003
 31
0.0
  0
LINE
  5
E6
330
1F
100
AcDbEntity
  8
0
 62
     7
100
AcDbLine
 10
-117.628488
 20
-100.977867
 30
0.0
 11
-115.486008
 21
-100.977867
 31
0.0
  0
LINE
  5
E7
330
1F
100
AcDbEntity
  8
0
 62
     7
100
AcDbLine
 10
-121.913498
 20
-86.97785700000003
 30
0.0
 11
-117.628488
 21
-86.97785700000003
 31
0.0
  0
LINE
  5
E8
330
1F
100
AcDbEntity
  8
0
 62
     7
100
AcDbLine
 10
-117.628488
 20
-85.97785700000003
 30
0.0
 11
-115.486008
 21
-85.97785700000003
 31
0.0
  0
LINE
  5
E9
330
1F
100
AcDbEntity
  8
0
 62
     7
100
AcDbLine
 10
-115.185998
 20
-88.39786700000002
 30
0.0
 11
-106.256008
 21
-88.39786700000002
 31
0.0
  0
LINE
  5
EA
330
1F
100
AcDbEntity
  8
0
 62
     7
100
AcDbLine
 10
-115.185968
 20
-88.39789700000003
 30
0.0
 11
-115.485968
 21
-88.69790700000007
 31
0.0
  0
LINE
  5
EB
330
1F
100
AcDbEntity
  8
0
 62
     7
100
AcDbLine
 10
-106.2560080000001
 20
-88.39786699999996
 30
0.0
 11
-105.955998
 21
-88.69788699999998
 31
0.0
  0
LINE
  5
EC
330
1F
100
AcDbEntity
  8
0
 62
     7
100
AcDbLine
 10
-105.955978
 20
-85.97785700000003
 30
0.0
 11
-103.955988
 21
-85.97785700000003
 31
0.0
  0
LINE
  5
ED
330
1F
100
AcDbEntity
  8
0
 62
     7
100
AcDbLine
 10
-103.955988
 20
-86.97785700000003
 30
0.0
 11
-101.956008
 21
-86.97785700000003
 31
0.0
  0
LINE
  5
EE
330
1F
100
AcDbEntity
  8
0
 62
     7
100
AcDbLine
 10
-101.956008
 20
-90.57787700000003
 30
0.0
 11
-101.633058
 21
-90.57787700000003
 31
0.0
  0
LINE
  5
EF
330
1F
100
AcDbEntity
  8
0
 62
     7
100
AcDbLine
 10
-101.956008
 20
-96.37786700000004
 30
0.0
 11
-101.633058
 21
-96.37786700000004
 31
0.0
  0
LINE
  5
F0
330
1F
100
AcDbEntity
  8
0
 62
     7
100
AcDbLine
 10
-101.956008
 20
-99.97785700000003
 30
0.0
 11
-101.956008
 21
-86.97785700000003
 31
0.0
  0
LINE
  5
F1
330
1F
100
AcDbEntity
  8
0
 62
     7
100
AcDbLine
 10
-103.956008
 20
-100.977867
 30
0.0
 11
-103.956008
 21
-85.97785700000003
 31
0.0
  0
LINE
  5
F2
330
1F
100
AcDbEntity
  8
0
 62
     7
100
AcDbLine
 10
-105.956008
 20
-100.977867
 30
0.0
 11
-105.956008
 21
-85.97785700000003
 31
0.0
  0
LINE
  5
F3
330
1F
100
AcDbEntity
  8
0
 62
     7
100
AcDbLine
 10
-106.255998
 20
-98.55787700000005
 30
0.0
 11
-115.185998
 21
-98.55787700000005
 31
0.0
  0
LINE
  5
F4
330
1F
100
AcDbEntity
  8
0
 62
     7
100
AcDbLine
 10
-115.4859979999999
 20
-98.25787700000009
 30
0.0
 11
-115.1859979999999
 21
-98.55787700000008
 31
0.0
  0
LINE
  5
F5
330
1F
100
AcDbEntity
  8
0
 62
     7
100
AcDbLine
 10
-105.956018
 20
-98.25787700000004
 30
0.0
 11
-106.256008
 21
-98.55788699999999
 31
0.0
  0
LINE
  5
F6
330
1F
100
AcDbEntity
  8
0
 62
     7
100
AcDbLine
 10
-105.955978
 20
-100.977867
 30
0.0
 11
-103.955988
 21
-100.977867
 31
0.0
  0
LINE
  5
F7
330
1F
100
AcDbEntity
  8
0
 62
     7
100
AcDbLine
 10
-103.955988
 20
-99.97785700000003
 30
0.0
 11
-101.956008
 21
-99.97785700000003
 31
0.0
  0
LINE
  5
F8
330
1F
100
AcDbEntity
  8
0
 62
     7
100
AcDbLine
 10
-124.056018
 20
-98.25787700000004
 30
0.0
 11
-124.356018
 21
-98.55787700000005
 31
0.0
  0
LINE
  5
F9
330
1F
100
AcDbEntity
  8
0
 62
     7
100
AcDbLine
 10
-160.271008
 20
-197.18787
 30
0.0
 11
-160.271008
 21
-192.1878620000001
 31
0.0
  0
LINE
  5
FA
330
1F
100
AcDbEntity
  8
0
 62
     7
100
AcDbLine
 10
-158.735458
 20
-198.723438
 30
0.0
 11
-160.806498
 21
-196.652401
 31
0.0
  0
LINE
  5
FB
330
1F
100
AcDbEntity
  8
0
 62
     7
100
AcDbLine
 10
-158.199928
 20
-199.1878620000001
 30
0.0
 11
-146.271008
 21
-199.1878620000001
 31
0.0
  0
LINE
  5
FC
330
1F
100
AcDbEntity
  8
0
 62
     7
100
AcDbLine
 10
-153.270948
 20
-180.2571170000001
 30
0.0
 11
-153.270948
 21
-204.843853
 31
0.0
  0
LINE
  5
FD
330
1F
100
AcDbEntity
  8
0
 62
     7
100
AcDbLine
 10
-155.199928
 20
-200.18787
 30
0.0
 11
-84.34204800000001
 21
-200.18787
 31
0.0
  0
LINE
  5
FE
330
1F
100
AcDbEntity
  8
0
 62
     7
100
AcDbLine
 10
-165.150948
 20
-192.1878620000001
 30
0.0
 11
-141.577068
 21
-192.1878620000001
 31
0.0
  0
LINE
  5
FF
330
1F
100
AcDbEntity
  8
0
 62
     7
100
AcDbLine
 10
-146.271008
 20
-199.1878620000001
 30
0.0
 11
-146.271008
 21
-192.1878620000001
 31
0.0
  0
LINE
  5
100
330
1F
100
AcDbEntity
  8
0
 62
     7
100
AcDbLine
 10
-81.34204800000001
 20
-199.1878620000001
 30
0.0
 11
-93.27097799999999
 21
-199.1878620000001
 31
0.0
  0
LINE
  5
101
330
1F
100
AcDbEntity
  8
0
 62
     7
100
AcDbLine
 10
-78.73544799999996
 20
-196.6522860000001
 30
0.0
 11
-80.80651799999995
 21
-198.7233540000001
 31
0.0
  0
LINE
  5
102
330
1F
100
AcDbEntity
  8
0
 62
     7
100
AcDbLine
 10
-79.271008
 20
-197.18787
 30
0.0
 11
-79.271008
 21
-192.1878620000001
 31
0.0
  0
LINE
  5
103
330
1F
100
AcDbEntity
  8
0
 62
     7
100
AcDbLine
 10
-98.26688799999999
 20
-192.1878620000001
 30
0.0
 11
-74.69298799999999
 21
-192.1878620000001
 31
0.0
  0
LINE
  5
104
330
1F
100
AcDbEntity
  8
0
 62
     7
100
AcDbLine
 10
-86.271008
 20
-180.2571170000001
 30
0.0
 11
-86.271008
 21
-204.843853
 31
0.0
  0
LINE
  5
105
330
1F
100
AcDbEntity
  8
0
 62
     7
100
AcDbLine
 10
-93.27097799999999
 20
-199.1878620000001
 30
0.0
 11
-93.27097799999999
 21
-192.1878620000001
 31
0.0
  0
LINE
  5
106
330
1F
100
AcDbEntity
  8
0
 62
     7
100
AcDbLine
 10
-77.271008
 20
-139.187867
 30
0.0
 11
-77.271008
 21
-193.116794
 31
0.0
  0
LINE
  5
107
330
1F
100
AcDbEntity
  8
0
 62
     7
100
AcDbLine
 10
-162.271008
 20
-139.187867
 30
0.0
 11
-162.271008
 21
-193.116794
 31
0.0
  0
LINE
  5
108
330
1F
100
AcDbEntity
  8
0
 62
     7
100
AcDbLine
 10
-162.271008
 20
-85.25892700000003
 30
0.0
 11
-162.271008
 21
-104.187877
 31
0.0
  0
LINE
  5
109
330
1F
100
AcDbEntity
  8
0
 62
     7
100
AcDbLine
 10
-160.8066480000001
 20
-81.72323699999998
 30
0.0
 11
-158.735578
 21
-79.65216699999996
 31
0.0
  0
LINE
  5
10A
330
1F
100
AcDbEntity
  8
0
 62
     7
100
AcDbLine
 10
-158.199898
 20
-79.18786700000004
 30
0.0
 11
-146.270978
 21
-79.18786700000004
 31
0.0
  0
LINE
  5
10B
330
1F
100
AcDbEntity
  8
0
 62
     7
100
AcDbLine
 10
-160.271008
 20
-81.18784700000003
 30
0.0
 11
-160.271008
 21
-86.18787700000004
 31
0.0
  0
LINE
  5
10C
330
1F
100
AcDbEntity
  8
0
 62
     7
100
AcDbLine
 10
-166.424388
 20
-86.18787700000004
 30
0.0
 11
-140.844978
 21
-86.18787700000004
 31
0.0
  0
LINE
  5
10D
330
1F
100
AcDbEntity
  8
0
 62
     7
100
AcDbLine
 10
-146.270978
 20
-79.18786700000004
 30
0.0
 11
-146.270978
 21
-86.18787700000004
 31
0.0
  0
LINE
  5
10E
330
1F
100
AcDbEntity
  8
0
 62
     7
100
AcDbLine
 10
-153.271008
 20
-74.69339700000003
 30
0.0
 11
-153.271008
 21
-96.11231700000005
 31
0.0
  0
LINE
  5
10F
330
1F
100
AcDbEntity
  8
0
 62
     7
100
AcDbLine
 10
-155.199928
 20
-78.18784700000003
 30
0.0
 11
-84.34204800000001
 21
-78.18784700000003
 31
0.0
  0
LINE
  5
110
330
1F
100
AcDbEntity
  8
0
 62
     7
100
AcDbLine
 10
-143.270978
 20
-85.18786700000004
 30
0.0
 11
-143.270978
 21
-104.187877
 31
0.0
  0
LINE
  5
111
330
1F
100
AcDbEntity
  8
0
 62
     7
100
AcDbLine
 10
-141.271008
 20
-83.18787700000004
 30
0.0
 11
-97.27098799999999
 21
-83.18787700000004
 31
0.0
  0
LINE
  5
112
330
1F
100
AcDbEntity
  8
0
 62
     7
100
AcDbLine
 10
-77.271008
 20
-85.25892700000003
 30
0.0
 11
-77.271008
 21
-104.187877
 31
0.0
  0
LINE
  5
113
330
1F
100
AcDbEntity
  8
0
 62
     7
100
AcDbLine
 10
-80.271008
 20
-102.687877
 30
0.0
 11
-77.271008
 21
-102.687877
 31
0.0
  0
LINE
  5
114
330
1F
100
AcDbEntity
  8
0
 62
     7
100
AcDbLine
 10
-80.770848
 20
-98.18784700000006
 30
0.0
 11
-80.10417799999999
 21
-104.187857
 31
0.0
  0
LINE
  5
115
330
1F
100
AcDbEntity
  8
0
 62
     7
100
AcDbLine
 10
-84.771008
 20
-98.18787700000004
 30
0.0
 11
-80.77098799999999
 21
-98.18787700000004
 31
0.0
  0
LINE
  5
116
330
1F
100
AcDbEntity
  8
0
 62
     7
100
AcDbLine
 10
-84.77076799999998
 20
-98.18789700000002
 30
0.0
 11
-85.43743799999996
 21
-104.1878770000001
 31
0.0
  0
LINE
  5
117
330
1F
100
AcDbEntity
  8
0
 62
     7
100
AcDbLine
 10
-90.27097799999999
 20
-102.687877
 30
0.0
 11
-85.27098799999999
 21
-102.687877
 31
0.0
  0
LINE
  5
118
330
1F
100
AcDbEntity
  8
0
 62
     7
100
AcDbLine
 10
-90.27097799999999
 20
-94.25011700000005
 30
0.0
 11
-90.27097799999999
 21
-104.187877
 31
0.0
  0
LINE
  5
119
330
1F
100
AcDbEntity
  8
0
 62
     7
100
AcDbLine
 10
-95.271008
 20
-85.18786700000004
 30
0.0
 11
-95.271008
 21
-86.18787700000004
 31
0.0
  0
LINE
  5
11A
330
1F
100
AcDbEntity
  8
0
 62
     7
100
AcDbLine
 10
-96.77439799999999
 20
-86.18787700000004
 30
0.0
 11
-73.968638
 21
-86.18787700000004
 31
0.0
  0
LINE
  5
11B
330
1F
100
AcDbEntity
  8
0
 62
     7
100
AcDbLine
 10
-86.271008
 20
-74.38520700000004
 30
0.0
 11
-86.271008
 21
-96.57459700000004
 31
0.0
  0
LINE
  5
11C
330
1F
100
AcDbEntity
  8
0
 62
     7
100
AcDbLine
 10
-79.271008
 20
-81.18784700000003
 30
0.0
 11
-79.271008
 21
-86.18787700000004
 31
0.0
  0
LINE
  5
11D
330
1F
100
AcDbEntity
  8
0
 62
     7
100
AcDbLine
 10
-81.34206799999998
 20
-79.18786700000004
 30
0.0
 11
-93.27097799999999
 21
-79.18786700000004
 31
0.0
  0
LINE
  5
11E
330
1F
100
AcDbEntity
  8
0
 62
     7
100
AcDbLine
 10
-93.27097799999999
 20
-79.18786700000004
 30
0.0
 11
-93.27097799999999
 21
-86.18787700000004
 31
0.0
  0
LINE
  5
11F
330
1F
100
AcDbEntity
  8
0
 62
     7
100
AcDbLine
 10
-80.80647799999997
 20
-79.65233700000007
 30
0.0
 11
-78.73543799999999
 21
-81.72337700000003
 31
0.0
  0
LINE
  5
120
330
1F
100
AcDbEntity
  8
0
 62
     7
100
AcDbLine
 10
-146.570978
 20
-95.68786700000004
 30
0.0
 11
-146.570978
 21
-104.187877
 31
0.0
  0
LINE
  5
121
330
1F
100
AcDbEntity
  8
0
 62
     7
100
AcDbLine
 10
-156.071008
 20
-95.68786700000004
 30
0.0
 11
-156.071008
 21
-104.187877
 31
0.0
  0
LINE
  5
122
330
1F
100
AcDbEntity
  8
0
 62
     7
100
AcDbLine
 10
-156.071008
 20
-95.68786700000004
 30
0.0
 11
-146.570978
 21
-95.68786700000004
 31
0.0
  0
LINE
  5
123
330
1F
100
AcDbEntity
  8
0
 62
     7
100
AcDbLine
 10
-86.92097100000001
 20
-132.687882
 30
0.0
 11
-69.920987
 21
-132.687882
 31
0.0
  0
LINE
  5
124
330
1F
100
AcDbEntity
  8
0
 62
     7
100
AcDbLine
 10
-86.92097100000001
 20
-104.187882
 30
0.0
 11
-72.42100199999999
 21
-104.187882
 31
0.0
  0
LINE
  5
125
330
1F
100
AcDbEntity
  8
0
 62
     7
100
AcDbLine
 10
-152.621045
 20
-104.187882
 30
0.0
 11
-167.121014
 21
-104.187882
 31
0.0
  0
LINE
  5
126
330
1F
100
AcDbEntity
  8
0
 62
     7
100
AcDbLine
 10
-144.620984
 20
-132.687882
 30
0.0
 11
-124.620999
 21
-132.687882
 31
0.0
  0
LINE
  5
127
330
1F
100
AcDbEntity
  8
0
 62
     7
100
AcDbLine
 10
-114.921002
 20
-98.55786200000003
 30
0.0
 11
-106.521008
 21
-98.55786200000003
 31
0.0
  0
LINE
  5
128
330
1F
100
AcDbEntity
  8
0
 62
     7
100
AcDbLine
 10
-106.521008
 20
-98.55786200000003
 30
0.0
 11
-106.521008
 21
-103.437882
 31
0.0
  0
LINE
  5
129
330
1F
100
AcDbEntity
  8
0
 62
     7
100
AcDbLine
 10
-106.521008
 20
-103.437882
 30
0.0
 11
-96.27097699999999
 21
-103.437882
 31
0.0
  0
LINE
  5
12A
330
1F
100
AcDbEntity
  8
0
 62
     7
100
AcDbLine
 10
-96.27097699999999
 20
-103.437882
 30
0.0
 11
-96.27097699999999
 21
-104.187882
 31
0.0
  0
LINE
  5
12B
330
1F
100
AcDbEntity
  8
0
 62
     7
100
AcDbLine
 10
-96.27097699999999
 20
-104.187882
 30
0.0
 11
-94.92100199999999
 21
-104.187882
 31
0.0
  0
LINE
  5
12C
330
1F
100
AcDbEntity
  8
0
 62
     7
100
AcDbLine
 10
-72.42098300000004
 20
-104.187871
 30
0.0
 11
-69.92099000000002
 21
-106.687863
 31
0.0
  0
LINE
  5
12D
330
1F
100
AcDbEntity
  8
0
 62
     7
100
AcDbLine
 10
-69.92100199999999
 20
-106.687852
 30
0.0
 11
-69.92100199999999
 21
-132.687882
 31
0.0
  0
LINE
  5
12E
330
1F
100
AcDbEntity
  8
0
 62
     7
100
AcDbLine
 10
-114.920987
 20
-132.687882
 30
0.0
 11
-94.92100199999999
 21
-132.687882
 31
0.0
  0
LINE
  5
12F
330
1F
100
AcDbEntity
  8
0
 62
     7
100
AcDbLine
 10
-114.921002
 20
-98.55786200000003
 30
0.0
 11
-114.921002
 21
-132.687882
 31
0.0
  0
LINE
  5
130
330
1F
100
AcDbEntity
  8
0
 62
     7
100
AcDbLine
 10
-169.620984
 20
-132.687882
 30
0.0
 11
-152.621045
 21
-132.687882
 31
0.0
  0
LINE
  5
131
330
1F
100
AcDbEntity
  8
0
 62
     7
100
AcDbLine
 10
-124.621014
 20
-98.55786200000003
 30
0.0
 11
-124.621014
 21
-132.687882
 31
0.0
  0
LINE
  5
132
330
1F
100
AcDbEntity
  8
0
 62
     7
100
AcDbLine
 10
-124.621014
 20
-98.55786200000003
 30
0.0
 11
-133.021008
 21
-98.55786200000003
 31
0.0
  0
LINE
  5
133
330
1F
100
AcDbEntity
  8
0
 62
     7
100
AcDbLine
 10
-133.021008
 20
-98.55786200000003
 30
0.0
 11
-133.021008
 21
-103.437882
 31
0.0
  0
LINE
  5
134
330
1F
100
AcDbEntity
  8
0
 62
     7
100
AcDbLine
 10
-133.021008
 20
-103.437882
 30
0.0
 11
-143.270977
 21
-103.437882
 31
0.0
  0
LINE
  5
135
330
1F
100
AcDbEntity
  8
0
 62
     7
100
AcDbLine
 10
-143.270977
 20
-103.437882
 30
0.0
 11
-143.270977
 21
-104.187882
 31
0.0
  0
LINE
  5
136
330
1F
100
AcDbEntity
  8
0
 62
     7
100
AcDbLine
 10
-143.270977
 20
-104.187882
 30
0.0
 11
-144.620984
 21
-104.187882
 31
0.0
  0
LINE
  5
137
330
1F
100
AcDbEntity
  8
0
 62
     7
100
AcDbLine
 10
-167.1209719999999
 20
-104.1878980000001
 30
0.0
 11
-169.620972
 21
-106.687901
 31
0.0
  0
LINE
  5
138
330
1F
100
AcDbEntity
  8
0
 62
     7
100
AcDbLine
 10
-169.620984
 20
-106.687852
 30
0.0
 11
-169.620984
 21
-132.687882
 31
0.0
  0
ARC
  5
139
330
1F
100
AcDbEntity
  8
0
 62
     7
100
AcDbCircle
 10
40.079013
 20
-139.187867
 30
0.0
 40
61.0
100
AcDbArc
 50
215.44492
 51
498.11446
  0
CIRCLE
  5
13A
330
1F
100
AcDbEntity
  8
0
 62
     7
100
AcDbCircle
 10
40.079013
 20
-139.187867
 30
0.0
 40
35.0
  0
ARC
  5
13B
330
1F
100
AcDbEntity
  8
0
 62
     7
100
AcDbCircle
 10
-2.874307999999999
 20
-123.554117
 30
0.0
 40
7.5
100
AcDbArc
 50
125.63969
 51
206.9917499999999
  0
ARC
  5
13C
330
1F
100
AcDbEntity
  8
0
 62
     7
100
AcDbCircle
 10
17.50560200000001
 20
-126.155067
 30
0.0
 40
13.050001
100
AcDbArc
 50
126.3351400000001
 51
173.6645500000001
  0
ARC
  5
13D
330
1F
100
AcDbEntity
  8
0
 62
     7
100
AcDbCircle
 10
-15.31673799999999
 20
-107.205087
 30
0.0
 40
13.050001
100
AcDbArc
 50
306.3353799999999
 51
353.66404
  0
ARC
  5
13E
330
1F
100
AcDbEntity
  8
0
 62
     7
100
AcDbCircle
 10
5.063141999999999
 20
-109.806027
 30
0.0
 40
7.5
100
AcDbArc
 50
305.6409400000001
 51
340.38549
  0
ARC
  5
13F
330
1F
100
AcDbEntity
  8
0
 62
     7
100
AcDbCircle
 10
-2.874307999999999
 20
-123.554117
 30
0.0
 40
7.5
100
AcDbArc
 50
313.00822
 51
354.3602499999999
  0
ARC
  5
140
330
1F
100
AcDbEntity
  8
0
 62
     7
100
AcDbCircle
 10
-2.874307999999999
 20
-154.8215770000001
 30
0.0
 40
7.5
100
AcDbArc
 50
165.6390799999999
 51
246.99174
  0
ARC
  5
141
330
1F
100
AcDbEntity
  8
0
 62
     7
100
AcDbCircle
 10
-5.630957999999993
 20
-139.187847
 30
0.0
 40
7.5
100
AcDbArc
 50
133.0080600000001
 51
214.3576700000002
  0
ARC
  5
142
330
1F
100
AcDbEntity
  8
0
 62
     7
100
AcDbCircle
 10
14.40946200000001
 20
-143.714097
 30
0.0
 40
13.050001
100
AcDbArc
 50
166.33513
 51
211.86911
  0
ARC
  5
143
330
1F
100
AcDbEntity
  8
0
 62
     7
100
AcDbCircle
 10
-22.914748
 20
-150.295327
 30
0.0
 40
13.050001
100
AcDbArc
 50
346.3353799999999
 51
393.664035
  0
ARC
  5
144
330
1F
100
AcDbEntity
  8
0
 62
     7
100
AcDbCircle
 10
-5.630957999999993
 20
-139.187847
 30
0.0
 40
7.5
100
AcDbArc
 50
345.6409399999999
 51
386.9916680000001
  0
ARC
  5
145
330
1F
100
AcDbEntity
  8
0
 62
     7
100
AcDbCircle
 10
-2.874307999999999
 20
-154.8215770000001
 30
0.0
 40
7.5
100
AcDbArc
 50
353.0084700000001
 51
376.897022
  0
ARC
  5
146
330
1F
100
AcDbEntity
  8
0
 62
     7
100
AcDbCircle
 10
5.06313200000001
 20
-168.569657
 30
0.0
 40
7.5
100
AcDbArc
 50
47.37811900000003
 51
66.991663
  0
ARC
  5
147
330
1F
100
AcDbEntity
  8
0
 62
     7
100
AcDbCircle
 10
-2.874307999999999
 20
-154.8215770000001
 30
0.0
 40
7.5
100
AcDbArc
 50
15.18199400000004
 51
34.36025000000001
  0
ARC
  5
148
330
1F
100
AcDbEntity
  8
0
 62
     7
100
AcDbCircle
 10
5.063112000000004
 20
-109.806107
 30
0.0
 40
6.5
100
AcDbArc
 50
127.22576
 51
319.6017900000001
  0
ARC
  5
149
330
1F
100
AcDbEntity
  8
0
 62
     7
100
AcDbCircle
 10
41.79167500000001
 20
-141.228957
 30
0.0
 40
41.830002
100
AcDbArc
 50
135.48639
 51
139.45162
  0
ARC
  5
14A
330
1F
100
AcDbEntity
  8
0
 62
     7
100
AcDbCircle
 10
-51.208248
 20
-123.091437
 30
0.0
 40
41.830002
100
AcDbArc
 50
340.54838
 51
359.45158
  0
ARC
  5
14B
330
1F
100
AcDbEntity
  8
0
 62
     7
100
AcDbCircle
 10
-5.630957999999993
 20
-139.187937
 30
0.0
 40
6.5
100
AcDbArc
 50
160.6773900000001
 51
359.6017800000001
  0
ARC
  5
14C
330
1F
100
AcDbEntity
  8
0
 62
     7
100
AcDbCircle
 10
-2.874307999999999
 20
-123.554117
 30
0.0
 40
6.5
100
AcDbArc
 50
341.4964000000001
 51
543.3770800000001
  0
ARC
  5
14D
330
1F
100
AcDbEntity
  8
0
 62
     7
100
AcDbCircle
 10
42.70297600000001
 20
-139.650567
 30
0.0
 40
41.830002
100
AcDbArc
 50
160.5483800000001
 51
179.45161
  0
ARC
  5
14E
330
1F
100
AcDbEntity
  8
0
 62
     7
100
AcDbCircle
 10
-40.19765799999999
 20
-185.535637
 30
0.0
 40
41.830002
100
AcDbArc
 50
21.13165200000001
 51
39.45158200000001
  0
ARC
  5
14F
330
1F
100
AcDbEntity
  8
0
 62
     7
100
AcDbCircle
 10
-2.874307999999999
 20
-154.8215770000001
 30
0.0
 40
6.5
100
AcDbArc
 50
15.118839
 51
223.3770700000001
  0
ARC
  5
150
330
1F
100
AcDbEntity
  8
0
 62
     7
100
AcDbCircle
 10
42.38652400000001
 20
-137.855667
 30
0.0
 40
41.830002
100
AcDbArc
 50
200.54837
 51
218.14115
  0
ARC
  5
151
330
1F
100
AcDbEntity
  8
0
 62
     7
100
AcDbCircle
 10
5.063112000000004
 20
-109.806107
 30
0.0
 40
7.5
100
AcDbArc
 50
128.20691
 51
174.36857
  0
ARC
  5
152
330
1F
100
AcDbEntity
  8
0
 62
     7
100
AcDbCircle
 10
5.063112000000004
 20
-109.806107
 30
0.0
 40
7.5
100
AcDbArc
 50
305.6383100000001
 51
340.38621
  0
ARC
  5
153
330
1F
100
AcDbEntity
  8
0
 62
     7
100
AcDbCircle
 10
40.07902900000001
 20
-139.187867
 30
0.0
 40
36.5
100
AcDbArc
 50
216.61745
 51
497.62949
  0
CIRCLE
  5
154
330
1F
100
AcDbEntity
  8
0
 62
     7
100
AcDbCircle
 10
-231.220958
 20
-139.187867
 30
0.0
 40
6.5
  0
CIRCLE
  5
155
330
1F
100
AcDbEntity
  8
0
 62
     7
100
AcDbCircle
 10
40.07902900000001
 20
-139.187867
 30
0.0
 40
6.5
  0
CIRCLE
  5
156
330
1F
100
AcDbEntity
  8
0
 62
     7
100
AcDbCircle
 10
-5.630998000000005
 20
-139.187867
 30
0.0
 40
2.75
  0
CIRCLE
  5
157
330
1F
100
AcDbEntity
  8
0
 62
     7
100
AcDbCircle
 10
-2.874307999999999
 20
-123.554047
 30
0.0
 40
2.75
  0
CIRCLE
  5
158
330
1F
100
AcDbEntity
  8
0
 62
     7
100
AcDbCircle
 10
5.063172000000009
 20
-109.805977
 30
0.0
 40
2.75
  0
CIRCLE
  5
159
330
1F
100
AcDbEntity
  8
0
 62
     7
100
AcDbCircle
 10
-2.874347999999998
 20
-154.8215770000001
 30
0.0
 40
2.75
  0
ARC
  5
15A
330
1F
100
AcDbEntity
  8
0
 62
     7
100
AcDbCircle
 10
-6.968716999999998
 20
-107.140431
 30
0.0
 40
8.83508404
100
AcDbArc
 50
61.16288310000001
 51
80.24860690000006
  0
ARC
  5
15B
330
1F
100
AcDbEntity
  8
0
 62
     7
100
AcDbCircle
 10
-5.260407999999984
 20
-103.485056
 30
0.0
 40
4.81642566
100
AcDbArc
 50
22.97055499999987
 51
57.98985710000005
  0
ARC
  5
15C
330
1F
100
AcDbEntity
  8
0
 62
     7
100
AcDbCircle
 10
10.80900700000001
 20
-96.69035300000004
 30
0.0
 40
12.6304697
100
AcDbArc
 50
202.901162
 51
216.249075
  0
ARC
  5
15D
330
1F
100
AcDbEntity
  8
0
 62
     7
100
AcDbCircle
 10
4.07639300000001
 20
-100.727597
 30
0.0
 40
4.86802423
100
AcDbArc
 50
224.8154819999999
 51
259.4356699999999
  0
ARC
  5
15E
330
1F
100
AcDbEntity
  8
0
 62
     7
100
AcDbCircle
 10
46.86762040000001
 20
90.30568099999999
 30
0.0
 40
200.632166
100
AcDbArc
 50
257.424235
 51
258.264881
  0
ARC
  5
15F
330
1F
100
AcDbEntity
  8
0
 62
     7
100
AcDbCircle
 10
3.799443000000011
 20
-117.240485
 30
0.0
 40
11.335553
100
AcDbArc
 50
63.61284949999998
 51
78.48884440000002
  0
ARC
  5
160
330
1F
100
AcDbEntity
  8
0
 62
     7
100
AcDbCircle
 10
6.802097000000003
 20
-111.104815
 30
0.0
 40
4.50482047
100
AcDbArc
 50
25.68224700000016
 51
63.14109260000001
  0
ARC
  5
161
330
1F
100
AcDbEntity
  8
0
 62
     7
100
AcDbCircle
 10
-16.64016899999999
 20
-121.753346
 30
0.0
 40
30.2513514
100
AcDbArc
 50
19.042617
 51
24.61619190000002
  0
ARC
  5
162
330
1F
100
AcDbEntity
  8
0
 62
     7
100
AcDbCircle
 10
75.93830890000001
 20
-86.13381900000005
 30
0.0
 40
68.9695816
100
AcDbArc
 50
201.921998
 51
204.367692
  0
ARC
  5
163
330
1F
100
AcDbEntity
  8
0
 62
     7
100
AcDbCircle
 10
1.977285000000009
 20
-180.0966780000001
 30
0.0
 40
12.8484057
100
AcDbArc
 50
139.5229310000001
 51
154.5251950000001
  0
ARC
  5
164
330
1F
100
AcDbEntity
  8
0
 62
     7
100
AcDbCircle
 10
-4.035085999999993
 20
-174.754515
 30
0.0
 40
4.80985454
100
AcDbArc
 50
101.3796890000001
 51
141.4376630000001
  0
ARC
  5
165
330
1F
100
AcDbEntity
  8
0
 62
     7
100
AcDbCircle
 10
-4.476854000000003
 20
-181.459866
 30
0.0
 40
11.4319086
100
AcDbArc
 50
75.70100360000001
 51
92.54319999999996
  0
ARC
  5
166
330
1F
100
AcDbEntity
  8
0
 62
     7
100
AcDbCircle
 10
-0.566631000000001
 20
-166.933578
 30
0.0
 40
3.61572165
100
AcDbArc
 50
252.5086640000001
 51
305.825771
  0
ARC
  5
167
330
1F
100
AcDbEntity
  8
0
 62
     7
100
AcDbCircle
 10
-8.495920999999981
 20
-159.096852
 30
0.0
 40
14.7265951
100
AcDbArc
 50
313.0113809999999
 51
326.091476
  0
ARC
  5
168
330
1F
100
AcDbEntity
  8
0
 62
     7
100
AcDbCircle
 10
9.901367000000008
 20
-171.49689
 30
0.0
 40
7.45949669
100
AcDbArc
 50
120.046365
 51
145.877284
  0
ARC
  5
169
330
1F
100
AcDbEntity
  8
0
 62
     7
100
AcDbCircle
 10
-30.49913699999999
 20
-67.12035200000003
 30
0.0
 40
104.558973
100
AcDbArc
 50
290.528203
 51
292.369593
  0
ARC
  5
16A
330
1F
100
AcDbEntity
  8
0
 62
     7
100
AcDbCircle
 10
7.475801000000004
 20
-161.049159
 30
0.0
 40
3.30659216
100
AcDbArc
 50
303.3557040000001
 51
361.5952630399999
  0
CIRCLE
  5
16B
330
1F
100
AcDbEntity
  8
0
 62
     7
100
AcDbCircle
 10
-86.271008
 20
-192.1878620000001
 30
0.0
 40
5.25
  0
CIRCLE
  5
16C
330
1F
100
AcDbEntity
  8
0
 62
     7
100
AcDbCircle
 10
-86.271008
 20
-192.1878620000001
 30
0.0
 40
4.5
  0
CIRCLE
  5
16D
330
1F
100
AcDbEntity
  8
0
 62
     7
100
AcDbCircle
 10
-153.270948
 20
-192.1878620000001
 30
0.0
 40
5.25
  0
CIRCLE
  5
16E
330
1F
100
AcDbEntity
  8
0
 62
     7
100
AcDbCircle
 10
-153.270948
 20
-192.1878620000001
 30
0.0
 40
4.5
  0
ARC
  5
16F
330
1F
100
AcDbEntity
  8
0
 62
     7
100
AcDbCircle
 10
-106.655998
 20
-93.47786700000003
 30
0.0
 40
5.8000002
100
AcDbArc
 50
330.0000699999999
 51
389.9999389999999
  0
ARC
  5
170
330
1F
100
AcDbEntity
  8
0
 62
     7
100
AcDbCircle
 10
-157.271008
 20
-193.116794
 30
0.0
 40
5.0
100
AcDbArc
 50
179.99998
 51
224.9999900000002
  0
ARC
  5
171
330
1F
100
AcDbEntity
  8
0
 62
     7
100
AcDbCircle
 10
-155.199928
 20
-195.1878620000001
 30
0.0
 40
5.0
100
AcDbArc
 50
224.9999900000001
 51
270.00002
  0
ARC
  5
172
330
1F
100
AcDbEntity
  8
0
 62
     7
100
AcDbCircle
 10
-153.270948
 20
-192.1878620000001
 30
0.0
 40
7.0000005
100
AcDbArc
 50
0.0
 51
180.00002
  0
ARC
  5
173
330
1F
100
AcDbEntity
  8
0
 62
     7
100
AcDbCircle
 10
-84.34204800000001
 20
-195.1878620000001
 30
0.0
 40
5.0
100
AcDbArc
 50
270.00002
 51
315.0
  0
ARC
  5
174
330
1F
100
AcDbEntity
  8
0
 62
     7
100
AcDbCircle
 10
-82.271008
 20
-193.116794
 30
0.0
 40
5.0
100
AcDbArc
 50
315.00003
 51
360.0
  0
ARC
  5
175
330
1F
100
AcDbEntity
  8
0
 62
     7
100
AcDbCircle
 10
-86.271008
 20
-192.1878620000001
 30
0.0
 40
7.0000005
100
AcDbArc
 50
359.99995
 51
539.99996
  0
ARC
  5
176
330
1F
100
AcDbEntity
  8
0
 62
     7
100
AcDbCircle
 10
-157.271008
 20
-85.25892700000003
 30
0.0
 40
5.0
100
AcDbArc
 50
135.0000500000001
 51
179.9999599999999
  0
ARC
  5
177
330
1F
100
AcDbEntity
  8
0
 62
     7
100
AcDbCircle
 10
-155.199928
 20
-83.18787700000004
 30
0.0
 40
5.0
100
AcDbArc
 50
89.99998179999989
 51
135.0000099999998
  0
CIRCLE
  5
178
330
1F
100
AcDbEntity
  8
0
 62
     7
100
AcDbCircle
 10
-153.271008
 20
-86.18787700000004
 30
0.0
 40
3.5000002
  0
ARC
  5
179
330
1F
100
AcDbEntity
  8
0
 62
     7
100
AcDbCircle
 10
-153.271008
 20
-86.18787700000004
 30
0.0
 40
7.0000005
100
AcDbArc
 50
179.9999799999999
 51
360.0000000000001
  0
ARC
  5
17A
330
1F
100
AcDbEntity
  8
0
 62
     7
100
AcDbCircle
 10
-141.271008
 20
-85.18786700000004
 30
0.0
 40
2.0
100
AcDbArc
 50
89.9999818000002
 51
179.9999600000001
  0
ARC
  5
17B
330
1F
100
AcDbEntity
  8
0
 62
     7
100
AcDbCircle
 10
-86.271008
 20
-86.18787700000004
 30
0.0
 40
9.0
100
AcDbArc
 50
179.99998
 51
243.61218
  0
ARC
  5
17C
330
1F
100
AcDbEntity
  8
0
 62
     7
100
AcDbCircle
 10
-97.271008
 20
-85.18786700000004
 30
0.0
 40
2.0
100
AcDbArc
 50
0.0
 51
89.9999818000002
  0
CIRCLE
  5
17D
330
1F
100
AcDbEntity
  8
0
 62
     7
100
AcDbCircle
 10
-86.271008
 20
-86.18787700000004
 30
0.0
 40
3.5000002
  0
ARC
  5
17E
330
1F
100
AcDbEntity
  8
0
 62
     7
100
AcDbCircle
 10
-86.271008
 20
-86.18787700000004
 30
0.0
 40
7.0000005
100
AcDbArc
 50
179.99996
 51
360.000010017913
  0
ARC
  5
17F
330
1F
100
AcDbEntity
  8
0
 62
     7
100
AcDbCircle
 10
-84.34204800000001
 20
-83.18787700000004
 30
0.0
 40
5.0
100
AcDbArc
 50
45.00000100000011
 51
89.99998179999989
  0
ARC
  5
180
330
1F
100
AcDbEntity
  8
0
 62
     7
100
AcDbCircle
 10
-82.271008
 20
-85.25892700000003
 30
0.0
 40
5.0
100
AcDbArc
 50
0.0
 51
45.00000100000011
  0
TEXT
  5
182
330
1F
100
AcDbEntity
  8
0
 62
     7
100
AcDbText
 10
-61.5877588325786
 20
-212.0128639290535
 30
0.0
 40
3.200000047683716
  1
ＴＳＵＢＡＫＩ
 41
0.6684682349718109
  7
FDASTYLE0
 72
     5
 11
-39.92149119914049
 21
-212.0128639290535
 31
0.0
100
AcDbText
  0
TEXT
  5
183
330
1F
100
AcDbEntity
  8
0
 62
     7
100
AcDbText
 10
-61.5877588325786
 20
-216.8128640005791
 30
0.0
 40
3.200000047683716
  1
CR5018
 41
0.7744433949964145
  7
FDASTYLE0
 72
     5
 11
-43.1483821207332
 21
-216.8128640005791
 31
0.0
100
AcDbText
  0
VIEWPORT
  5
2B
330
1B
100
AcDbEntity
 67
     1
  8
0
100
AcDbViewport
 10
-66.43349900000004
 20
-144.0503655002896
 30
0.0
 40
1069.275054
 41
436.5749910017373
 68
     1
 69
     1
1001
ACAD
1000
MVIEW
1002
{
1070
    16
1010
0.0
1020
0.0
1030
0.0
1010
0.0
1020
0.0
1030
1.0
1040
0.0
1040
436.5749910017373
1040
-66.43349900000004
1040
-144.0503655002896
1040
50.0
1040
0.0
1040
0.0
1070
     0
1070
   100
1070
     0
1070
     1
1070
     0
1070
     0
1070
     0
1070
     0
1040
0.0
1040
0.0
1040
0.0
1040
0.5
1040
0.5
1040
0.0
1040
0.0
1070
     0
1002
{
1002
}
1002
}
  0
ENDSEC
  0
SECTION
  2
OBJECTS
  0
DICTIONARY
  5
C
330
0
100
AcDbDictionary
  3
ACAD_GROUP
350
D
  3
ACAD_LAYOUT
350
1A
  3
ACAD_MLINESTYLE
350
17
  3
ACAD_PLOTSETTINGS
350
19
  3
ACDBHEADERROUNDTRIPXREC
350
184
  0
DICTIONARY
  5
D
102
{ACAD_REACTORS
330
C
102
}
330
C
100
AcDbDictionary
  0
DICTIONARY
  5
1A
102
{ACAD_REACTORS
330
C
102
}
330
C
100
AcDbDictionary
  0
DICTIONARY
  5
17
102
{ACAD_REACTORS
330
C
102
}
330
C
100
AcDbDictionary
  3
STANDARD
350
18
  0
DICTIONARY
  5
19
102
{ACAD_REACTORS
330
C
102
}
330
C
100
AcDbDictionary
  0
DICTIONARY
  5
184
102
{ACAD_REACTORS
330
C
102
}
330
C
100
AcDbDictionary
  3
CEPSNTYPE
350
18D
  3
DIMSTYLEDATA
350
1A3
  3
FINGERPRINTGUID
350
18E
  3
HYPERLINKBASE
350
187
  3
INSUNITS
350
18C
  3
LAYOUTDICT
350
189
  3
LWETCUNION
350
18B
  3
PLOTSETDICT
350
18A
  3
PSVPSCALE
350
190
  3
PUCSBASE
350
193
  3
PUCSORGBACK
350
199
  3
PUCSORGBOTTOM
350
195
  3
PUCSORGFRONT
350
198
  3
PUCSORGLEFT
350
196
  3
PUCSORGRIGHT
350
197
  3
PUCSORGTOP
350
194
  3
PUCSORTHOREF
350
191
  3
PUCSORTHOVIEW
350
192
  3
STYLESHEET
350
188
  3
TSTACKALIGN
350
185
  3
TSTACKSIZE
350
186
  3
UCSBASE
350
19C
  3
UCSORGBACK
350
1A2
  3
UCSORGBOTTOM
350
19E
  3
UCSORGFRONT
350
1A1
  3
UCSORGLEFT
350
19F
  3
UCSORGRIGHT
350
1A0
  3
UCSORGTOP
350
19D
  3
UCSORTHOREF
350
19A
  3
UCSORTHOVIEW
350
19B
  3
VERSIONGUID
350
18F
  0
MLINESTYLE
  5
18
102
{ACAD_REACTORS
330
17
102
}
330
17
100
AcDbMlineStyle
  2
Standard
 70
     0
  3

 62
   256
 51
90.0
 52
90.0
 71
     2
 49
0.5
 62
   256
  6
BYLAYER
 49
-0.5
 62
   256
  6
BYLAYER
  0
XRECORD
  5
18D
102
{ACAD_REACTORS
330
184
102
}
330
184
100
AcDbXrecord
 90
        0
  0
XRECORD
  5
1A3
102
{ACAD_REACTORS
330
184
102
}
330
184
100
AcDbXrecord
1000
DSTYLE
1002
{
1070
   171
 70
     2
1070
   143
 40
25.4
1070
   274
 70
     2
1070
   141
 40
0.09
1070
   271
 70
     4
1070
    43
 40
0.38
1070
    44
 40
0.18
1070
   278
 70
    46
1070
    42
 40
0.0625
1070
   147
 40
0.09
1070
    77
 70
     3
1070
   272
 70
     4
1070
    73
 70
     1
1070
   172
 70
     0
1070
    74
 70
     1
1070
   283
 70
     1
1070
   340
340
11
1070
   140
 40
0.18
1070
   284
 70
     0
1070
    78
 70
     0
1002
}
  0
XRECORD
  5
18E
102
{ACAD_REACTORS
330
184
102
}
330
184
100
AcDbXrecord
  1
{B4956397-5B12-4672-8337-5B2829B52E98}
  0
XRECORD
  5
187
102
{ACAD_REACTORS
330
184
102
}
330
184
100
AcDbXrecord
  1

  0
XRECORD
  5
18C
102
{ACAD_REACTORS
330
184
102
}
330
184
100
AcDbXrecord
 90
        4
  0
XRECORD
  5
189
102
{ACAD_REACTORS
330
184
102
}
330
184
100
AcDbXrecord
340
1A
  0
XRECORD
  5
18B
102
{ACAD_REACTORS
330
184
102
}
330
184
100
AcDbXrecord
 90
    10781
  0
XRECORD
  5
18A
102
{ACAD_REACTORS
330
184
102
}
330
184
100
AcDbXrecord
340
19
  0
XRECORD
  5
190
102
{ACAD_REACTORS
330
184
102
}
330
184
100
AcDbXrecord
 40
0.0
  0
XRECORD
  5
193
102
{ACAD_REACTORS
330
184
102
}
330
184
100
AcDbXrecord
340
0
  0
XRECORD
  5
199
102
{ACAD_REACTORS
330
184
102
}
330
184
100
AcDbXrecord
 10
0.0
 20
0.0
 30
0.0
  0
XRECORD
  5
195
102
{ACAD_REACTORS
330
184
102
}
330
184
100
AcDbXrecord
 10
0.0
 20
0.0
 30
0.0
  0
XRECORD
  5
198
102
{ACAD_REACTORS
330
184
102
}
330
184
100
AcDbXrecord
 10
0.0
 20
0.0
 30
0.0
  0
XRECORD
  5
196
102
{ACAD_REACTORS
330
184
102
}
330
184
100
AcDbXrecord
 10
0.0
 20
0.0
 30
0.0
  0
XRECORD
  5
197
102
{ACAD_REACTORS
330
184
102
}
330
184
100
AcDbXrecord
 10
0.0
 20
0.0
 30
0.0
  0
XRECORD
  5
194
102
{ACAD_REACTORS
330
184
102
}
330
184
100
AcDbXrecord
 10
0.0
 20
0.0
 30
0.0
  0
XRECORD
  5
191
102
{ACAD_REACTORS
330
184
102
}
330
184
100
AcDbXrecord
340
0
  0
XRECORD
  5
192
102
{ACAD_REACTORS
330
184
102
}
330
184
100
AcDbXrecord
 70
     0
  0
XRECORD
  5
188
102
{ACAD_REACTORS
330
184
102
}
330
184
100
AcDbXrecord
  1

  0
XRECORD
  5
185
102
{ACAD_REACTORS
330
184
102
}
330
184
100
AcDbXrecord
 90
        1
  0
XRECORD
  5
186
102
{ACAD_REACTORS
330
184
102
}
330
184
100
AcDbXrecord
 90
       70
  0
XRECORD
  5
19C
102
{ACAD_REACTORS
330
184
102
}
330
184
100
AcDbXrecord
340
0
  0
XRECORD
  5
1A2
102
{ACAD_REACTORS
330
184
102
}
330
184
100
AcDbXrecord
 10
0.0
 20
0.0
 30
0.0
  0
XRECORD
  5
19E
102
{ACAD_REACTORS
330
184
102
}
330
184
100
AcDbXrecord
 10
0.0
 20
0.0
 30
0.0
  0
XRECORD
  5
1A1
102
{ACAD_REACTORS
330
184
102
}
330
184
100
AcDbXrecord
 10
0.0
 20
0.0
 30
0.0
  0
XRECORD
  5
19F
102
{ACAD_REACTORS
330
184
102
}
330
184
100
AcDbXrecord
 10
0.0
 20
0.0
 30
0.0
  0
XRECORD
  5
1A0
102
{ACAD_REACTORS
330
184
102
}
330
184
100
AcDbXrecord
 10
0.0
 20
0.0
 30
0.0
  0
XRECORD
  5
19D
102
{ACAD_REACTORS
330
184
102
}
330
184
100
AcDbXrecord
 10
0.0
 20
0.0
 30
0.0
  0
XRECORD
  5
19A
102
{ACAD_REACTORS
330
184
102
}
330
184
100
AcDbXrecord
340
0
  0
XRECORD
  5
19B
102
{ACAD_REACTORS
330
184
102
}
330
184
100
AcDbXrecord
 70
     0
  0
XRECORD
  5
18F
102
{ACAD_REACTORS
330
184
102
}
330
184
100
AcDbXrecord
  1
{FAEB1C32-E019-11D5-929B-00C0DF256EC4}
  0
ENDSEC
  0
EOF
