  0
SECTION
  2
HEADER
  9
$ACADVER
  1
AC1014
  9
$ACADMAINTVER
 70
     9
  9
$DWGCODEPAGE
  3
ANSI_932
  9
$INSBASE
 10
0.0
 20
0.0
 30
0.0
  9
$EXTMIN
 10
-406.387713
 20
-51.81126125115816
 30
0.0
  9
$EXTMAX
 10
318.187401
 20
185.8420787505791
 30
0.0
  9
$LIMMIN
 10
-168.917285
 20
-133.78752875
  9
$LIMMAX
 10
168.917285
 20
133.78752875
  9
$ORTHOMODE
 70
     0
  9
$REGENMODE
 70
     1
  9
$FILLMODE
 70
     1
  9
$QTEXTMODE
 70
     0
  9
$MIRRTEXT
 70
     1
  9
$DRAGMODE
 70
     2
  9
$LTSCALE
 40
1.0
  9
$OSMODE
 70
    37
  9
$ATTMODE
 70
     1
  9
$TEXTSIZE
 40
0.2
  9
$TRACEWID
 40
0.05
  9
$TEXTSTYLE
  7
STANDARD
  9
$CLAYER
  8
0
  9
$CELTYPE
  6
BYLAYER
  9
$CECOLOR
 62
   256
  9
$CELTSCALE
 40
1.0
  9
$DELOBJ
 70
     1
  9
$DISPSILH
 70
     0
  9
$DIMSCALE
 40
1.0
  9
$DIMASZ
 40
2.5
  9
$DIMEXO
 40
0.0625
  9
$DIMDLI
 40
0.38
  9
$DIMRND
 40
0.0
  9
$DIMDLE
 40
0.0
  9
$DIMEXE
 40
0.18
  9
$DIMTP
 40
0.0
  9
$DIMTM
 40
0.0
  9
$DIMTXT
 40
0.18
  9
$DIMCEN
 40
0.09
  9
$DIMTSZ
 40
0.0
  9
$DIMTOL
 70
     0
  9
$DIMLIM
 70
     0
  9
$DIMTIH
 70
     1
  9
$DIMTOH
 70
     1
  9
$DIMSE1
 70
     0
  9
$DIMSE2
 70
     0
  9
$DIMTAD
 70
     3
  9
$DIMZIN
 70
     0
  9
$DIMBLK
  1

  9
$DIMASO
 70
     1
  9
$DIMSHO
 70
     1
  9
$DIMPOST
  1

  9
$DIMAPOST
  1

  9
$DIMALT
 70
     0
  9
$DIMALTD
 70
     2
  9
$DIMALTF
 40
25.4
  9
$DIMLFAC
 40
1.0
  9
$DIMTOFL
 70
     0
  9
$DIMTVP
 40
0.0
  9
$DIMTIX
 70
     0
  9
$DIMSOXD
 70
     0
  9
$DIMSAH
 70
     0
  9
$DIMBLK1
  1

  9
$DIMBLK2
  1

  9
$DIMSTYLE
  2
STANDARD
  9
$DIMCLRD
 70
     0
  9
$DIMCLRE
 70
     0
  9
$DIMCLRT
 70
     0
  9
$DIMTFAC
 40
1.0
  9
$DIMGAP
 40
0.09
  9
$DIMJUST
 70
     0
  9
$DIMSD1
 70
     0
  9
$DIMSD2
 70
     0
  9
$DIMTOLJ
 70
     1
  9
$DIMTZIN
 70
     0
  9
$DIMALTZ
 70
     0
  9
$DIMALTTZ
 70
     0
  9
$DIMFIT
 70
     3
  9
$DIMUPT
 70
     0
  9
$DIMUNIT
 70
     2
  9
$DIMDEC
 70
     4
  9
$DIMTDEC
 70
     4
  9
$DIMALTU
 70
     2
  9
$DIMALTTD
 70
     2
  9
$DIMTXSTY
  7
STANDARD
  9
$DIMAUNIT
 70
     0
  9
$LUNITS
 70
     2
  9
$LUPREC
 70
     4
  9
$SKETCHINC
 40
0.1
  9
$FILLETRAD
 40
0.5
  9
$AUNITS
 70
     0
  9
$AUPREC
 70
     0
  9
$MENU
  1
.
  9
$ELEVATION
 40
0.0
  9
$PELEVATION
 40
0.0
  9
$THICKNESS
 40
0.0
  9
$LIMCHECK
 70
     0
  9
$CHAMFERA
 40
0.5
  9
$CHAMFERB
 40
0.5
  9
$CHAMFERC
 40
1.0
  9
$CHAMFERD
 40
0.0
  9
$SKPOLY
 70
     0
  9
$TDCREATE
 40
2454068.485607754
  9
$TDUPDATE
 40
2454068.485607766
  9
$TDINDWG
 40
0.0000000116
  9
$TDUSRTIMER
 40
0.0000000116
  9
$USRTIMER
 70
     1
  9
$ANGBASE
 50
0.0
  9
$ANGDIR
 70
     0
  9
$PDMODE
 70
     0
  9
$PDSIZE
 40
1.0
  9
$PLINEWID
 40
0.0
  9
$COORDS
 70
     1
  9
$SPLFRAME
 70
     0
  9
$SPLINETYPE
 70
     6
  9
$SPLINESEGS
 70
     8
  9
$ATTDIA
 70
     0
  9
$ATTREQ
 70
     1
  9
$HANDLING
 70
     1
  9
$HANDSEED
  5
199
  9
$SURFTAB1
 70
     6
  9
$SURFTAB2
 70
     6
  9
$SURFTYPE
 70
     6
  9
$SURFU
 70
     6
  9
$SURFV
 70
     6
  9
$UCSNAME
  2

  9
$UCSORG
 10
0.0
 20
0.0
 30
0.0
  9
$UCSXDIR
 10
1.0
 20
0.0
 30
0.0
  9
$UCSYDIR
 10
0.0
 20
1.0
 30
0.0
  9
$PUCSNAME
  2

  9
$PUCSORG
 10
0.0
 20
0.0
 30
0.0
  9
$PUCSXDIR
 10
1.0
 20
0.0
 30
0.0
  9
$PUCSYDIR
 10
0.0
 20
1.0
 30
0.0
  9
$USERI1
 70
     0
  9
$USERI2
 70
     0
  9
$USERI3
 70
     0
  9
$USERI4
 70
     0
  9
$USERI5
 70
     0
  9
$USERR1
 40
0.0
  9
$USERR2
 40
0.0
  9
$USERR3
 40
0.0
  9
$USERR4
 40
0.0
  9
$USERR5
 40
0.0
  9
$WORLDVIEW
 70
     1
  9
$SHADEDGE
 70
     3
  9
$SHADEDIF
 70
    70
  9
$TILEMODE
 70
     1
  9
$MAXACTVP
 70
    64
  9
$PINSBASE
 10
0.0
 20
0.0
 30
0.0
  9
$PLIMCHECK
 70
     0
  9
$PEXTMIN
 10
1.000000000000000E+20
 20
1.000000000000000E+20
 30
1.000000000000000E+20
  9
$PEXTMAX
 10
-1.000000000000000E+20
 20
-1.000000000000000E+20
 30
-1.000000000000000E+20
  9
$PLIMMIN
 10
0.0
 20
0.0
  9
$PLIMMAX
 10
12.0
 20
9.0
  9
$UNITMODE
 70
     0
  9
$VISRETAIN
 70
     0
  9
$PLINEGEN
 70
     1
  9
$PSLTSCALE
 70
     0
  9
$TREEDEPTH
 70
  3020
  9
$PICKSTYLE
 70
     1
  9
$CMLSTYLE
  2
STANDARD
  9
$CMLJUST
 70
     0
  9
$CMLSCALE
 40
1.0
  9
$PROXYGRAPHICS
 70
     0
  9
$MEASUREMENT
 70
     1
  0
ENDSEC
  0
SECTION
  2
CLASSES
  0
CLASS
  1
ACDBDICTIONARYWDFLT
  2
AcDbDictionaryWithDefault
  3
ObjectDBX Classes
 90
        0
280
     0
281
     0
  0
CLASS
  1
XRECORD
  2
AcDbXrecord
  3
AutoCAD 2000
 90
        0
280
     0
281
     0
  0
CLASS
  1
LWPOLYLINE
  2
AcDbPolyline
  3
AutoCAD 2000
 90
        0
280
     0
281
     1
  0
CLASS
  1
HATCH
  2
AcDbHatch
  3
AutoCAD 2000
 90
        0
280
     0
281
     1
  0
CLASS
  1
ACDBPLACEHOLDER
  2
AcDbPlaceHolder
  3
ObjectDBX Classes
 90
        0
280
     0
281
     0
  0
CLASS
  1
LAYOUT
  2
AcDbLayout
  3
ObjectDBX Classes
 90
        0
280
     0
281
     0
  0
ENDSEC
  0
SECTION
  2
TABLES
  0
TABLE
  2
VPORT
  5
8
330
0
100
AcDbSymbolTable
 70
     1
  0
VPORT
  5
29
330
8
100
AcDbSymbolTableRecord
100
AcDbViewportTableRecord
  2
*ACTIVE
 70
     0
 10
0.0
 20
0.0
 11
1.0
 21
1.0
 12
0.0
 22
0.0
 13
0.0
 23
0.0
 14
0.5
 24
0.5
 15
0.5
 25
0.5
 16
0.0
 26
0.0
 36
1.0
 17
-44.100156
 27
67.01540874971045
 37
0.0
 40
80.80213560059065
 41
3.048874103745832
 42
50.0
 43
0.0
 44
0.0
 50
0.0
 51
0.0
 71
     0
 72
  1000
 73
     1
 74
     1
 75
     0
 76
     0
 77
     0
 78
     0
  0
ENDTAB
  0
TABLE
  2
LTYPE
  5
5
330
0
100
AcDbSymbolTable
 70
    28
  0
LTYPE
  5
14
330
5
100
AcDbSymbolTableRecord
100
AcDbLinetypeTableRecord
  2
BYBLOCK
 70
     0
  3

 72
    65
 73
     0
 40
0.0
  0
LTYPE
  5
15
330
5
100
AcDbSymbolTableRecord
100
AcDbLinetypeTableRecord
  2
BYLAYER
 70
     0
  3

 72
    65
 73
     0
 40
0.0
  0
LTYPE
  5
16
330
5
100
AcDbSymbolTableRecord
100
AcDbLinetypeTableRecord
  2
CONTINUOUS
 70
     0
  3
Solid line
 72
    65
 73
     0
 40
0.0
  0
LTYPE
  5
2C
330
5
100
AcDbSymbolTableRecord
100
AcDbLinetypeTableRecord
  2
HIDDENX2
 70
     0
  3
CADPAC LINETYPE
 72
    65
 73
     2
 40
6.204491643709844
 49
4.653368732782383
 74
     0
 49
-1.551122910927461
 74
     0
  0
LTYPE
  5
2D
330
5
100
AcDbSymbolTableRecord
100
AcDbLinetypeTableRecord
  2
HIDDEN
 70
     0
  3
CADPAC LINETYPE
 72
    65
 73
     2
 40
4.653368732782383
 49
3.102245821854922
 74
     0
 49
-1.551122910927461
 74
     0
  0
LTYPE
  5
2E
330
5
100
AcDbSymbolTableRecord
100
AcDbLinetypeTableRecord
  2
HIDDEN2
 70
     0
  3
CADPAC LINETYPE
 72
    65
 73
     2
 40
3.877807277318652
 49
2.326684366391191
 74
     0
 49
-1.551122910927461
 74
     0
  0
LTYPE
  5
2F
330
5
100
AcDbSymbolTableRecord
100
AcDbLinetypeTableRecord
  2
DASHED
 70
     0
  3
CADPAC LINETYPE
 72
    65
 73
     2
 40
3.722694986225918
 49
1.861347493112959
 74
     0
 49
-1.861347493112959
 74
     0
  0
LTYPE
  5
30
330
5
100
AcDbSymbolTableRecord
100
AcDbLinetypeTableRecord
  2
DASHED2
 70
     0
  3
CADPAC LINETYPE
 72
    65
 73
     2
 40
2.171572075298457
 49
1.861347493112959
 74
     0
 49
-0.3102245821854979
 74
     0
  0
LTYPE
  5
31
330
5
100
AcDbSymbolTableRecord
100
AcDbLinetypeTableRecord
  2
DASHEDX2
 70
     0
  3
CADPAC LINETYPE
 72
    65
 73
     2
 40
2.171572075298457
 49
1.861347493112959
 74
     0
 49
-0.3102245821854979
 74
     0
  0
LTYPE
  5
32
330
5
100
AcDbSymbolTableRecord
100
AcDbLinetypeTableRecord
  2
DOTX2
 70
     0
  3
CADPAC LINETYPE
 72
    65
 73
     2
 40
0.3877807277318723
 49
0.0
 74
     0
 49
-0.3877807277318723
 74
     0
  0
LTYPE
  5
33
330
5
100
AcDbSymbolTableRecord
100
AcDbLinetypeTableRecord
  2
DOT
 70
     0
  3
CADPAC LINETYPE
 72
    65
 73
     2
 40
0.3102245821854979
 49
0.0
 74
     0
 49
-0.3102245821854979
 74
     0
  0
LTYPE
  5
34
330
5
100
AcDbSymbolTableRecord
100
AcDbLinetypeTableRecord
  2
DOT2
 70
     0
  3
CADPAC LINETYPE
 72
    65
 73
     2
 40
0.2326684366391234
 49
0.0
 74
     0
 49
-0.2326684366391234
 74
     0
  0
LTYPE
  5
35
330
5
100
AcDbSymbolTableRecord
100
AcDbLinetypeTableRecord
  2
CENTERX2
 70
     0
  3
CADPAC LINETYPE
 72
    65
 73
     4
 40
9.306737465564765
 49
3.877807277318652
 74
     0
 49
-1.938903638659326
 74
     0
 49
1.551122910927461
 74
     0
 49
-1.938903638659326
 74
     0
  0
LTYPE
  5
36
330
5
100
AcDbSymbolTableRecord
100
AcDbLinetypeTableRecord
  2
CENTER
 70
     0
  3
CADPAC LINETYPE
 72
    65
 73
     4
 40
7.13516539026632
 49
3.102245821854922
 74
     0
 49
-1.551122910927461
 74
     0
 49
0.9306737465564765
 74
     0
 49
-1.551122910927461
 74
     0
  0
LTYPE
  5
37
330
5
100
AcDbSymbolTableRecord
100
AcDbLinetypeTableRecord
  2
CENTER2
 70
     0
  3
CADPAC LINETYPE
 72
    65
 73
     4
 40
4.963593314967875
 49
2.326684366391191
 74
     0
 49
-1.163342183195596
 74
     0
 49
0.3102245821854922
 74
     0
 49
-1.163342183195596
 74
     0
  0
LTYPE
  5
38
330
5
100
AcDbSymbolTableRecord
100
AcDbLinetypeTableRecord
  2
DASHDOTX2
 70
     0
  3
CADPAC LINETYPE
 72
    65
 73
     4
 40
4.343144150596885
 49
3.722694986225889
 74
     0
 49
-0.3102245821854979
 74
     0
 49
0.0
 74
     0
 49
-0.3102245821854979
 74
     0
  0
LTYPE
  5
39
330
5
100
AcDbSymbolTableRecord
100
AcDbLinetypeTableRecord
  2
DASHDOT
 70
     0
  3
CADPAC LINETYPE
 72
    65
 73
     4
 40
5.273817897153379
 49
3.722694986225889
 74
     0
 49
-0.3102245821854979
 74
     0
 49
0.9306737465564936
 74
     0
 49
-0.3102245821854979
 74
     0
  0
LTYPE
  5
3A
330
5
100
AcDbSymbolTableRecord
100
AcDbLinetypeTableRecord
  2
DASHDOT2
 70
     0
  3
CADPAC LINETYPE
 72
    65
 73
     4
 40
3.350425487603313
 49
2.792021239669417
 74
     0
 49
-0.2326684366391234
 74
     0
 49
0.0930673746556494
 74
     0
 49
-0.2326684366391234
 74
     0
  0
LTYPE
  5
3B
330
5
100
AcDbSymbolTableRecord
100
AcDbLinetypeTableRecord
  2
DIVIDEX2
 70
     0
  3
CADPAC LINETYPE
 72
    65
 73
     6
 40
4.653368732782383
 49
3.722694986225889
 74
     0
 49
-0.3102245821854979
 74
     0
 49
0.0
 74
     0
 49
-0.3102245821854979
 74
     0
 49
0.0
 74
     0
 49
-0.3102245821854979
 74
     0
  0
LTYPE
  5
3C
330
5
100
AcDbSymbolTableRecord
100
AcDbLinetypeTableRecord
  2
DIVIDE
 70
     0
  3
CADPAC LINETYPE
 72
    65
 73
     6
 40
6.51471622589537
 49
3.722694986225889
 74
     0
 49
-0.3102245821854979
 74
     0
 49
0.9306737465564936
 74
     0
 49
-0.3102245821854979
 74
     0
 49
0.9306737465564936
 74
     0
 49
-0.3102245821854979
 74
     0
  0
LTYPE
  5
3D
330
5
100
AcDbSymbolTableRecord
100
AcDbLinetypeTableRecord
  2
DIVIDE2
 70
     0
  3
CADPAC LINETYPE
 72
    65
 73
     6
 40
4.886037169421527
 49
2.792021239669417
 74
     0
 49
-0.2326684366391234
 74
     0
 49
0.6980053099173702
 74
     0
 49
-0.2326684366391234
 74
     0
 49
0.6980053099173702
 74
     0
 49
-0.2326684366391234
 74
     0
  0
LTYPE
  5
3E
330
5
100
AcDbSymbolTableRecord
100
AcDbLinetypeTableRecord
  2
BORDERX2
 70
     0
  3
CADPAC LINETYPE
 72
    65
 73
     6
 40
13.57232547061528
 49
3.877807277318652
 74
     0
 49
-1.938903638659326
 74
     0
 49
3.877807277318652
 74
     0
 49
-1.938903638659326
 74
     0
 49
0.0
 74
     0
 49
-1.938903638659326
 74
     0
  0
LTYPE
  5
3F
330
5
100
AcDbSymbolTableRecord
100
AcDbLinetypeTableRecord
  2
BORDER
 70
     0
  3
CADPAC LINETYPE
 72
    65
 73
     6
 40
10.85786037649223
 49
3.102245821854922
 74
     0
 49
-1.551122910927461
 74
     0
 49
3.102245821854922
 74
     0
 49
-1.551122910927461
 74
     0
 49
0.0
 74
     0
 49
-1.551122910927461
 74
     0
  0
LTYPE
  5
40
330
5
100
AcDbSymbolTableRecord
100
AcDbLinetypeTableRecord
  2
BORDER2
 70
     0
  3
CADPAC LINETYPE
 72
    65
 73
     6
 40
4.032919568411415
 49
1.861347493112959
 74
     0
 49
-0.3102245821854979
 74
     0
 49
0.0
 74
     0
 49
-0.3102245821854979
 74
     0
 49
0.0
 74
     0
 49
-1.551122910927461
 74
     0
  0
LTYPE
  5
41
330
5
100
AcDbSymbolTableRecord
100
AcDbLinetypeTableRecord
  2
PHANTOMX2
 70
     0
  3
CADPAC LINETYPE
 72
    65
 73
     6
 40
11.63342183195596
 49
3.877807277318652
 74
     0
 49
-1.551122910927461
 74
     0
 49
1.551122910927461
 74
     0
 49
-1.551122910927461
 74
     0
 49
1.551122910927461
 74
     0
 49
-1.551122910927461
 74
     0
  0
LTYPE
  5
42
330
5
100
AcDbSymbolTableRecord
100
AcDbLinetypeTableRecord
  2
PHANTOM
 70
     0
  3
CADPAC LINETYPE
 72
    65
 73
     6
 40
9.616962047750258
 49
3.102245821854922
 74
     0
 49
-1.551122910927461
 74
     0
 49
0.9306737465564765
 74
     0
 49
-1.551122910927461
 74
     0
 49
0.9306737465564765
 74
     0
 49
-1.551122910927461
 74
     0
  0
LTYPE
  5
43
330
5
100
AcDbSymbolTableRecord
100
AcDbLinetypeTableRecord
  2
PHANTOM2
 70
     0
  3
CADPAC LINETYPE
 72
    65
 73
     6
 40
8.220951427915543
 49
2.326684366391191
 74
     0
 49
-1.551122910927461
 74
     0
 49
0.6204491643709844
 74
     0
 49
-1.551122910927461
 74
     0
 49
0.6204491643709844
 74
     0
 49
-1.551122910927461
 74
     0
  0
LTYPE
  5
44
330
5
100
AcDbSymbolTableRecord
100
AcDbLinetypeTableRecord
  2
ACAD_ISO06W100
 70
     0
  3
CADPAC LINETYPE
 72
    65
 73
     8
 40
4.963593314967881
 49
3.722694986225889
 74
     0
 49
-0.3102245821854979
 74
     0
 49
0.0
 74
     0
 49
-0.3102245821854979
 74
     0
 49
0.0
 74
     0
 49
-0.3102245821854979
 74
     0
 49
0.0
 74
     0
 49
-0.3102245821854979
 74
     0
  0
LTYPE
  5
45
330
5
100
AcDbSymbolTableRecord
100
AcDbLinetypeTableRecord
  2
ACAD_ISO13W100
 70
     0
  3
CADPAC LINETYPE
 72
    65
 73
     8
 40
12.40898328741969
 49
3.102245821854922
 74
     0
 49
-1.551122910927461
 74
     0
 49
3.102245821854922
 74
     0
 49
-1.551122910927461
 74
     0
 49
0.0
 74
     0
 49
-1.551122910927461
 74
     0
 49
0.0
 74
     0
 49
-1.551122910927461
 74
     0
  0
LTYPE
  5
46
330
5
100
AcDbSymbolTableRecord
100
AcDbLinetypeTableRecord
  2
ACAD_ISO14W100
 70
     0
  3
CADPAC LINETYPE
 72
    65
 73
     8
 40
9.306737465564765
 49
3.102245821854922
 74
     0
 49
-1.551122910927461
 74
     0
 49
0.0
 74
     0
 49
-1.551122910927461
 74
     0
 49
0.0
 74
     0
 49
-1.551122910927461
 74
     0
 49
0.0
 74
     0
 49
-1.551122910927461
 74
     0
  0
ENDTAB
  0
TABLE
  2
LAYER
  5
2
330
0
100
AcDbSymbolTable
 70
     1
  0
LAYER
  5
10
330
2
100
AcDbSymbolTableRecord
100
AcDbLayerTableRecord
  2
0
 70
     0
 62
     7
  6
CONTINUOUS
  0
ENDTAB
  0
TABLE
  2
STYLE
  5
3
330
0
100
AcDbSymbolTable
 70
     2
  0
STYLE
  5
11
330
3
100
AcDbSymbolTableRecord
100
AcDbTextStyleTableRecord
  2
STANDARD
 70
     0
 40
0.0
 41
1.0
 50
0.0
 71
     0
 42
0.2
  3
txt
  4

  0
STYLE
  5
176
330
3
100
AcDbSymbolTableRecord
100
AcDbTextStyleTableRecord
  2
FDASTYLE0
 70
     0
 40
3.200000047683716
 41
0.6684682349718109
 50
0.0
 71
     0
 42
0.2
  3
txt.shx
  4
bigfont
  0
ENDTAB
  0
TABLE
  2
VIEW
  5
6
330
0
100
AcDbSymbolTable
 70
     0
  0
ENDTAB
  0
TABLE
  2
UCS
  5
7
330
0
100
AcDbSymbolTable
 70
     0
  0
ENDTAB
  0
TABLE
  2
APPID
  5
9
330
0
100
AcDbSymbolTable
 70
     2
  0
APPID
  5
12
330
9
100
AcDbSymbolTableRecord
100
AcDbRegAppTableRecord
  2
ACAD
 70
     0
  0
APPID
  5
2A
330
9
100
AcDbSymbolTableRecord
100
AcDbRegAppTableRecord
  2
DAFUSIONOUT
 70
     0
  0
ENDTAB
  0
TABLE
  2
DIMSTYLE
  5
A
330
0
100
AcDbSymbolTable
 70
     1
  0
DIMSTYLE
105
27
330
A
100
AcDbSymbolTableRecord
100
AcDbDimStyleTableRecord
  2
STANDARD
 70
     0
  3

  4

  5

  6

  7

 40
1.0
 41
0.18
 42
0.0625
 43
0.38
 44
0.18
 45
0.0
 46
0.0
 47
0.0
 48
0.0
140
0.18
141
0.09
142
0.0
143
25.4
144
1.0
145
0.0
146
1.0
147
0.09
 71
     0
 72
     0
 73
     1
 74
     1
 75
     0
 76
     0
 77
     0
 78
     0
170
     0
171
     2
172
     0
173
     0
174
     0
175
     0
176
     0
177
     0
178
     0
270
     2
271
     4
272
     4
273
     2
274
     2
340
11
275
     0
280
     0
281
     0
282
     0
283
     1
284
     0
285
     0
286
     0
287
     3
288
     0
  0
ENDTAB
  0
TABLE
  2
BLOCK_RECORD
  5
1
330
0
100
AcDbSymbolTable
 70
     1
  0
BLOCK_RECORD
  5
1F
330
1
100
AcDbSymbolTableRecord
100
AcDbBlockTableRecord
  2
*MODEL_SPACE
  0
BLOCK_RECORD
  5
1B
330
1
100
AcDbSymbolTableRecord
100
AcDbBlockTableRecord
  2
*PAPER_SPACE
  0
ENDTAB
  0
ENDSEC
  0
SECTION
  2
BLOCKS
  0
BLOCK
  5
20
330
1F
100
AcDbEntity
  8
0
100
AcDbBlockBegin
  2
*MODEL_SPACE
 70
     0
 71
     0
 10
0.0
 20
0.0
 30
0.0
  3
*MODEL_SPACE
  1

  0
ENDBLK
  5
21
330
1F
100
AcDbEntity
  8
0
100
AcDbBlockEnd
  0
BLOCK
  5
1C
330
1B
100
AcDbEntity
 67
     1
  8
0
100
AcDbBlockBegin
  2
*PAPER_SPACE
 70
     0
 71
     0
 10
0.0
 20
0.0
 30
0.0
  3
*PAPER_SPACE
  1

  0
ENDBLK
  5
1D
330
1B
100
AcDbEntity
 67
     1
  8
0
100
AcDbBlockEnd
  0
ENDSEC
  0
SECTION
  2
ENTITIES
  0
LINE
  5
47
330
1F
100
AcDbEntity
  8
0
  6
DASHED
 62
     7
100
AcDbLine
 10
-71.85867500000001
 20
93.51152875
 30
0.0
 11
-68.528695
 21
93.51152875
 31
0.0
  0
LINE
  5
48
330
1F
100
AcDbEntity
  8
0
  6
DASHED
 62
     7
100
AcDbLine
 10
-72.85863500000002
 20
92.51149875000002
 30
0.0
 11
-71.85864500000005
 21
93.51148874999998
 31
0.0
  0
LINE
  5
49
330
1F
100
AcDbEntity
  8
0
  6
DASHED
 62
     7
100
AcDbLine
 10
-68.52869499999994
 20
93.51152874999997
 30
0.0
 11
-67.52870499999997
 21
92.51154875
 31
0.0
  0
LINE
  5
4A
330
1F
100
AcDbEntity
  8
0
  6
DASHED
 62
     7
100
AcDbLine
 10
-72.85867500000001
 20
54.76152875
 30
0.0
 11
-72.85867500000001
 21
73.63652875
 31
0.0
  0
LINE
  5
4B
330
1F
100
AcDbEntity
  8
0
  6
DASHED
 62
     7
100
AcDbLine
 10
-67.528695
 20
54.76152875
 30
0.0
 11
-67.528695
 21
60.88652875
 31
0.0
  0
LINE
  5
4C
330
1F
100
AcDbEntity
  8
0
  6
DASHED
 62
     7
100
AcDbLine
 10
-60.808695
 20
61.13652875
 30
0.0
 11
-44.808695
 21
61.13652875
 31
0.0
  0
LINE
  5
4D
330
1F
100
AcDbEntity
  8
0
  6
DASHED
 62
     7
100
AcDbLine
 10
-71.85867500000001
 20
53.76152875
 30
0.0
 11
-68.528695
 21
53.76152875
 31
0.0
  0
LINE
  5
4E
330
1F
100
AcDbEntity
  8
0
  6
DASHED
 62
     7
100
AcDbLine
 10
-67.528695
 20
60.88652875
 30
0.0
 11
-60.808695
 21
60.88652875
 31
0.0
  0
LINE
  5
4F
330
1F
100
AcDbEntity
  8
0
  6
DASHED
 62
     7
100
AcDbLine
 10
-72.85866499999995
 20
54.76152874999998
 30
0.0
 11
-71.85866499999995
 21
53.76152874999998
 31
0.0
  0
LINE
  5
50
330
1F
100
AcDbEntity
  8
0
  6
DASHED
 62
     7
100
AcDbLine
 10
-68.52870499999995
 20
53.76154874999997
 30
0.0
 11
-67.52870499999997
 21
54.76154874999995
 31
0.0
  0
LINE
  5
51
330
1F
100
AcDbEntity
  8
0
  6
DASHED
 62
     7
100
AcDbLine
 10
-72.85867500000001
 20
58.41152875
 30
0.0
 11
-67.528695
 21
58.41152875
 31
0.0
  0
LINE
  5
52
330
1F
100
AcDbEntity
  8
0
  6
DASHED
 62
     7
100
AcDbLine
 10
-78.75870500000002
 20
93.51152875
 30
0.0
 11
-82.088685
 21
93.51152875
 31
0.0
  0
LINE
  5
53
330
1F
100
AcDbEntity
  8
0
  6
DASHED
 62
     7
100
AcDbLine
 10
-77.75868499999999
 20
92.51152875
 30
0.0
 11
-78.75868499999999
 21
93.51152875
 31
0.0
  0
LINE
  5
54
330
1F
100
AcDbEntity
  8
0
  6
DASHED
 62
     7
100
AcDbLine
 10
-82.08867499999997
 20
93.51152874999997
 30
0.0
 11
-83.08867499999997
 21
92.51152874999997
 31
0.0
  0
LINE
  5
55
330
1F
100
AcDbEntity
  8
0
  6
DASHED
 62
     7
100
AcDbLine
 10
-83.088685
 20
54.76152875
 30
0.0
 11
-83.088685
 21
60.88652875
 31
0.0
  0
LINE
  5
56
330
1F
100
AcDbEntity
  8
0
  6
DASHED
 62
     7
100
AcDbLine
 10
-89.65701500000003
 20
61.13652875
 30
0.0
 11
-105.808695
 21
61.13652875
 31
0.0
  0
LINE
  5
57
330
1F
100
AcDbEntity
  8
0
  6
DASHED
 62
     7
100
AcDbLine
 10
-78.75870500000002
 20
53.76152875
 30
0.0
 11
-82.088685
 21
53.76152875
 31
0.0
  0
LINE
  5
58
330
1F
100
AcDbEntity
  8
0
  6
DASHED
 62
     7
100
AcDbLine
 10
-83.088685
 20
60.88652875
 30
0.0
 11
-89.65701500000003
 21
60.88652875
 31
0.0
  0
LINE
  5
59
330
1F
100
AcDbEntity
  8
0
  6
DASHED
 62
     7
100
AcDbLine
 10
-77.75868499999996
 20
54.76152874999997
 30
0.0
 11
-78.75868499999999
 21
53.76152874999995
 31
0.0
  0
LINE
  5
5A
330
1F
100
AcDbEntity
  8
0
  6
DASHED
 62
     7
100
AcDbLine
 10
-82.08867500000002
 20
53.76151875000002
 30
0.0
 11
-83.088675
 21
54.76152874999997
 31
0.0
  0
LINE
  5
5B
330
1F
100
AcDbEntity
  8
0
  6
DASHED
 62
     7
100
AcDbLine
 10
-77.75870500000002
 20
58.41152875
 30
0.0
 11
-83.088685
 21
58.41152875
 31
0.0
  0
LINE
  5
5C
330
1F
100
AcDbEntity
  8
0
  6
DASHED
 62
     7
100
AcDbLine
 10
-83.088685
 20
88.86153874999999
 30
0.0
 11
-83.088685
 21
92.51151874999999
 31
0.0
  0
LINE
  5
5D
330
1F
100
AcDbEntity
  8
0
  6
DASHED
 62
     7
100
AcDbLine
 10
-77.75870500000002
 20
88.86153874999999
 30
0.0
 11
-77.75870500000002
 21
92.51154875
 31
0.0
  0
LINE
  5
5E
330
1F
100
AcDbEntity
  8
0
  6
DASHED
 62
     7
100
AcDbLine
 10
-72.85867500000001
 20
88.86153874999999
 30
0.0
 11
-72.85867500000001
 21
92.51152875
 31
0.0
  0
LINE
  5
5F
330
1F
100
AcDbEntity
  8
0
  6
DASHED
 62
     7
100
AcDbLine
 10
-67.528695
 20
88.86153874999999
 30
0.0
 11
-67.528695
 21
92.51152875
 31
0.0
  0
LINE
  5
60
330
1F
100
AcDbEntity
  8
0
  6
DASHED
 62
     7
100
AcDbLine
 10
-77.75870500000002
 20
54.76151874999999
 30
0.0
 11
-77.75870500000002
 21
73.63652875
 31
0.0
  0
LINE
  5
61
330
1F
100
AcDbEntity
  8
0
  6
DASHED
 62
     7
100
AcDbLine
 10
-60.808695
 20
61.13652875
 30
0.0
 11
-60.808695
 21
60.88652875
 31
0.0
  0
LINE
  5
62
330
1F
100
AcDbEntity
  8
0
  6
DASHED
 62
     7
100
AcDbLine
 10
-89.65701500000003
 20
61.13652875
 30
0.0
 11
-89.65701500000003
 21
60.88652875
 31
0.0
  0
LINE
  5
63
330
1F
100
AcDbEntity
  8
0
  6
DASHED
 62
     7
100
AcDbLine
 10
-107.758705
 20
69.63652875
 30
0.0
 11
-77.75870500000002
 21
69.63652875
 31
0.0
  0
LINE
  5
64
330
1F
100
AcDbEntity
  8
0
  6
DASHED
 62
     7
100
AcDbLine
 10
-72.85867500000001
 20
69.63652875
 30
0.0
 11
-42.85869500000001
 21
69.63652875
 31
0.0
  0
LINE
  5
65
330
1F
100
AcDbEntity
  8
0
 62
     7
100
AcDbLine
 10
-42.85869500000001
 20
62.13652875
 30
0.0
 11
-42.85869500000001
 21
78.07450875000001
 31
0.0
  0
LINE
  5
66
330
1F
100
AcDbEntity
  8
0
 62
     7
100
AcDbLine
 10
-43.85867499999998
 20
61.13652875
 30
0.0
 11
-42.85867499999998
 21
62.13652875
 31
0.0
  0
LINE
  5
67
330
1F
100
AcDbEntity
  8
0
 62
     7
100
AcDbLine
 10
-107.758705
 20
62.13652875
 30
0.0
 11
-107.758705
 21
77.76012875000001
 31
0.0
  0
LINE
  5
68
330
1F
100
AcDbEntity
  8
0
 62
     7
100
AcDbLine
 10
-106.758705
 20
61.13652875
 30
0.0
 11
-107.758705
 21
62.13654875
 31
0.0
  0
LINE
  5
69
330
1F
100
AcDbEntity
  8
0
 62
     7
100
AcDbLine
 10
42.64130499999999
 20
103.13228875
 30
0.0
 11
42.64130499999999
 21
87.12726874999999
 31
0.0
  0
LINE
  5
6A
330
1F
100
AcDbEntity
  8
0
 62
     7
100
AcDbLine
 10
41.64130499999999
 20
103.13228875
 30
0.0
 11
41.64130499999999
 21
87.12726874999999
 31
0.0
  0
LINE
  5
6B
330
1F
100
AcDbEntity
  8
0
 62
     7
100
AcDbLine
 10
42.64130499999999
 20
60.14579874999998
 30
0.0
 11
42.64130499999999
 21
44.14077875
 31
0.0
  0
LINE
  5
6C
330
1F
100
AcDbEntity
  8
0
 62
     7
100
AcDbLine
 10
41.64130499999999
 20
60.14579874999998
 30
0.0
 11
41.64130499999999
 21
44.14077875
 31
0.0
  0
LINE
  5
6D
330
1F
100
AcDbEntity
  8
0
 62
     7
100
AcDbLine
 10
20.817565
 20
80.44881875000002
 30
0.0
 11
25.579825
 21
88.69730875000002
 31
0.0
  0
LINE
  5
6E
330
1F
100
AcDbEntity
  8
0
 62
     7
100
AcDbLine
 10
27.91897499999996
 20
76.34880875000002
 30
0.0
 11
32.68123499999996
 21
84.59729875000002
 31
0.0
  0
LINE
  5
6F
330
1F
100
AcDbEntity
  8
0
 62
     7
100
AcDbLine
 10
20.26825499999998
 20
68.87426875
 30
0.0
 11
20.26825499999998
 21
78.39879875
 31
0.0
  0
LINE
  5
70
330
1F
100
AcDbEntity
  8
0
 62
     7
100
AcDbLine
 10
28.46827499999998
 20
69.97284875
 30
0.0
 11
28.46827499999998
 21
77.30020875
 31
0.0
  0
LINE
  5
71
330
1F
100
AcDbEntity
  8
0
 62
     7
100
AcDbLine
 10
25.57982499999997
 20
58.57575875000003
 30
0.0
 11
20.81756499999997
 21
66.82425875000001
 31
0.0
  0
LINE
  5
72
330
1F
100
AcDbEntity
  8
0
 62
     7
100
AcDbLine
 10
32.68123499999999
 20
62.67577874999998
 30
0.0
 11
27.91897500000002
 21
70.92426874999993
 31
0.0
  0
LINE
  5
73
330
1F
100
AcDbEntity
  8
0
 62
     7
100
AcDbLine
 10
27.17673499999998
 20
57.01952874999998
 30
0.0
 11
27.08054500000006
 21
57.07506874999996
 31
0.0
  0
LINE
  5
74
330
1F
100
AcDbEntity
  8
0
 62
     7
100
AcDbLine
 10
33.91816499999999
 20
62.59591874999998
 30
0.0
 11
32.13195500000001
 21
63.62717874999999
 31
0.0
  0
LINE
  5
75
330
1F
100
AcDbEntity
  8
0
 62
     7
100
AcDbLine
 10
27.69080499999996
 20
87.43265875000003
 30
0.0
 11
28.70476499999995
 21
88.01807875000003
 31
0.0
  0
LINE
  5
76
330
1F
100
AcDbEntity
  8
0
 62
     7
100
AcDbLine
 10
29.09079499999996
 20
85.00777875000003
 30
0.0
 11
30.57029499999996
 21
85.86196875000005
 31
0.0
  0
LINE
  5
77
330
1F
100
AcDbEntity
  8
0
 62
     7
100
AcDbLine
 10
22.72873500000006
 20
78.35907874999995
 30
0.0
 11
23.58291500000004
 21
79.83854874999997
 31
0.0
  0
LINE
  5
78
330
1F
100
AcDbEntity
  8
0
 62
     7
100
AcDbLine
 10
25.15362499999995
 20
76.95908875000006
 30
0.0
 11
26.00779499999996
 21
78.43854875000002
 31
0.0
  0
LINE
  5
79
330
1F
100
AcDbEntity
  8
0
 62
     7
100
AcDbLine
 10
22.96827499999998
 20
68.02008874999999
 30
0.0
 11
22.96827499999998
 21
69.72843874999998
 31
0.0
  0
LINE
  5
7A
330
1F
100
AcDbEntity
  8
0
 62
     7
100
AcDbLine
 10
25.76827499999999
 20
68.02008874999999
 30
0.0
 11
25.76827499999999
 21
69.72843874999998
 31
0.0
  0
LINE
  5
7B
330
1F
100
AcDbEntity
  8
0
 62
     7
100
AcDbLine
 10
28.34517499999998
 20
59.18602874999999
 30
0.0
 11
27.491005
 21
60.66549874999998
 31
0.0
  0
LINE
  5
7C
330
1F
100
AcDbEntity
  8
0
 62
     7
100
AcDbLine
 10
30.02338499999999
 20
61.87928875000003
 30
0.0
 11
29.915875
 21
62.06549875000002
 31
0.0
  0
LINE
  5
7D
330
1F
100
AcDbEntity
  8
0
 62
     7
100
AcDbLine
 10
-44.808695
 20
61.13652875
 30
0.0
 11
-43.85867500000001
 21
61.13652875
 31
0.0
  0
LINE
  5
7E
330
1F
100
AcDbEntity
  8
0
 62
     7
100
AcDbLine
 10
-106.758705
 20
61.13652875
 30
0.0
 11
-105.808695
 21
61.13652875
 31
0.0
  0
LINE
  5
7F
330
1F
100
AcDbEntity
  8
0
 62
     7
100
AcDbLine
 10
41.64130499999999
 20
103.13228875
 30
0.0
 11
42.64130499999999
 21
103.13228875
 31
0.0
  0
LINE
  5
80
330
1F
100
AcDbEntity
  8
0
 62
     7
100
AcDbLine
 10
41.64130499999999
 20
87.12726874999999
 30
0.0
 11
42.64130499999999
 21
87.12726874999999
 31
0.0
  0
LINE
  5
81
330
1F
100
AcDbEntity
  8
0
 62
     7
100
AcDbLine
 10
-77.75870500000002
 20
77.65532875
 30
0.0
 11
-77.75870500000002
 21
73.63652875
 31
0.0
  0
LINE
  5
82
330
1F
100
AcDbEntity
  8
0
 62
     7
100
AcDbLine
 10
-72.85867500000001
 20
77.65532875
 30
0.0
 11
-72.85867500000001
 21
73.63652875
 31
0.0
  0
LINE
  5
83
330
1F
100
AcDbEntity
  8
0
 62
     7
100
AcDbLine
 10
-95.808685
 20
50.79121875
 30
0.0
 11
-95.808685
 21
48.48184875
 31
0.0
  0
LINE
  5
84
330
1F
100
AcDbEntity
  8
0
 62
     7
100
AcDbLine
 10
-97.80866499999999
 20
51.94591874999998
 30
0.0
 11
-95.80867499999997
 21
50.79121874999999
 31
0.0
  0
LINE
  5
85
330
1F
100
AcDbEntity
  8
0
 62
     7
100
AcDbLine
 10
-99.80866499999999
 20
50.79122874999996
 30
0.0
 11
-97.808685
 21
51.94591874999996
 31
0.0
  0
LINE
  5
86
330
1F
100
AcDbEntity
  8
0
 62
     7
100
AcDbLine
 10
-99.80865500000002
 20
48.48184875
 30
0.0
 11
-99.80865500000002
 21
50.79122874999999
 31
0.0
  0
LINE
  5
87
330
1F
100
AcDbEntity
  8
0
 62
     7
100
AcDbLine
 10
-97.80867500000008
 20
47.32715875
 30
0.0
 11
-99.80864499999998
 21
48.48184875000001
 31
0.0
  0
LINE
  5
88
330
1F
100
AcDbEntity
  8
0
 62
     7
100
AcDbLine
 10
-95.80869500000003
 20
48.48185875
 30
0.0
 11
-97.80867500000002
 21
47.32716874999998
 31
0.0
  0
LINE
  5
89
330
1F
100
AcDbEntity
  8
0
 62
     7
100
AcDbLine
 10
-50.80868500000003
 20
50.79121875
 30
0.0
 11
-50.80868500000003
 21
48.48184875
 31
0.0
  0
LINE
  5
8A
330
1F
100
AcDbEntity
  8
0
 62
     7
100
AcDbLine
 10
-52.80866500000002
 20
51.94591874999998
 30
0.0
 11
-50.80867500000002
 21
50.79121875000001
 31
0.0
  0
LINE
  5
8B
330
1F
100
AcDbEntity
  8
0
 62
     7
100
AcDbLine
 10
-54.80866500000005
 20
50.79122874999997
 30
0.0
 11
-52.80868500000005
 21
51.94591874999998
 31
0.0
  0
LINE
  5
8C
330
1F
100
AcDbEntity
  8
0
 62
     7
100
AcDbLine
 10
-54.80865500000002
 20
48.48184875
 30
0.0
 11
-54.80865500000002
 21
50.79122874999999
 31
0.0
  0
LINE
  5
8D
330
1F
100
AcDbEntity
  8
0
 62
     7
100
AcDbLine
 10
-52.80867500000005
 20
47.32715875
 30
0.0
 11
-54.80864500000001
 21
48.48184874999997
 31
0.0
  0
LINE
  5
8E
330
1F
100
AcDbEntity
  8
0
 62
     7
100
AcDbLine
 10
-50.80869500000003
 20
48.48185875000006
 30
0.0
 11
-52.80867500000008
 21
47.32716875000004
 31
0.0
  0
LINE
  5
8F
330
1F
100
AcDbEntity
  8
0
 62
     7
100
AcDbLine
 10
-49.10707500000004
 20
86.13652875000003
 30
0.0
 11
-47.84608500000005
 21
87.39752875000002
 31
0.0
  0
LINE
  5
90
330
1F
100
AcDbEntity
  8
0
 62
     7
100
AcDbLine
 10
-50.00509500000001
 20
86.13652875000003
 30
0.0
 11
-47.958675
 21
88.18296875000002
 31
0.0
  0
LINE
  5
91
330
1F
100
AcDbEntity
  8
0
 62
     7
100
AcDbLine
 10
-50.9031250000001
 20
86.13652875000003
 30
0.0
 11
-48.07125500000009
 21
88.96840875000001
 31
0.0
  0
LINE
  5
92
330
1F
100
AcDbEntity
  8
0
 62
     7
100
AcDbLine
 10
-51.80114500000002
 20
86.13652875
 30
0.0
 11
-48.18384500000002
 21
89.75384875
 31
0.0
  0
LINE
  5
93
330
1F
100
AcDbEntity
  8
0
 62
     7
100
AcDbLine
 10
42.28765499999997
 20
87.12726875000001
 30
0.0
 11
42.64130499999999
 21
87.48092875000003
 31
0.0
  0
LINE
  5
94
330
1F
100
AcDbEntity
  8
0
 62
     7
100
AcDbLine
 10
41.641305
 20
87.82795874999999
 30
0.0
 11
42.64130499999999
 21
88.82796874999997
 31
0.0
  0
LINE
  5
95
330
1F
100
AcDbEntity
  8
0
 62
     7
100
AcDbLine
 10
41.641305
 20
89.17499874999999
 30
0.0
 11
42.64130499999999
 21
90.17500874999996
 31
0.0
  0
LINE
  5
96
330
1F
100
AcDbEntity
  8
0
 62
     7
100
AcDbLine
 10
41.641305
 20
90.52203874999998
 30
0.0
 11
42.64130499999999
 21
91.52204874999995
 31
0.0
  0
LINE
  5
97
330
1F
100
AcDbEntity
  8
0
 62
     7
100
AcDbLine
 10
41.64130499999999
 20
91.86907874999997
 30
0.0
 11
42.64130499999999
 21
92.86908874999998
 31
0.0
  0
LINE
  5
98
330
1F
100
AcDbEntity
  8
0
 62
     7
100
AcDbLine
 10
41.641305
 20
93.21611874999996
 30
0.0
 11
42.641305
 21
94.21612874999997
 31
0.0
  0
LINE
  5
99
330
1F
100
AcDbEntity
  8
0
 62
     7
100
AcDbLine
 10
41.64130499999997
 20
94.56315874999999
 30
0.0
 11
42.64130499999997
 21
95.56316874999999
 31
0.0
  0
LINE
  5
9A
330
1F
100
AcDbEntity
  8
0
 62
     7
100
AcDbLine
 10
41.64130500000002
 20
95.91019874999998
 30
0.0
 11
42.64130500000002
 21
96.91019874999998
 31
0.0
  0
LINE
  5
9B
330
1F
100
AcDbEntity
  8
0
 62
     7
100
AcDbLine
 10
41.641305
 20
97.25723874999997
 30
0.0
 11
42.64130500000002
 21
98.25723874999997
 31
0.0
  0
LINE
  5
9C
330
1F
100
AcDbEntity
  8
0
 62
     7
100
AcDbLine
 10
41.64130499999999
 20
98.60427874999999
 30
0.0
 11
42.64130499999999
 21
99.60427874999999
 31
0.0
  0
LINE
  5
9D
330
1F
100
AcDbEntity
  8
0
 62
     7
100
AcDbLine
 10
41.64130500000002
 20
99.95131874999996
 30
0.0
 11
42.64130500000002
 21
100.95131875
 31
0.0
  0
LINE
  5
9E
330
1F
100
AcDbEntity
  8
0
 62
     7
100
AcDbLine
 10
41.64130499999999
 20
101.29835875
 30
0.0
 11
42.641305
 21
102.29835875
 31
0.0
  0
LINE
  5
9F
330
1F
100
AcDbEntity
  8
0
 62
     7
100
AcDbLine
 10
41.641305
 20
102.64539875
 30
0.0
 11
42.12819500000001
 21
103.13228875
 31
0.0
  0
LINE
  5
A0
330
1F
100
AcDbEntity
  8
0
 62
     7
100
AcDbLine
 10
42.64130499999999
 20
102.62445875
 30
0.0
 11
42.133475
 21
103.13228875
 31
0.0
  0
LINE
  5
A1
330
1F
100
AcDbEntity
  8
0
 62
     7
100
AcDbLine
 10
42.64130500000002
 20
101.27741875
 30
0.0
 11
41.64130500000002
 21
102.27741875
 31
0.0
  0
LINE
  5
A2
330
1F
100
AcDbEntity
  8
0
 62
     7
100
AcDbLine
 10
42.64130499999997
 20
99.93038874999999
 30
0.0
 11
41.64130499999997
 21
100.93037875
 31
0.0
  0
LINE
  5
A3
330
1F
100
AcDbEntity
  8
0
 62
     7
100
AcDbLine
 10
42.64130500000003
 20
98.58334874999994
 30
0.0
 11
41.64130500000003
 21
99.58334874999994
 31
0.0
  0
LINE
  5
A4
330
1F
100
AcDbEntity
  8
0
 62
     7
100
AcDbLine
 10
42.64130500000002
 20
97.23630874999995
 30
0.0
 11
41.64130499999999
 21
98.23630874999998
 31
0.0
  0
LINE
  5
A5
330
1F
100
AcDbEntity
  8
0
 62
     7
100
AcDbLine
 10
42.64130500000002
 20
95.88926874999996
 30
0.0
 11
41.64130500000002
 21
96.88926874999996
 31
0.0
  0
LINE
  5
A6
330
1F
100
AcDbEntity
  8
0
 62
     7
100
AcDbLine
 10
42.64130499999997
 20
94.54223875000002
 30
0.0
 11
41.641305
 21
95.54222875000002
 31
0.0
  0
LINE
  5
A7
330
1F
100
AcDbEntity
  8
0
 62
     7
100
AcDbLine
 10
42.641305
 20
93.19519875
 30
0.0
 11
41.641305
 21
94.19519875
 31
0.0
  0
LINE
  5
A8
330
1F
100
AcDbEntity
  8
0
 62
     7
100
AcDbLine
 10
42.64130499999999
 20
91.84815874999998
 30
0.0
 11
41.64130500000002
 21
92.84815874999995
 31
0.0
  0
LINE
  5
A9
330
1F
100
AcDbEntity
  8
0
 62
     7
100
AcDbLine
 10
42.64130499999999
 20
90.50112875000002
 30
0.0
 11
41.64130499999996
 21
91.50111875000002
 31
0.0
  0
LINE
  5
AA
330
1F
100
AcDbEntity
  8
0
 62
     7
100
AcDbLine
 10
42.64130499999999
 20
89.15408874999997
 30
0.0
 11
41.64130499999999
 21
90.15408874999997
 31
0.0
  0
LINE
  5
AB
330
1F
100
AcDbEntity
  8
0
 62
     7
100
AcDbLine
 10
42.64130500000003
 20
87.80704874999995
 30
0.0
 11
41.641305
 21
88.80704875000001
 31
0.0
  0
LINE
  5
AC
330
1F
100
AcDbEntity
  8
0
 62
     7
100
AcDbLine
 10
41.97404499999996
 20
87.12726875000001
 30
0.0
 11
41.64130499999996
 21
87.46000875000001
 31
0.0
  0
LINE
  5
AD
330
1F
100
AcDbEntity
  8
0
 62
     7
100
AcDbLine
 10
42.40642499999998
 20
44.14077875
 30
0.0
 11
42.64130499999999
 21
44.37564875
 31
0.0
  0
LINE
  5
AE
330
1F
100
AcDbEntity
  8
0
 62
     7
100
AcDbLine
 10
41.64130500000002
 20
44.72268874999995
 30
0.0
 11
42.64130500000003
 21
45.72268874999996
 31
0.0
  0
LINE
  5
AF
330
1F
100
AcDbEntity
  8
0
 62
     7
100
AcDbLine
 10
41.64130500000002
 20
46.06972874999997
 30
0.0
 11
42.64130500000002
 21
47.06972874999997
 31
0.0
  0
LINE
  5
B0
330
1F
100
AcDbEntity
  8
0
 62
     7
100
AcDbLine
 10
41.641305
 20
47.41676874999997
 30
0.0
 11
42.641305
 21
48.41676874999997
 31
0.0
  0
LINE
  5
B1
330
1F
100
AcDbEntity
  8
0
 62
     7
100
AcDbLine
 10
41.64130499999999
 20
48.76380874999998
 30
0.0
 11
42.64130499999999
 21
49.76380874999998
 31
0.0
  0
LINE
  5
B2
330
1F
100
AcDbEntity
  8
0
 62
     7
100
AcDbLine
 10
41.64130500000002
 20
50.11084874999995
 30
0.0
 11
42.64130500000002
 21
51.11084874999995
 31
0.0
  0
LINE
  5
B3
330
1F
100
AcDbEntity
  8
0
 62
     7
100
AcDbLine
 10
41.64130500000002
 20
51.45788874999997
 30
0.0
 11
42.64130500000002
 21
52.45788874999997
 31
0.0
  0
LINE
  5
B4
330
1F
100
AcDbEntity
  8
0
 62
     7
100
AcDbLine
 10
41.641305
 20
52.80492874999997
 30
0.0
 11
42.641305
 21
53.80492874999997
 31
0.0
  0
LINE
  5
B5
330
1F
100
AcDbEntity
  8
0
 62
     7
100
AcDbLine
 10
41.64130499999997
 20
54.15196875
 30
0.0
 11
42.64130499999999
 21
55.15196874999998
 31
0.0
  0
LINE
  5
B6
330
1F
100
AcDbEntity
  8
0
 62
     7
100
AcDbLine
 10
41.64130499999999
 20
55.49900875
 30
0.0
 11
42.64130499999999
 21
56.49900875
 31
0.0
  0
LINE
  5
B7
330
1F
100
AcDbEntity
  8
0
 62
     7
100
AcDbLine
 10
41.64130500000003
 20
56.84604874999994
 30
0.0
 11
42.64130500000003
 21
57.84604874999997
 31
0.0
  0
LINE
  5
B8
330
1F
100
AcDbEntity
  8
0
 62
     7
100
AcDbLine
 10
41.641305
 20
58.19308874999996
 30
0.0
 11
42.641305
 21
59.19308874999999
 31
0.0
  0
LINE
  5
B9
330
1F
100
AcDbEntity
  8
0
 62
     7
100
AcDbLine
 10
41.64130500000002
 20
59.54012875000001
 30
0.0
 11
42.24697500000002
 21
60.14579874999998
 31
0.0
  0
LINE
  5
BA
330
1F
100
AcDbEntity
  8
0
 62
     7
100
AcDbLine
 10
42.64130499999999
 20
59.51926874999998
 30
0.0
 11
42.01478499999999
 21
60.14579875000001
 31
0.0
  0
LINE
  5
BB
330
1F
100
AcDbEntity
  8
0
 62
     7
100
AcDbLine
 10
42.64130499999997
 20
58.17223874999999
 30
0.0
 11
41.64130499999997
 21
59.17222874999999
 31
0.0
  0
LINE
  5
BC
330
1F
100
AcDbEntity
  8
0
 62
     7
100
AcDbLine
 10
42.641305
 20
56.82519874999997
 30
0.0
 11
41.641305
 21
57.82519874999997
 31
0.0
  0
LINE
  5
BD
330
1F
100
AcDbEntity
  8
0
 62
     7
100
AcDbLine
 10
42.641305
 20
55.47815875000001
 30
0.0
 11
41.641305
 21
56.47815875000001
 31
0.0
  0
LINE
  5
BE
330
1F
100
AcDbEntity
  8
0
 62
     7
100
AcDbLine
 10
42.64130499999996
 20
54.13111875000001
 30
0.0
 11
41.64130499999997
 21
55.13111874999999
 31
0.0
  0
LINE
  5
BF
330
1F
100
AcDbEntity
  8
0
 62
     7
100
AcDbLine
 10
42.64130499999997
 20
52.78408875000002
 30
0.0
 11
41.64130499999999
 21
53.78407875000002
 31
0.0
  0
LINE
  5
C0
330
1F
100
AcDbEntity
  8
0
 62
     7
100
AcDbLine
 10
42.641305
 20
51.43704874999996
 30
0.0
 11
41.64130499999999
 21
52.43704874999997
 31
0.0
  0
LINE
  5
C1
330
1F
100
AcDbEntity
  8
0
 62
     7
100
AcDbLine
 10
42.64130500000003
 20
50.09000874999997
 30
0.0
 11
41.64130500000002
 21
51.09000874999998
 31
0.0
  0
LINE
  5
C2
330
1F
100
AcDbEntity
  8
0
 62
     7
100
AcDbLine
 10
42.641305
 20
48.74297874999999
 30
0.0
 11
41.64130499999996
 21
49.74296875000002
 31
0.0
  0
LINE
  5
C3
330
1F
100
AcDbEntity
  8
0
 62
     7
100
AcDbLine
 10
42.64130500000002
 20
47.39593874999997
 30
0.0
 11
41.641305
 21
48.39593874999999
 31
0.0
  0
LINE
  5
C4
330
1F
100
AcDbEntity
  8
0
 62
     7
100
AcDbLine
 10
42.64130500000002
 20
46.04889874999995
 30
0.0
 11
41.641305
 21
47.04889874999996
 31
0.0
  0
LINE
  5
C5
330
1F
100
AcDbEntity
  8
0
 62
     7
100
AcDbLine
 10
42.641305
 20
44.70185874999997
 30
0.0
 11
41.641305
 21
45.70185874999997
 31
0.0
  0
LINE
  5
C6
330
1F
100
AcDbEntity
  8
0
 62
     7
100
AcDbLine
 10
41.85535499999995
 20
44.14077875000002
 30
0.0
 11
41.64130499999995
 21
44.35481875000002
 31
0.0
  0
LINE
  5
C7
330
1F
100
AcDbEntity
  8
0
 62
     7
100
AcDbLine
 10
-86.38368500000001
 20
93.67652874999999
 30
0.0
 11
-87.54367500000004
 21
93.67652874999999
 31
0.0
  0
LINE
  5
C8
330
1F
100
AcDbEntity
  8
0
 62
     7
100
AcDbLine
 10
-87.54372500000002
 20
93.67655875
 30
0.0
 11
-88.08372499999999
 21
93.13655875000003
 31
0.0
  0
LINE
  5
C9
330
1F
100
AcDbEntity
  8
0
 62
     7
100
AcDbLine
 10
-87.54370500000002
 20
93.67652874999999
 30
0.0
 11
-87.54370500000002
 21
90.39652874999999
 31
0.0
  0
LINE
  5
CA
330
1F
100
AcDbEntity
  8
0
 62
     7
100
AcDbLine
 10
-88.08368500000003
 20
93.13652875
 30
0.0
 11
-88.08368500000003
 21
90.93651875000001
 31
0.0
  0
LINE
  5
CB
330
1F
100
AcDbEntity
  8
0
 62
     7
100
AcDbLine
 10
-86.38368500000001
 20
90.39652874999999
 30
0.0
 11
-87.54370500000002
 21
90.39652874999999
 31
0.0
  0
LINE
  5
CC
330
1F
100
AcDbEntity
  8
0
 62
     7
100
AcDbLine
 10
-87.54370500000002
 20
90.39654874999999
 30
0.0
 11
-88.08370499999998
 21
90.93653874999995
 31
0.0
  0
LINE
  5
CD
330
1F
100
AcDbEntity
  8
0
 62
     7
100
AcDbLine
 10
-86.38368500000001
 20
95.68651875000001
 30
0.0
 11
-86.38368500000001
 21
88.38652875
 31
0.0
  0
LINE
  5
CE
330
1F
100
AcDbEntity
  8
0
 62
     7
100
AcDbLine
 10
-85.73369500000001
 20
96.13652875
 30
0.0
 11
-85.73369500000001
 21
87.93653874999998
 31
0.0
  0
LINE
  5
CF
330
1F
100
AcDbEntity
  8
0
 62
     7
100
AcDbLine
 10
-84.73369500000001
 20
96.13652875
 30
0.0
 11
-84.73369500000001
 21
87.93653874999998
 31
0.0
  0
LINE
  5
D0
330
1F
100
AcDbEntity
  8
0
 62
     7
100
AcDbLine
 10
-83.463705
 20
96.13652875
 30
0.0
 11
-83.463705
 21
87.93653874999998
 31
0.0
  0
LINE
  5
D1
330
1F
100
AcDbEntity
  8
0
 62
     7
100
AcDbLine
 10
-83.463705
 20
96.13652875
 30
0.0
 11
-85.73369500000001
 21
96.13652875
 31
0.0
  0
LINE
  5
D2
330
1F
100
AcDbEntity
  8
0
 62
     7
100
AcDbLine
 10
-85.73369500000001
 20
95.68651875000001
 30
0.0
 11
-86.38368500000001
 21
95.68651875000001
 31
0.0
  0
LINE
  5
D3
330
1F
100
AcDbEntity
  8
0
 62
     7
100
AcDbLine
 10
-85.73369500000001
 20
88.38652875
 30
0.0
 11
-86.38368500000001
 21
88.38652875
 31
0.0
  0
LINE
  5
D4
330
1F
100
AcDbEntity
  8
0
 62
     7
100
AcDbLine
 10
-83.463705
 20
87.93653874999998
 30
0.0
 11
-85.73369500000001
 21
87.93653874999998
 31
0.0
  0
LINE
  5
D5
330
1F
100
AcDbEntity
  8
0
 62
     7
100
AcDbLine
 10
-77.67870500000001
 20
88.86153874999999
 30
0.0
 11
-83.16370500000002
 21
88.86153874999999
 31
0.0
  0
LINE
  5
D6
330
1F
100
AcDbEntity
  8
0
 62
     7
100
AcDbLine
 10
-77.67870500000001
 20
95.21152874999999
 30
0.0
 11
-83.16370500000002
 21
95.21152874999999
 31
0.0
  0
LINE
  5
D7
330
1F
100
AcDbEntity
  8
0
 62
     7
100
AcDbLine
 10
-73.238685
 20
96.13652875
 30
0.0
 11
-77.37869500000002
 21
96.13652875
 31
0.0
  0
LINE
  5
D8
330
1F
100
AcDbEntity
  8
0
 62
     7
100
AcDbLine
 10
-73.238685
 20
87.93651875000001
 30
0.0
 11
-77.37869500000002
 21
87.93651875000001
 31
0.0
  0
LINE
  5
D9
330
1F
100
AcDbEntity
  8
0
 62
     7
100
AcDbLine
 10
-76.10869500000001
 20
96.13652875
 30
0.0
 11
-76.10869500000001
 21
87.93651875000001
 31
0.0
  0
LINE
  5
DA
330
1F
100
AcDbEntity
  8
0
 62
     7
100
AcDbLine
 10
-74.50868500000001
 20
96.13652875
 30
0.0
 11
-74.50868500000001
 21
87.93651875000001
 31
0.0
  0
LINE
  5
DB
330
1F
100
AcDbEntity
  8
0
 62
     7
100
AcDbLine
 10
-77.37869500000002
 20
96.13652875
 30
0.0
 11
-77.37869500000002
 21
87.93651875000001
 31
0.0
  0
LINE
  5
DC
330
1F
100
AcDbEntity
  8
0
 62
     7
100
AcDbLine
 10
-73.238685
 20
96.13652875
 30
0.0
 11
-73.238685
 21
87.93651875000001
 31
0.0
  0
LINE
  5
DD
330
1F
100
AcDbEntity
  8
0
 62
     7
100
AcDbLine
 10
-67.453675
 20
95.21152874999999
 30
0.0
 11
-72.93868500000002
 21
95.21152874999999
 31
0.0
  0
LINE
  5
DE
330
1F
100
AcDbEntity
  8
0
 62
     7
100
AcDbLine
 10
-67.453675
 20
88.86153874999999
 30
0.0
 11
-72.93868500000002
 21
88.86153874999999
 31
0.0
  0
LINE
  5
DF
330
1F
100
AcDbEntity
  8
0
 62
     7
100
AcDbLine
 10
-67.15367500000002
 20
96.13652875
 30
0.0
 11
-66.15367500000002
 21
96.13652875
 31
0.0
  0
LINE
  5
E0
330
1F
100
AcDbEntity
  8
0
 62
     7
100
AcDbLine
 10
-67.15367500000002
 20
96.13652875
 30
0.0
 11
-67.15367500000002
 21
87.93653874999998
 31
0.0
  0
LINE
  5
E1
330
1F
100
AcDbEntity
  8
0
 62
     7
100
AcDbLine
 10
-66.92368500000001
 20
96.13652875
 30
0.0
 11
-65.03369500000002
 21
96.13652875
 31
0.0
  0
LINE
  5
E2
330
1F
100
AcDbEntity
  8
0
 62
     7
100
AcDbLine
 10
-64.88368500000001
 20
96.13652875
 30
0.0
 11
-64.88368500000001
 21
87.93653874999998
 31
0.0
  0
LINE
  5
E3
330
1F
100
AcDbEntity
  8
0
 62
     7
100
AcDbLine
 10
-65.88368500000001
 20
96.13652875
 30
0.0
 11
-65.88368500000001
 21
87.93653874999998
 31
0.0
  0
LINE
  5
E4
330
1F
100
AcDbEntity
  8
0
 62
     7
100
AcDbLine
 10
-64.88368500000001
 20
93.88652875
 30
0.0
 11
-64.56310500000001
 21
93.88652875
 31
0.0
  0
LINE
  5
E5
330
1F
100
AcDbEntity
  8
0
 62
     7
100
AcDbLine
 10
-67.15367500000002
 20
87.93653874999998
 30
0.0
 11
-64.88368500000001
 21
87.93653874999998
 31
0.0
  0
LINE
  5
E6
330
1F
100
AcDbEntity
  8
0
 62
     7
100
AcDbLine
 10
-83.16369499999999
 20
95.21152874999999
 30
0.0
 11
-83.463695
 21
94.91153875000001
 31
0.0
  0
LINE
  5
E7
330
1F
100
AcDbEntity
  8
0
 62
     7
100
AcDbLine
 10
-77.37869500000005
 20
94.91151875
 30
0.0
 11
-77.67869500000001
 21
95.21150874999998
 31
0.0
  0
LINE
  5
E8
330
1F
100
AcDbEntity
  8
0
 62
     7
100
AcDbLine
 10
-83.16369500000005
 20
88.86152875000002
 30
0.0
 11
-83.46371500000001
 21
89.16154874999998
 31
0.0
  0
LINE
  5
E9
330
1F
100
AcDbEntity
  8
0
 62
     7
100
AcDbLine
 10
-77.37868499999999
 20
89.16151875
 30
0.0
 11
-77.678675
 21
88.86153874999997
 31
0.0
  0
LINE
  5
EA
330
1F
100
AcDbEntity
  8
0
 62
     7
100
AcDbLine
 10
-72.93866500000002
 20
88.86152875000002
 30
0.0
 11
-73.238675
 21
89.16153875000001
 31
0.0
  0
LINE
  5
EB
330
1F
100
AcDbEntity
  8
0
 62
     7
100
AcDbLine
 10
-67.15364500000001
 20
89.16151875
 30
0.0
 11
-67.45363500000002
 21
88.86152874999999
 31
0.0
  0
LINE
  5
EC
330
1F
100
AcDbEntity
  8
0
 62
     7
100
AcDbLine
 10
-64.88368500000001
 20
90.18651875000001
 30
0.0
 11
-64.56310500000001
 21
90.18651875000001
 31
0.0
  0
LINE
  5
ED
330
1F
100
AcDbEntity
  8
0
 62
     7
100
AcDbLine
 10
-72.93866499999999
 20
95.21152874999999
 30
0.0
 11
-73.23865499999999
 21
94.91152874999997
 31
0.0
  0
LINE
  5
EE
330
1F
100
AcDbEntity
  8
0
 62
     7
100
AcDbLine
 10
-67.15366499999996
 20
94.91151874999994
 30
0.0
 11
-67.45365499999997
 21
95.21150874999995
 31
0.0
  0
LINE
  5
EF
330
1F
100
AcDbEntity
  8
0
 62
     7
100
AcDbLine
 10
-89.30869500000003
 20
92.03652875
 30
0.0
 11
-61.308695
 21
92.03652875
 31
0.0
  0
LINE
  5
F0
330
1F
100
AcDbEntity
  8
0
 62
     7
100
AcDbLine
 10
-105.808695
 20
97.47968875000001
 30
0.0
 11
-105.808695
 21
86.13652875
 31
0.0
  0
LINE
  5
F1
330
1F
100
AcDbEntity
  8
0
 62
     7
100
AcDbLine
 10
-102.980165
 20
101.9648887499999
 30
0.0
 11
-104.6370149999999
 21
100.3080387499999
 31
0.0
  0
LINE
  5
F2
330
1F
100
AcDbEntity
  8
0
 62
     7
100
AcDbLine
 10
-103.808695
 20
100.94377875
 30
0.0
 11
-103.808695
 21
97.63652875
 31
0.0
  0
LINE
  5
F3
330
1F
100
AcDbEntity
  8
0
 62
     7
100
AcDbLine
 10
-90.79593500000001
 20
97.63652875
 30
0.0
 11
-104.860265
 21
97.63652875
 31
0.0
  0
LINE
  5
F4
330
1F
100
AcDbEntity
  8
0
 62
     7
100
AcDbLine
 10
-97.80869500000003
 20
104.10671875
 30
0.0
 11
-97.80869500000003
 21
90.53301875
 31
0.0
  0
LINE
  5
F5
330
1F
100
AcDbEntity
  8
0
 62
     7
100
AcDbLine
 10
-91.80869500000003
 20
102.70971875
 30
0.0
 11
-101.949715
 21
102.70971875
 31
0.0
  0
LINE
  5
F6
330
1F
100
AcDbEntity
  8
0
 62
     7
100
AcDbLine
 10
-91.80869500000003
 20
102.70971875
 30
0.0
 11
-91.80869500000003
 21
97.63652875
 31
0.0
  0
LINE
  5
F7
330
1F
100
AcDbEntity
  8
0
 62
     7
100
AcDbLine
 10
-100.151835
 20
103.13652875
 30
0.0
 11
-50.46555500000002
 21
103.13652875
 31
0.0
  0
LINE
  5
F8
330
1F
100
AcDbEntity
  8
0
 62
     7
100
AcDbLine
 10
-47.63711500000008
 20
101.9649687500001
 30
0.0
 11
-45.980265
 21
100.30811875
 31
0.0
  0
LINE
  5
F9
330
1F
100
AcDbEntity
  8
0
 62
     7
100
AcDbLine
 10
-58.808695
 20
102.70971875
 30
0.0
 11
-48.667665
 21
102.70971875
 31
0.0
  0
LINE
  5
FA
330
1F
100
AcDbEntity
  8
0
 62
     7
100
AcDbLine
 10
-58.808695
 20
102.70971875
 30
0.0
 11
-58.808695
 21
97.63652875
 31
0.0
  0
LINE
  5
FB
330
1F
100
AcDbEntity
  8
0
 62
     7
100
AcDbLine
 10
-59.82144500000001
 20
97.63652875
 30
0.0
 11
-45.75713500000001
 21
97.63652875
 31
0.0
  0
LINE
  5
FC
330
1F
100
AcDbEntity
  8
0
 62
     7
100
AcDbLine
 10
-52.808695
 20
104.10671875
 30
0.0
 11
-52.808695
 21
90.53301875
 31
0.0
  0
LINE
  5
FD
330
1F
100
AcDbEntity
  8
0
 62
     7
100
AcDbLine
 10
-46.808695
 20
100.94377875
 30
0.0
 11
-46.808695
 21
97.63652875
 31
0.0
  0
LINE
  5
FE
330
1F
100
AcDbEntity
  8
0
 62
     7
100
AcDbLine
 10
-44.808695
 20
97.63652875
 30
0.0
 11
-44.808695
 21
86.13652875
 31
0.0
  0
LINE
  5
FF
330
1F
100
AcDbEntity
  8
0
 62
     7
100
AcDbLine
 10
-89.80869500000003
 20
96.63652875
 30
0.0
 11
-89.80869500000003
 21
86.13652875
 31
0.0
  0
LINE
  5
100
330
1F
100
AcDbEntity
  8
0
 62
     7
100
AcDbLine
 10
-88.30869500000003
 20
98.13652875
 30
0.0
 11
-62.25592500000002
 21
98.13652875
 31
0.0
  0
LINE
  5
101
330
1F
100
AcDbEntity
  8
0
 62
     7
100
AcDbLine
 10
-54.808695
 20
88.80477875
 30
0.0
 11
-54.808695
 21
86.13652875
 31
0.0
  0
LINE
  5
102
330
1F
100
AcDbEntity
  8
0
 62
     7
100
AcDbLine
 10
-54.808695
 20
87.13652875
 30
0.0
 11
-51.66869500000001
 21
87.13652875
 31
0.0
  0
LINE
  5
103
330
1F
100
AcDbEntity
  8
0
 62
     7
100
AcDbLine
 10
-47.808695
 20
87.13652875
 30
0.0
 11
-44.808695
 21
87.13652875
 31
0.0
  0
LINE
  5
104
330
1F
100
AcDbEntity
  8
0
 62
     7
100
AcDbLine
 10
-51.23870500000004
 20
90.13651875000002
 30
0.0
 11
-51.81203500000004
 21
86.13652875000005
 31
0.0
  0
LINE
  5
105
330
1F
100
AcDbEntity
  8
0
 62
     7
100
AcDbLine
 10
-51.238685
 20
90.13652875
 30
0.0
 11
-48.238685
 21
90.13652875
 31
0.0
  0
LINE
  5
106
330
1F
100
AcDbEntity
  8
0
 62
     7
100
AcDbLine
 10
-48.23863500000002
 20
90.13652875
 30
0.0
 11
-47.66529500000002
 21
86.13652875
 31
0.0
  0
LINE
  5
107
330
1F
100
AcDbEntity
  8
0
 62
     7
100
AcDbLine
 10
-105.808695
 20
73.63652875
 30
0.0
 11
-105.808695
 21
49.79338874999999
 31
0.0
  0
LINE
  5
108
330
1F
100
AcDbEntity
  8
0
 62
     7
100
AcDbLine
 10
-104.6371250000001
 20
46.96496875
 30
0.0
 11
-102.9802750000001
 21
45.30811875000001
 31
0.0
  0
LINE
  5
109
330
1F
100
AcDbEntity
  8
0
 62
     7
100
AcDbLine
 10
-103.808695
 20
46.13652875
 30
0.0
 11
-103.808695
 21
49.63652875
 31
0.0
  0
LINE
  5
10A
330
1F
100
AcDbEntity
  8
0
 62
     7
100
AcDbLine
 10
-90.79593500000001
 20
49.63652875
 30
0.0
 11
-104.860265
 21
49.63652875
 31
0.0
  0
LINE
  5
10B
330
1F
100
AcDbEntity
  8
0
 62
     7
100
AcDbLine
 10
-97.80869500000003
 20
43.16634875
 30
0.0
 11
-97.80869500000003
 21
56.74004875
 31
0.0
  0
LINE
  5
10C
330
1F
100
AcDbEntity
  8
0
 62
     7
100
AcDbLine
 10
-91.80869500000003
 20
44.56334874999999
 30
0.0
 11
-91.80869500000003
 21
49.63652875
 31
0.0
  0
LINE
  5
10D
330
1F
100
AcDbEntity
  8
0
 62
     7
100
AcDbLine
 10
-91.80869500000003
 20
44.56334874999999
 30
0.0
 11
-101.949715
 21
44.56334874999999
 31
0.0
  0
LINE
  5
10E
330
1F
100
AcDbEntity
  8
0
 62
     7
100
AcDbLine
 10
-100.151835
 20
44.13652875
 30
0.0
 11
-50.46555500000002
 21
44.13652875
 31
0.0
  0
LINE
  5
10F
330
1F
100
AcDbEntity
  8
0
 62
     7
100
AcDbLine
 10
-58.808695
 20
44.56334874999999
 30
0.0
 11
-48.667665
 21
44.56334874999999
 31
0.0
  0
LINE
  5
110
330
1F
100
AcDbEntity
  8
0
 62
     7
100
AcDbLine
 10
-58.808695
 20
44.56334874999999
 30
0.0
 11
-58.808695
 21
49.63652875
 31
0.0
  0
LINE
  5
111
330
1F
100
AcDbEntity
  8
0
 62
     7
100
AcDbLine
 10
-47.63714499999995
 20
45.30811874999998
 30
0.0
 11
-45.98030499999996
 21
46.96496874999998
 31
0.0
  0
LINE
  5
112
330
1F
100
AcDbEntity
  8
0
 62
     7
100
AcDbLine
 10
-44.808695
 20
73.63652875
 30
0.0
 11
-44.808695
 21
49.79338874999999
 31
0.0
  0
LINE
  5
113
330
1F
100
AcDbEntity
  8
0
 62
     7
100
AcDbLine
 10
-46.808695
 20
46.32927875
 30
0.0
 11
-46.808695
 21
49.63652875
 31
0.0
  0
LINE
  5
114
330
1F
100
AcDbEntity
  8
0
 62
     7
100
AcDbLine
 10
-59.82144500000001
 20
49.63652875
 30
0.0
 11
-45.75713500000001
 21
49.63652875
 31
0.0
  0
LINE
  5
115
330
1F
100
AcDbEntity
  8
0
 62
     7
100
AcDbLine
 10
-52.808695
 20
43.16634875
 30
0.0
 11
-52.808695
 21
56.74004875
 31
0.0
  0
LINE
  5
116
330
1F
100
AcDbEntity
  8
0
 62
     7
100
AcDbLine
 10
-100.308695
 20
89.13652875
 30
0.0
 11
-100.308695
 21
86.13652875
 31
0.0
  0
LINE
  5
117
330
1F
100
AcDbEntity
  8
0
 62
     7
100
AcDbLine
 10
-92.30869500000003
 20
89.13652875
 30
0.0
 11
-92.30869500000003
 21
86.13652875
 31
0.0
  0
LINE
  5
118
330
1F
100
AcDbEntity
  8
0
 62
     7
100
AcDbLine
 10
-100.308695
 20
89.13652875
 30
0.0
 11
-92.30869500000003
 21
89.13652875
 31
0.0
  0
LINE
  5
119
330
1F
100
AcDbEntity
  8
0
 62
     7
100
AcDbLine
 10
52.39126499999999
 20
58.35588874999999
 30
0.0
 11
52.11273299999999
 21
58.77112374999999
 31
0.0
  0
LINE
  5
11A
330
1F
100
AcDbEntity
  8
0
 62
     7
100
AcDbLine
 10
31.89129499999996
 20
88.91713875000002
 30
0.0
 11
32.169827
 21
88.50190375
 31
0.0
  0
LINE
  5
11B
330
1F
100
AcDbEntity
  8
0
 62
     7
100
AcDbLine
 10
-60.808695
 20
86.38652875
 30
0.0
 11
-60.808695
 21
86.13652875
 31
0.0
  0
LINE
  5
11C
330
1F
100
AcDbEntity
  8
0
 62
     7
100
AcDbLine
 10
-89.80869500000003
 20
86.38652875
 30
0.0
 11
-89.80869500000003
 21
86.13652875
 31
0.0
  0
LINE
  5
11D
330
1F
100
AcDbEntity
  8
0
 62
     7
100
AcDbLine
 10
-67.52869600000003
 20
88.86153475
 30
0.0
 11
-72.85868300000001
 21
88.86153475
 31
0.0
  0
LINE
  5
11E
330
1F
100
AcDbEntity
  8
0
 62
     7
100
AcDbLine
 10
-67.52869600000003
 20
88.86153475
 30
0.0
 11
-67.52869600000003
 21
86.38652875
 31
0.0
  0
LINE
  5
11F
330
1F
100
AcDbEntity
  8
0
 62
     7
100
AcDbLine
 10
-67.52869600000003
 20
86.38652875
 30
0.0
 11
-60.808695
 21
86.38652875
 31
0.0
  0
LINE
  5
120
330
1F
100
AcDbEntity
  8
0
 62
     7
100
AcDbLine
 10
-60.808695
 20
86.13652875
 30
0.0
 11
-43.858698
 21
86.13652875
 31
0.0
  0
LINE
  5
121
330
1F
100
AcDbEntity
  8
0
 62
     7
100
AcDbLine
 10
-43.85867300000004
 20
86.13650775000002
 30
0.0
 11
-42.85867100000004
 21
85.13650675000002
 31
0.0
  0
LINE
  5
122
330
1F
100
AcDbEntity
  8
0
 62
     7
100
AcDbLine
 10
-42.858698
 20
85.13652875
 30
0.0
 11
-42.858698
 21
77.63652875
 31
0.0
  0
LINE
  5
123
330
1F
100
AcDbEntity
  8
0
 62
     7
100
AcDbLine
 10
-72.85868300000001
 20
77.63652875
 30
0.0
 11
-42.858698
 21
77.63652875
 31
0.0
  0
LINE
  5
124
330
1F
100
AcDbEntity
  8
0
 62
     7
100
AcDbLine
 10
-72.85868300000001
 20
88.86153475
 30
0.0
 11
-72.85868300000001
 21
77.63652875
 31
0.0
  0
LINE
  5
125
330
1F
100
AcDbEntity
  8
0
 62
     7
100
AcDbLine
 10
-77.75870700000002
 20
88.86153475
 30
0.0
 11
-77.75870700000002
 21
77.63652875
 31
0.0
  0
LINE
  5
126
330
1F
100
AcDbEntity
  8
0
 62
     7
100
AcDbLine
 10
-77.75870700000002
 20
88.86153475
 30
0.0
 11
-83.088694
 21
88.86153475
 31
0.0
  0
LINE
  5
127
330
1F
100
AcDbEntity
  8
0
 62
     7
100
AcDbLine
 10
-83.088694
 20
88.86153475
 30
0.0
 11
-83.088694
 21
86.38652875
 31
0.0
  0
LINE
  5
128
330
1F
100
AcDbEntity
  8
0
 62
     7
100
AcDbLine
 10
-83.088694
 20
86.38652875
 30
0.0
 11
-89.80869500000003
 21
86.38652875
 31
0.0
  0
LINE
  5
129
330
1F
100
AcDbEntity
  8
0
 62
     7
100
AcDbLine
 10
-89.80869500000003
 20
86.13652875
 30
0.0
 11
-106.758707
 21
86.13652875
 31
0.0
  0
LINE
  5
12A
330
1F
100
AcDbEntity
  8
0
 62
     7
100
AcDbLine
 10
-106.758696
 20
86.13649674999996
 30
0.0
 11
-107.758696
 21
85.13649574999997
 31
0.0
  0
LINE
  5
12B
330
1F
100
AcDbEntity
  8
0
 62
     7
100
AcDbLine
 10
-107.758707
 20
85.13652875
 30
0.0
 11
-107.758707
 21
77.63652875
 31
0.0
  0
LINE
  5
12C
330
1F
100
AcDbEntity
  8
0
 62
     7
100
AcDbLine
 10
-107.758707
 20
77.63652875
 30
0.0
 11
-77.75870700000002
 21
77.63652875
 31
0.0
  0
ARC
  5
12D
330
1F
100
AcDbEntity
  8
0
 62
     7
100
AcDbCircle
 10
42.14130499999999
 20
73.63652875
 30
0.0
 40
29.5
100
AcDbArc
 50
221.62959
 51
449.0288379
  0
CIRCLE
  5
12E
330
1F
100
AcDbEntity
  8
0
 62
     7
100
AcDbCircle
 10
42.14130499999999
 20
73.63652875
 30
0.0
 40
12.5
  0
ARC
  5
12F
330
1F
100
AcDbEntity
  8
0
 62
     7
100
AcDbCircle
 10
28.503445
 20
86.64792875000001
 30
0.0
 40
1.64
100
AcDbArc
 50
59.99999480000045
 51
63.50666890000021
  0
ARC
  5
130
330
1F
100
AcDbEntity
  8
0
 62
     7
100
AcDbCircle
 10
42.14130499999999
 20
73.63652875
 30
0.0
 40
13.5
100
AcDbArc
 50
233.12504
 51
447.8774459
  0
ARC
  5
131
330
1F
100
AcDbEntity
  8
0
 62
     7
100
AcDbCircle
 10
24.36826499999998
 20
78.39879875
 30
0.0
 40
4.0999999
100
AcDbArc
 50
149.9999700000001
 51
329.99999
  0
ARC
  5
132
330
1F
100
AcDbEntity
  8
0
 62
     7
100
AcDbCircle
 10
29.13054499999998
 20
86.64730875000001
 30
0.0
 40
4.0999999
100
AcDbArc
 50
329.3318500000001
 51
330.00001
  0
ARC
  5
133
330
1F
100
AcDbEntity
  8
0
 62
     7
100
AcDbCircle
 10
29.13053499999998
 20
60.62577875
 30
0.0
 40
4.0999999
100
AcDbArc
 50
209.9999800000002
 51
241.6143899999999
  0
ARC
  5
134
330
1F
100
AcDbEntity
  8
0
 62
     7
100
AcDbCircle
 10
24.36826499999998
 20
68.87426875
 30
0.0
 40
4.0999999
100
AcDbArc
 50
30.00000400000007
 51
209.9999599999998
  0
ARC
  5
135
330
1F
100
AcDbEntity
  8
0
 62
     7
100
AcDbCircle
 10
29.13054499999998
 20
86.64728875
 30
0.0
 40
1.64
100
AcDbArc
 50
114.6533599999997
 51
359.2329300000004
  0
CIRCLE
  5
136
330
1F
100
AcDbEntity
  8
0
 62
     7
100
AcDbCircle
 10
24.36826499999998
 20
78.39879875
 30
0.0
 40
1.64
  0
CIRCLE
  5
137
330
1F
100
AcDbEntity
  8
0
 62
     7
100
AcDbCircle
 10
24.36826499999998
 20
68.87426875
 30
0.0
 40
1.64
  0
ARC
  5
138
330
1F
100
AcDbEntity
  8
0
 62
     7
100
AcDbCircle
 10
29.13053499999998
 20
60.62577875
 30
0.0
 40
1.64
100
AcDbArc
 50
51.13814500000031
 51
250.7236799999999
  0
ARC
  5
139
330
1F
100
AcDbEntity
  8
0
 62
     7
100
AcDbCircle
 10
29.13053499999998
 20
60.62577875
 30
0.0
 40
4.0999999
100
AcDbArc
 50
16.78505499999992
 51
30.00003200000004
  0
ARC
  5
13A
330
1F
100
AcDbEntity
  8
0
 62
     7
100
AcDbCircle
 10
29.13054499999998
 20
86.64730875000001
 30
0.0
 40
4.0999999
100
AcDbArc
 50
131.5542499999999
 51
150.0000000000001
  0
CIRCLE
  5
13B
330
1F
100
AcDbEntity
  8
0
 62
     7
100
AcDbCircle
 10
42.14130499999999
 20
73.63652875
 30
0.0
 40
4.0
  0
CIRCLE
  5
13C
330
1F
100
AcDbEntity
  8
0
 62
     7
100
AcDbCircle
 10
-157.758705
 20
73.63652875
 30
0.0
 40
4.0
  0
ARC
  5
13D
330
1F
100
AcDbEntity
  8
0
 62
     7
100
AcDbCircle
 10
42.14130499999999
 20
73.63652875
 30
0.0
 40
29.5
100
AcDbArc
 50
90.97118030000002
 51
132.05089
  0
ARC
  5
13E
330
1F
100
AcDbEntity
  8
0
 62
     7
100
AcDbCircle
 10
42.14130499999999
 20
73.63652875
 30
0.0
 40
13.5
100
AcDbArc
 50
92.12257280000002
 51
130.07746
  0
ARC
  5
13F
330
1F
100
AcDbEntity
  8
0
 62
     7
100
AcDbCircle
 10
19.03002799999999
 20
86.89552874999998
 30
0.0
 40
9.27630695
100
AcDbArc
 50
55.87465100000001
 51
68.87936640000001
  0
ARC
  5
140
330
1F
100
AcDbEntity
  8
0
 62
     7
100
AcDbCircle
 10
21.92737399999999
 20
91.06045874999998
 30
0.0
 40
4.20355643
100
AcDbArc
 50
28.01389060000008
 51
56.71853869999984
  0
ARC
  5
141
330
1F
100
AcDbEntity
  8
0
 62
     7
100
AcDbCircle
 10
19.57082299999999
 20
90.62867774999998
 30
0.0
 40
6.52726125
100
AcDbArc
 50
3.159114350000085
 51
21.63102429999998
  0
ARC
  5
142
330
1F
100
AcDbEntity
  8
0
 62
     7
100
AcDbCircle
 10
28.87436499999998
 20
91.04602474999999
 30
0.0
 40
2.7867964
100
AcDbArc
 50
181.1850659999998
 51
224.4695869999999
  0
ARC
  5
143
330
1F
100
AcDbEntity
  8
0
 62
     7
100
AcDbCircle
 10
31.61686699999999
 20
95.02247875000001
 30
0.0
 40
7.58510607
100
AcDbArc
 50
231.4093799999999
 51
247.305697
  0
ARC
  5
144
330
1F
100
AcDbEntity
  8
0
 62
     7
100
AcDbCircle
 10
25.931467
 20
81.59454174999999
 30
0.0
 40
6.99699881
100
AcDbArc
 50
49.53692100000001
 51
66.77730970000005
  0
ARC
  5
145
330
1F
100
AcDbEntity
  8
0
 62
     7
100
AcDbCircle
 10
18.59077699999997
 20
74.80718575
 30
0.0
 40
16.965887
100
AcDbArc
 50
38.4384059
 51
45.54780050000003
  0
ARC
  5
146
330
1F
100
AcDbEntity
  8
0
 62
     7
100
AcDbCircle
 10
36.99918699999998
 20
89.56287674999999
 30
0.0
 40
6.62718602
100
AcDbArc
 50
219.4221640000001
 51
237.6269490000001
  0
ARC
  5
147
330
1F
100
AcDbEntity
  8
0
 62
     7
100
AcDbCircle
 10
28.50908899999999
 20
47.95591574999999
 30
0.0
 40
10.3896034
100
AcDbArc
 50
131.936232
 51
144.776785
  0
ARC
  5
148
330
1F
100
AcDbEntity
  8
0
 62
     7
100
AcDbCircle
 10
24.01965799999999
 20
52.78690974999999
 30
0.0
 40
3.7972042
100
AcDbArc
 50
95.11731889999984
 51
130.2600510000002
  0
ARC
  5
149
330
1F
100
AcDbEntity
  8
0
 62
     7
100
AcDbCircle
 10
32.22443999999999
 20
-38.41705225000001
 30
0.0
 40
95.36947650000001
100
AcDbArc
 50
93.74100660000003
 51
95.13961270000003
  0
ARC
  5
14A
330
1F
100
AcDbEntity
  8
0
 62
     7
100
AcDbCircle
 10
25.99589399999999
 20
59.43652474999999
 30
0.0
 40
2.68732319
100
AcDbArc
 50
270.1283760000001
 51
319.7113689999999
  0
ARC
  5
14B
330
1F
100
AcDbEntity
  8
0
 62
     7
100
AcDbCircle
 10
21.718333
 20
61.05562175
 30
0.0
 40
7.16273559
100
AcDbArc
 50
332.053239
 51
350.669139
  0
ARC
  5
14C
330
1F
100
AcDbEntity
  8
0
 62
     7
100
AcDbCircle
 10
31.396322
 20
59.69955174999998
 30
0.0
 40
2.61728184
100
AcDbArc
 50
125.0932140000001
 51
175.7330130000001
  0
ARC
  5
14D
330
1F
100
AcDbEntity
  8
0
 62
     7
100
AcDbCircle
 10
30.69956199999999
 20
54.24887774999999
 30
0.0
 40
7.635049
100
AcDbArc
 50
78.65909359999992
 51
96.07438010000007
  0
ARC
  5
14E
330
1F
100
AcDbEntity
  8
0
 62
     7
100
AcDbCircle
 10
32.50606599999998
 20
63.31092475
 30
0.0
 40
1.60533503
100
AcDbArc
 50
259.0440480000002
 51
342.7803829999997
  0
CIRCLE
  5
14F
330
1F
100
AcDbEntity
  8
0
 62
     7
100
AcDbCircle
 10
-97.80869500000003
 20
49.63652875
 30
0.0
 40
4.25
  0
CIRCLE
  5
150
330
1F
100
AcDbEntity
  8
0
 62
     7
100
AcDbCircle
 10
-97.80869500000003
 20
49.63652875
 30
0.0
 40
3.7399998
  0
CIRCLE
  5
151
330
1F
100
AcDbEntity
  8
0
 62
     7
100
AcDbCircle
 10
-52.808695
 20
49.63652875
 30
0.0
 40
4.25
  0
CIRCLE
  5
152
330
1F
100
AcDbEntity
  8
0
 62
     7
100
AcDbCircle
 10
-52.808695
 20
49.63652875
 30
0.0
 40
3.7399998
  0
ARC
  5
153
330
1F
100
AcDbEntity
  8
0
 62
     7
100
AcDbCircle
 10
-68.88368500000001
 20
92.03652875
 30
0.0
 40
4.6999998
100
AcDbArc
 50
336.8201699999999
 51
383.1798320000002
  0
ARC
  5
154
330
1F
100
AcDbEntity
  8
0
 62
     7
100
AcDbCircle
 10
-101.808695
 20
97.47968875000001
 30
0.0
 40
4.0
100
AcDbArc
 50
135.0000000000003
 51
179.9999600000001
  0
ARC
  5
155
330
1F
100
AcDbEntity
  8
0
 62
     7
100
AcDbCircle
 10
-97.80869500000003
 20
97.63652875
 30
0.0
 40
6.0
100
AcDbArc
 50
179.9999600000001
 51
360.0000100179132
  0
CIRCLE
  5
156
330
1F
100
AcDbEntity
  8
0
 62
     7
100
AcDbCircle
 10
-97.80869500000003
 20
97.63652875
 30
0.0
 40
2.75
  0
ARC
  5
157
330
1F
100
AcDbEntity
  8
0
 62
     7
100
AcDbCircle
 10
-100.151835
 20
99.13652875
 30
0.0
 40
4.0
100
AcDbArc
 50
89.9999818000002
 51
135.0000000000003
  0
ARC
  5
158
330
1F
100
AcDbEntity
  8
0
 62
     7
100
AcDbCircle
 10
-48.808695
 20
97.47966875
 30
0.0
 40
4.0
100
AcDbArc
 50
0.0
 51
44.99998100000012
  0
ARC
  5
159
330
1F
100
AcDbEntity
  8
0
 62
     7
100
AcDbCircle
 10
-50.46555500000002
 20
99.13652875
 30
0.0
 40
4.0
100
AcDbArc
 50
44.9999909999998
 51
89.9999818000002
  0
ARC
  5
15A
330
1F
100
AcDbEntity
  8
0
 62
     7
100
AcDbCircle
 10
-52.808695
 20
97.63652875
 30
0.0
 40
6.0
100
AcDbArc
 50
179.9999799999999
 51
360.0000000000001
  0
CIRCLE
  5
15B
330
1F
100
AcDbEntity
  8
0
 62
     7
100
AcDbCircle
 10
-52.808695
 20
97.63652875
 30
0.0
 40
2.75
  0
ARC
  5
15C
330
1F
100
AcDbEntity
  8
0
 62
     7
100
AcDbCircle
 10
-88.30869500000003
 20
96.63652875
 30
0.0
 40
1.5
100
AcDbArc
 50
89.99998179999966
 51
179.9999600000004
  0
ARC
  5
15D
330
1F
100
AcDbEntity
  8
0
 62
     7
100
AcDbCircle
 10
-62.25592500000002
 20
96.63652875
 30
0.0
 40
1.5
100
AcDbArc
 50
6.042305879999846
 51
89.99998179999966
  0
ARC
  5
15E
330
1F
100
AcDbEntity
  8
0
 62
     7
100
AcDbCircle
 10
-52.808695
 20
97.63652875
 30
0.0
 40
8.0
100
AcDbArc
 50
186.04231
 51
248.3816999999999
  0
ARC
  5
15F
330
1F
100
AcDbEntity
  8
0
 62
     7
100
AcDbCircle
 10
-56.308695
 20
88.80477875
 30
0.0
 40
1.5
100
AcDbArc
 50
0.0
 51
68.38174279999946
  0
ARC
  5
160
330
1F
100
AcDbEntity
  8
0
 62
     7
100
AcDbCircle
 10
-101.808695
 20
49.79338874999999
 30
0.0
 40
4.0
100
AcDbArc
 50
179.9999800000001
 51
224.9999899999999
  0
ARC
  5
161
330
1F
100
AcDbEntity
  8
0
 62
     7
100
AcDbCircle
 10
-97.80869500000003
 20
49.63652875
 30
0.0
 40
6.0
100
AcDbArc
 50
0.0
 51
180.00002
  0
ARC
  5
162
330
1F
100
AcDbEntity
  8
0
 62
     7
100
AcDbCircle
 10
-100.151835
 20
48.13652875
 30
0.0
 40
4.0
100
AcDbArc
 50
224.9999899999999
 51
270.0000200000004
  0
ARC
  5
163
330
1F
100
AcDbEntity
  8
0
 62
     7
100
AcDbCircle
 10
-50.46555500000002
 20
48.13652875
 30
0.0
 40
4.0
100
AcDbArc
 50
270.00002
 51
314.9999800000001
  0
ARC
  5
164
330
1F
100
AcDbEntity
  8
0
 62
     7
100
AcDbCircle
 10
-48.808695
 20
49.79338874999999
 30
0.0
 40
4.0
100
AcDbArc
 50
314.9999800000001
 51
360.0
  0
ARC
  5
165
330
1F
100
AcDbEntity
  8
0
 62
     7
100
AcDbCircle
 10
-52.808695
 20
49.63652875
 30
0.0
 40
6.0
100
AcDbArc
 50
359.99995
 51
539.99996
  0
LINE
  5
166
330
1F
100
AcDbEntity
  8
0
  6
CENTER
 62
     7
100
AcDbLine
 10
-164.862675
 20
73.63652875
 30
0.0
 11
-151.020115
 21
73.63652875
 31
0.0
  0
LINE
  5
167
330
1F
100
AcDbEntity
  8
0
  6
CENTER
 62
     7
100
AcDbLine
 10
42.14130499999999
 20
106.62429875
 30
0.0
 11
42.14130499999999
 21
38.94522875
 31
0.0
  0
LINE
  5
168
330
1F
100
AcDbEntity
  8
0
  6
CENTER
 62
     7
100
AcDbLine
 10
-157.758705
 20
81.45163875
 30
0.0
 11
-157.758705
 21
65.47638874999998
 31
0.0
  0
LINE
  5
169
330
1F
100
AcDbEntity
  8
0
  6
CENTER
 62
     7
100
AcDbLine
 10
-111.908485
 20
73.63652875
 30
0.0
 11
-38.806735
 21
73.63652875
 31
0.0
  0
LINE
  5
16A
330
1F
100
AcDbEntity
  8
0
  6
CENTER
 62
     7
100
AcDbLine
 10
7.429134999999974
 20
73.63652875
 30
0.0
 11
76.66236299999999
 21
73.63652875
 31
0.0
  0
LINE
  5
16B
330
1F
100
AcDbEntity
  8
0
  6
CENTER
 62
     7
100
AcDbLine
 10
-56.85869500000001
 20
69.96154874999999
 30
0.0
 11
-56.85869500000001
 21
59.34487874999999
 31
0.0
  0
LINE
  5
16C
330
1F
100
AcDbEntity
  8
0
  6
CENTER
 62
     7
100
AcDbLine
 10
-93.75870499999999
 20
69.96154874999999
 30
0.0
 11
-93.75870499999999
 21
59.34487874999999
 31
0.0
  0
CIRCLE
  5
16D
330
1F
100
AcDbEntity
  8
0
  6
CENTER
 62
     7
100
AcDbCircle
 10
42.14130499999999
 20
73.63652875
 30
0.0
 40
18.4
  0
LINE
  5
16E
330
1F
100
AcDbEntity
  8
0
  6
DIVIDE
 62
     7
100
AcDbLine
 10
-54.35869500000001
 20
69.63652875
 30
0.0
 11
-54.35869500000001
 21
61.13652875
 31
0.0
  0
LINE
  5
16F
330
1F
100
AcDbEntity
  8
0
  6
DIVIDE
 62
     7
100
AcDbLine
 10
-59.35867500000001
 20
69.63652875
 30
0.0
 11
-59.35867500000001
 21
61.13652875
 31
0.0
  0
LINE
  5
170
330
1F
100
AcDbEntity
  8
0
  6
DIVIDE
 62
     7
100
AcDbLine
 10
-54.791695
 20
69.63652875
 30
0.0
 11
-54.791695
 21
61.13652875
 31
0.0
  0
LINE
  5
171
330
1F
100
AcDbEntity
  8
0
  6
DIVIDE
 62
     7
100
AcDbLine
 10
-58.92569500000002
 20
69.63652875
 30
0.0
 11
-58.92569500000002
 21
61.13652875
 31
0.0
  0
LINE
  5
172
330
1F
100
AcDbEntity
  8
0
  6
DIVIDE
 62
     7
100
AcDbLine
 10
-95.82568499999999
 20
69.63652875
 30
0.0
 11
-95.82568499999999
 21
61.13652875
 31
0.0
  0
LINE
  5
173
330
1F
100
AcDbEntity
  8
0
  6
DIVIDE
 62
     7
100
AcDbLine
 10
-91.69168500000004
 20
69.63652875
 30
0.0
 11
-91.69168500000004
 21
61.13652875
 31
0.0
  0
LINE
  5
174
330
1F
100
AcDbEntity
  8
0
  6
DIVIDE
 62
     7
100
AcDbLine
 10
-96.25870499999999
 20
69.63652875
 30
0.0
 11
-96.25870499999999
 21
61.13652875
 31
0.0
  0
LINE
  5
175
330
1F
100
AcDbEntity
  8
0
  6
DIVIDE
 62
     7
100
AcDbLine
 10
-91.25870499999999
 20
69.63652875
 30
0.0
 11
-91.25870499999999
 21
61.13652875
 31
0.0
  0
TEXT
  5
177
330
1F
100
AcDbEntity
  8
0
 62
     7
100
AcDbText
 10
-37.39236681173912
 20
32.20651882094649
 30
0.0
 40
3.200000047683716
  1
ＴＳＵＢＡＫＩ
 41
0.6684682349718109
  7
FDASTYLE0
 72
     5
 11
-15.72609917830101
 21
32.20651882094649
 31
0.0
100
AcDbText
  0
TEXT
  5
178
330
1F
100
AcDbEntity
  8
0
 62
     7
100
AcDbText
 10
-37.39236681173912
 20
27.40651874942091
 30
0.0
 40
3.200000047683716
  1
CR3812
 41
0.7744433949964145
  7
FDASTYLE0
 72
     5
 11
-18.95299009989373
 21
27.40651874942091
 31
0.0
100
AcDbText
  0
VIEWPORT
  5
2B
330
1B
100
AcDbEntity
 67
     1
  8
0
100
AcDbViewport
 10
-44.100156
 20
67.01540874971045
 30
0.0
 40
724.575114
 41
237.6533400017372
 68
     1
 69
     1
1001
ACAD
1000
MVIEW
1002
{
1070
    16
1010
0.0
1020
0.0
1030
0.0
1010
0.0
1020
0.0
1030
1.0
1040
0.0
1040
237.6533400017372
1040
-44.100156
1040
67.01540874971045
1040
50.0
1040
0.0
1040
0.0
1070
     0
1070
   100
1070
     0
1070
     1
1070
     0
1070
     0
1070
     0
1070
     0
1040
0.0
1040
0.0
1040
0.0
1040
0.5
1040
0.5
1040
0.0
1040
0.0
1070
     0
1002
{
1002
}
1002
}
  0
ENDSEC
  0
SECTION
  2
OBJECTS
  0
DICTIONARY
  5
C
330
0
100
AcDbDictionary
  3
ACAD_GROUP
350
D
  3
ACAD_LAYOUT
350
1A
  3
ACAD_MLINESTYLE
350
17
  3
ACAD_PLOTSETTINGS
350
19
  3
ACDBHEADERROUNDTRIPXREC
350
179
  0
DICTIONARY
  5
D
102
{ACAD_REACTORS
330
C
102
}
330
C
100
AcDbDictionary
  0
DICTIONARY
  5
1A
102
{ACAD_REACTORS
330
C
102
}
330
C
100
AcDbDictionary
  0
DICTIONARY
  5
17
102
{ACAD_REACTORS
330
C
102
}
330
C
100
AcDbDictionary
  3
STANDARD
350
18
  0
DICTIONARY
  5
19
102
{ACAD_REACTORS
330
C
102
}
330
C
100
AcDbDictionary
  0
DICTIONARY
  5
179
102
{ACAD_REACTORS
330
C
102
}
330
C
100
AcDbDictionary
  3
CEPSNTYPE
350
182
  3
DIMSTYLEDATA
350
198
  3
FINGERPRINTGUID
350
183
  3
HYPERLINKBASE
350
17C
  3
INSUNITS
350
181
  3
LAYOUTDICT
350
17E
  3
LWETCUNION
350
180
  3
PLOTSETDICT
350
17F
  3
PSVPSCALE
350
185
  3
PUCSBASE
350
188
  3
PUCSORGBACK
350
18E
  3
PUCSORGBOTTOM
350
18A
  3
PUCSORGFRONT
350
18D
  3
PUCSORGLEFT
350
18B
  3
PUCSORGRIGHT
350
18C
  3
PUCSORGTOP
350
189
  3
PUCSORTHOREF
350
186
  3
PUCSORTHOVIEW
350
187
  3
STYLESHEET
350
17D
  3
TSTACKALIGN
350
17A
  3
TSTACKSIZE
350
17B
  3
UCSBASE
350
191
  3
UCSORGBACK
350
197
  3
UCSORGBOTTOM
350
193
  3
UCSORGFRONT
350
196
  3
UCSORGLEFT
350
194
  3
UCSORGRIGHT
350
195
  3
UCSORGTOP
350
192
  3
UCSORTHOREF
350
18F
  3
UCSORTHOVIEW
350
190
  3
VERSIONGUID
350
184
  0
MLINESTYLE
  5
18
102
{ACAD_REACTORS
330
17
102
}
330
17
100
AcDbMlineStyle
  2
Standard
 70
     0
  3

 62
   256
 51
90.0
 52
90.0
 71
     2
 49
0.5
 62
   256
  6
BYLAYER
 49
-0.5
 62
   256
  6
BYLAYER
  0
XRECORD
  5
182
102
{ACAD_REACTORS
330
179
102
}
330
179
100
AcDbXrecord
 90
        0
  0
XRECORD
  5
198
102
{ACAD_REACTORS
330
179
102
}
330
179
100
AcDbXrecord
1000
DSTYLE
1002
{
1070
   171
 70
     2
1070
   143
 40
25.4
1070
   274
 70
     2
1070
   141
 40
0.09
1070
   271
 70
     4
1070
    43
 40
0.38
1070
    44
 40
0.18
1070
   278
 70
    46
1070
    42
 40
0.0625
1070
   147
 40
0.09
1070
    77
 70
     3
1070
   272
 70
     4
1070
    73
 70
     1
1070
   172
 70
     0
1070
    74
 70
     1
1070
   283
 70
     1
1070
   340
340
11
1070
   140
 40
0.18
1070
   284
 70
     0
1070
    78
 70
     0
1002
}
  0
XRECORD
  5
183
102
{ACAD_REACTORS
330
179
102
}
330
179
100
AcDbXrecord
  1
{F4E9772A-BC44-45C7-A73B-3ECF3CCEAB04}
  0
XRECORD
  5
17C
102
{ACAD_REACTORS
330
179
102
}
330
179
100
AcDbXrecord
  1

  0
XRECORD
  5
181
102
{ACAD_REACTORS
330
179
102
}
330
179
100
AcDbXrecord
 90
        4
  0
XRECORD
  5
17E
102
{ACAD_REACTORS
330
179
102
}
330
179
100
AcDbXrecord
340
1A
  0
XRECORD
  5
180
102
{ACAD_REACTORS
330
179
102
}
330
179
100
AcDbXrecord
 90
    10781
  0
XRECORD
  5
17F
102
{ACAD_REACTORS
330
179
102
}
330
179
100
AcDbXrecord
340
19
  0
XRECORD
  5
185
102
{ACAD_REACTORS
330
179
102
}
330
179
100
AcDbXrecord
 40
0.0
  0
XRECORD
  5
188
102
{ACAD_REACTORS
330
179
102
}
330
179
100
AcDbXrecord
340
0
  0
XRECORD
  5
18E
102
{ACAD_REACTORS
330
179
102
}
330
179
100
AcDbXrecord
 10
0.0
 20
0.0
 30
0.0
  0
XRECORD
  5
18A
102
{ACAD_REACTORS
330
179
102
}
330
179
100
AcDbXrecord
 10
0.0
 20
0.0
 30
0.0
  0
XRECORD
  5
18D
102
{ACAD_REACTORS
330
179
102
}
330
179
100
AcDbXrecord
 10
0.0
 20
0.0
 30
0.0
  0
XRECORD
  5
18B
102
{ACAD_REACTORS
330
179
102
}
330
179
100
AcDbXrecord
 10
0.0
 20
0.0
 30
0.0
  0
XRECORD
  5
18C
102
{ACAD_REACTORS
330
179
102
}
330
179
100
AcDbXrecord
 10
0.0
 20
0.0
 30
0.0
  0
XRECORD
  5
189
102
{ACAD_REACTORS
330
179
102
}
330
179
100
AcDbXrecord
 10
0.0
 20
0.0
 30
0.0
  0
XRECORD
  5
186
102
{ACAD_REACTORS
330
179
102
}
330
179
100
AcDbXrecord
340
0
  0
XRECORD
  5
187
102
{ACAD_REACTORS
330
179
102
}
330
179
100
AcDbXrecord
 70
     0
  0
XRECORD
  5
17D
102
{ACAD_REACTORS
330
179
102
}
330
179
100
AcDbXrecord
  1

  0
XRECORD
  5
17A
102
{ACAD_REACTORS
330
179
102
}
330
179
100
AcDbXrecord
 90
        1
  0
XRECORD
  5
17B
102
{ACAD_REACTORS
330
179
102
}
330
179
100
AcDbXrecord
 90
       70
  0
XRECORD
  5
191
102
{ACAD_REACTORS
330
179
102
}
330
179
100
AcDbXrecord
340
0
  0
XRECORD
  5
197
102
{ACAD_REACTORS
330
179
102
}
330
179
100
AcDbXrecord
 10
0.0
 20
0.0
 30
0.0
  0
XRECORD
  5
193
102
{ACAD_REACTORS
330
179
102
}
330
179
100
AcDbXrecord
 10
0.0
 20
0.0
 30
0.0
  0
XRECORD
  5
196
102
{ACAD_REACTORS
330
179
102
}
330
179
100
AcDbXrecord
 10
0.0
 20
0.0
 30
0.0
  0
XRECORD
  5
194
102
{ACAD_REACTORS
330
179
102
}
330
179
100
AcDbXrecord
 10
0.0
 20
0.0
 30
0.0
  0
XRECORD
  5
195
102
{ACAD_REACTORS
330
179
102
}
330
179
100
AcDbXrecord
 10
0.0
 20
0.0
 30
0.0
  0
XRECORD
  5
192
102
{ACAD_REACTORS
330
179
102
}
330
179
100
AcDbXrecord
 10
0.0
 20
0.0
 30
0.0
  0
XRECORD
  5
18F
102
{ACAD_REACTORS
330
179
102
}
330
179
100
AcDbXrecord
340
0
  0
XRECORD
  5
190
102
{ACAD_REACTORS
330
179
102
}
330
179
100
AcDbXrecord
 70
     0
  0
XRECORD
  5
184
102
{ACAD_REACTORS
330
179
102
}
330
179
100
AcDbXrecord
  1
{FAEB1C32-E019-11D5-929B-00C0DF256EC4}
  0
ENDSEC
  0
EOF
