  0
SECTION
  2
HEADER
  9
$ACADVER
  1
AC1014
  9
$ACADMAINTVER
 70
     9
  9
$DWGCODEPAGE
  3
ANSI_932
  9
$INSBASE
 10
0.0
 20
0.0
 30
0.0
  9
$EXTMIN
 10
-2541.239925
 20
-823.1343550249999
 30
0.0
  9
$EXTMAX
 10
2438.38494
 20
1228.1909600125
 30
0.0
  9
$LIMMIN
 10
-895.82353
 20
-686.7574549999999
  9
$LIMMAX
 10
895.82353
 20
686.7574549999999
  9
$ORTHOMODE
 70
     0
  9
$REGENMODE
 70
     1
  9
$FILLMODE
 70
     1
  9
$QTEXTMODE
 70
     0
  9
$MIRRTEXT
 70
     1
  9
$DRAGMODE
 70
     2
  9
$LTSCALE
 40
1.0
  9
$OSMODE
 70
    37
  9
$ATTMODE
 70
     1
  9
$TEXTSIZE
 40
0.2
  9
$TRACEWID
 40
0.05
  9
$TEXTSTYLE
  7
STANDARD
  9
$CLAYER
  8
0
  9
$CELTYPE
  6
BYLAYER
  9
$CECOLOR
 62
   256
  9
$CELTSCALE
 40
1.0
  9
$DELOBJ
 70
     1
  9
$DISPSILH
 70
     0
  9
$DIMSCALE
 40
1.0
  9
$DIMASZ
 40
2.5
  9
$DIMEXO
 40
0.0625
  9
$DIMDLI
 40
0.38
  9
$DIMRND
 40
0.0
  9
$DIMDLE
 40
0.0
  9
$DIMEXE
 40
0.18
  9
$DIMTP
 40
0.0
  9
$DIMTM
 40
0.0
  9
$DIMTXT
 40
0.18
  9
$DIMCEN
 40
0.09
  9
$DIMTSZ
 40
0.0
  9
$DIMTOL
 70
     0
  9
$DIMLIM
 70
     0
  9
$DIMTIH
 70
     1
  9
$DIMTOH
 70
     1
  9
$DIMSE1
 70
     0
  9
$DIMSE2
 70
     0
  9
$DIMTAD
 70
     3
  9
$DIMZIN
 70
     0
  9
$DIMBLK
  1

  9
$DIMASO
 70
     1
  9
$DIMSHO
 70
     1
  9
$DIMPOST
  1

  9
$DIMAPOST
  1

  9
$DIMALT
 70
     0
  9
$DIMALTD
 70
     2
  9
$DIMALTF
 40
25.4
  9
$DIMLFAC
 40
1.0
  9
$DIMTOFL
 70
     0
  9
$DIMTVP
 40
0.0
  9
$DIMTIX
 70
     0
  9
$DIMSOXD
 70
     0
  9
$DIMSAH
 70
     0
  9
$DIMBLK1
  1

  9
$DIMBLK2
  1

  9
$DIMSTYLE
  2
STANDARD
  9
$DIMCLRD
 70
     0
  9
$DIMCLRE
 70
     0
  9
$DIMCLRT
 70
     0
  9
$DIMTFAC
 40
1.0
  9
$DIMGAP
 40
0.09
  9
$DIMJUST
 70
     0
  9
$DIMSD1
 70
     0
  9
$DIMSD2
 70
     0
  9
$DIMTOLJ
 70
     1
  9
$DIMTZIN
 70
     0
  9
$DIMALTZ
 70
     0
  9
$DIMALTTZ
 70
     0
  9
$DIMFIT
 70
     3
  9
$DIMUPT
 70
     0
  9
$DIMUNIT
 70
     2
  9
$DIMDEC
 70
     4
  9
$DIMTDEC
 70
     4
  9
$DIMALTU
 70
     2
  9
$DIMALTTD
 70
     2
  9
$DIMTXSTY
  7
STANDARD
  9
$DIMAUNIT
 70
     0
  9
$LUNITS
 70
     2
  9
$LUPREC
 70
     4
  9
$SKETCHINC
 40
0.1
  9
$FILLETRAD
 40
0.5
  9
$AUNITS
 70
     0
  9
$AUPREC
 70
     0
  9
$MENU
  1
.
  9
$ELEVATION
 40
0.0
  9
$PELEVATION
 40
0.0
  9
$THICKNESS
 40
0.0
  9
$LIMCHECK
 70
     0
  9
$CHAMFERA
 40
0.5
  9
$CHAMFERB
 40
0.5
  9
$CHAMFERC
 40
1.0
  9
$CHAMFERD
 40
0.0
  9
$SKPOLY
 70
     0
  9
$TDCREATE
 40
2454068.631607639
  9
$TDUPDATE
 40
2454068.63160765
  9
$TDINDWG
 40
0.0000000116
  9
$TDUSRTIMER
 40
0.0000000116
  9
$USRTIMER
 70
     1
  9
$ANGBASE
 50
0.0
  9
$ANGDIR
 70
     0
  9
$PDMODE
 70
     0
  9
$PDSIZE
 40
1.0
  9
$PLINEWID
 40
0.0
  9
$COORDS
 70
     1
  9
$SPLFRAME
 70
     0
  9
$SPLINETYPE
 70
     6
  9
$SPLINESEGS
 70
     8
  9
$ATTDIA
 70
     0
  9
$ATTREQ
 70
     1
  9
$HANDLING
 70
     1
  9
$HANDSEED
  5
1E5
  9
$SURFTAB1
 70
     6
  9
$SURFTAB2
 70
     6
  9
$SURFTYPE
 70
     6
  9
$SURFU
 70
     6
  9
$SURFV
 70
     6
  9
$UCSNAME
  2

  9
$UCSORG
 10
0.0
 20
0.0
 30
0.0
  9
$UCSXDIR
 10
1.0
 20
0.0
 30
0.0
  9
$UCSYDIR
 10
0.0
 20
1.0
 30
0.0
  9
$PUCSNAME
  2

  9
$PUCSORG
 10
0.0
 20
0.0
 30
0.0
  9
$PUCSXDIR
 10
1.0
 20
0.0
 30
0.0
  9
$PUCSYDIR
 10
0.0
 20
1.0
 30
0.0
  9
$USERI1
 70
     0
  9
$USERI2
 70
     0
  9
$USERI3
 70
     0
  9
$USERI4
 70
     0
  9
$USERI5
 70
     0
  9
$USERR1
 40
0.0
  9
$USERR2
 40
0.0
  9
$USERR3
 40
0.0
  9
$USERR4
 40
0.0
  9
$USERR5
 40
0.0
  9
$WORLDVIEW
 70
     1
  9
$SHADEDGE
 70
     3
  9
$SHADEDIF
 70
    70
  9
$TILEMODE
 70
     1
  9
$MAXACTVP
 70
    64
  9
$PINSBASE
 10
0.0
 20
0.0
 30
0.0
  9
$PLIMCHECK
 70
     0
  9
$PEXTMIN
 10
1.000000000000000E+20
 20
1.000000000000000E+20
 30
1.000000000000000E+20
  9
$PEXTMAX
 10
-1.000000000000000E+20
 20
-1.000000000000000E+20
 30
-1.000000000000000E+20
  9
$PLIMMIN
 10
0.0
 20
0.0
  9
$PLIMMAX
 10
12.0
 20
9.0
  9
$UNITMODE
 70
     0
  9
$VISRETAIN
 70
     0
  9
$PLINEGEN
 70
     1
  9
$PSLTSCALE
 70
     0
  9
$TREEDEPTH
 70
  3020
  9
$PICKSTYLE
 70
     1
  9
$CMLSTYLE
  2
STANDARD
  9
$CMLJUST
 70
     0
  9
$CMLSCALE
 40
1.0
  9
$PROXYGRAPHICS
 70
     0
  9
$MEASUREMENT
 70
     1
  0
ENDSEC
  0
SECTION
  2
CLASSES
  0
CLASS
  1
ACDBDICTIONARYWDFLT
  2
AcDbDictionaryWithDefault
  3
ObjectDBX Classes
 90
        0
280
     0
281
     0
  0
CLASS
  1
XRECORD
  2
AcDbXrecord
  3
AutoCAD 2000
 90
        0
280
     0
281
     0
  0
CLASS
  1
LWPOLYLINE
  2
AcDbPolyline
  3
AutoCAD 2000
 90
        0
280
     0
281
     1
  0
CLASS
  1
HATCH
  2
AcDbHatch
  3
AutoCAD 2000
 90
        0
280
     0
281
     1
  0
CLASS
  1
ACDBPLACEHOLDER
  2
AcDbPlaceHolder
  3
ObjectDBX Classes
 90
        0
280
     0
281
     0
  0
CLASS
  1
LAYOUT
  2
AcDbLayout
  3
ObjectDBX Classes
 90
        0
280
     0
281
     0
  0
ENDSEC
  0
SECTION
  2
TABLES
  0
TABLE
  2
VPORT
  5
8
330
0
100
AcDbSymbolTable
 70
     1
  0
VPORT
  5
29
330
8
100
AcDbSymbolTableRecord
100
AcDbViewportTableRecord
  2
*ACTIVE
 70
     0
 10
0.0
 20
0.0
 11
1.0
 21
1.0
 12
0.0
 22
0.0
 13
0.0
 23
0.0
 14
0.5
 24
0.5
 15
0.5
 25
0.5
 16
0.0
 26
0.0
 36
1.0
 17
-51.42749250000009
 27
202.5283024937501
 37
0.0
 40
697.4506071127501
 41
2.427515922753075
 42
50.0
 43
0.0
 44
0.0
 50
0.0
 51
0.0
 71
     0
 72
  1000
 73
     1
 74
     1
 75
     0
 76
     0
 77
     0
 78
     0
  0
ENDTAB
  0
TABLE
  2
LTYPE
  5
5
330
0
100
AcDbSymbolTable
 70
    28
  0
LTYPE
  5
14
330
5
100
AcDbSymbolTableRecord
100
AcDbLinetypeTableRecord
  2
BYBLOCK
 70
     0
  3

 72
    65
 73
     0
 40
0.0
  0
LTYPE
  5
15
330
5
100
AcDbSymbolTableRecord
100
AcDbLinetypeTableRecord
  2
BYLAYER
 70
     0
  3

 72
    65
 73
     0
 40
0.0
  0
LTYPE
  5
16
330
5
100
AcDbSymbolTableRecord
100
AcDbLinetypeTableRecord
  2
CONTINUOUS
 70
     0
  3
Solid line
 72
    65
 73
     0
 40
0.0
  0
LTYPE
  5
2C
330
5
100
AcDbSymbolTableRecord
100
AcDbLinetypeTableRecord
  2
HIDDENX2
 70
     0
  3
CADPAC LINETYPE
 72
    65
 73
     2
 40
32.90444554637293
 49
24.6783341597797
 74
     0
 49
-8.226111386593232
 74
     0
  0
LTYPE
  5
2D
330
5
100
AcDbSymbolTableRecord
100
AcDbLinetypeTableRecord
  2
HIDDEN
 70
     0
  3
CADPAC LINETYPE
 72
    65
 73
     2
 40
24.6783341597797
 49
16.45222277318646
 74
     0
 49
-8.226111386593232
 74
     0
  0
LTYPE
  5
2E
330
5
100
AcDbSymbolTableRecord
100
AcDbLinetypeTableRecord
  2
HIDDEN2
 70
     0
  3
CADPAC LINETYPE
 72
    65
 73
     2
 40
20.56527846648308
 49
12.33916707988985
 74
     0
 49
-8.226111386593232
 74
     0
  0
LTYPE
  5
2F
330
5
100
AcDbSymbolTableRecord
100
AcDbLinetypeTableRecord
  2
DASHED
 70
     0
  3
CADPAC LINETYPE
 72
    65
 73
     2
 40
19.74266732782371
 49
9.871333663911855
 74
     0
 49
-9.871333663911855
 74
     0
  0
LTYPE
  5
30
330
5
100
AcDbSymbolTableRecord
100
AcDbLinetypeTableRecord
  2
DASHED2
 70
     0
  3
CADPAC LINETYPE
 72
    65
 73
     2
 40
11.51655594123042
 49
9.871333663911855
 74
     0
 49
-1.645222277318567
 74
     0
  0
LTYPE
  5
31
330
5
100
AcDbSymbolTableRecord
100
AcDbLinetypeTableRecord
  2
DASHEDX2
 70
     0
  3
CADPAC LINETYPE
 72
    65
 73
     2
 40
11.51655594123042
 49
9.871333663911855
 74
     0
 49
-1.645222277318567
 74
     0
  0
LTYPE
  5
32
330
5
100
AcDbSymbolTableRecord
100
AcDbLinetypeTableRecord
  2
DOTX2
 70
     0
  3
CADPAC LINETYPE
 72
    65
 73
     2
 40
2.056527846648208
 49
0.0
 74
     0
 49
-2.056527846648208
 74
     0
  0
LTYPE
  5
33
330
5
100
AcDbSymbolTableRecord
100
AcDbLinetypeTableRecord
  2
DOT
 70
     0
  3
CADPAC LINETYPE
 72
    65
 73
     2
 40
1.645222277318567
 49
0.0
 74
     0
 49
-1.645222277318567
 74
     0
  0
LTYPE
  5
34
330
5
100
AcDbSymbolTableRecord
100
AcDbLinetypeTableRecord
  2
DOT2
 70
     0
  3
CADPAC LINETYPE
 72
    65
 73
     2
 40
1.233916707988925
 49
0.0
 74
     0
 49
-1.233916707988925
 74
     0
  0
LTYPE
  5
35
330
5
100
AcDbSymbolTableRecord
100
AcDbLinetypeTableRecord
  2
CENTERX2
 70
     0
  3
CADPAC LINETYPE
 72
    65
 73
     4
 40
49.35666831955939
 49
20.56527846648308
 74
     0
 49
-10.28263923324154
 74
     0
 49
8.226111386593232
 74
     0
 49
-10.28263923324154
 74
     0
  0
LTYPE
  5
36
330
5
100
AcDbSymbolTableRecord
100
AcDbLinetypeTableRecord
  2
CENTER
 70
     0
  3
CADPAC LINETYPE
 72
    65
 73
     4
 40
37.84011237832887
 49
16.45222277318646
 74
     0
 49
-8.226111386593232
 74
     0
 49
4.935666831955939
 74
     0
 49
-8.226111386593232
 74
     0
  0
LTYPE
  5
37
330
5
100
AcDbSymbolTableRecord
100
AcDbLinetypeTableRecord
  2
CENTER2
 70
     0
  3
CADPAC LINETYPE
 72
    65
 73
     4
 40
26.32355643709834
 49
12.33916707988985
 74
     0
 49
-6.169583539944924
 74
     0
 49
1.645222277318647
 74
     0
 49
-6.169583539944924
 74
     0
  0
LTYPE
  5
38
330
5
100
AcDbSymbolTableRecord
100
AcDbLinetypeTableRecord
  2
DASHDOTX2
 70
     0
  3
CADPAC LINETYPE
 72
    65
 73
     4
 40
23.03311188246084
 49
19.74266732782371
 74
     0
 49
-1.645222277318567
 74
     0
 49
0.0
 74
     0
 49
-1.645222277318567
 74
     0
  0
LTYPE
  5
39
330
5
100
AcDbSymbolTableRecord
100
AcDbLinetypeTableRecord
  2
DASHDOT
 70
     0
  3
CADPAC LINETYPE
 72
    65
 73
     4
 40
27.96877871441677
 49
19.74266732782371
 74
     0
 49
-1.645222277318567
 74
     0
 49
4.935666831955928
 74
     0
 49
-1.645222277318567
 74
     0
  0
LTYPE
  5
3A
330
5
100
AcDbSymbolTableRecord
100
AcDbLinetypeTableRecord
  2
DASHDOT2
 70
     0
  3
CADPAC LINETYPE
 72
    65
 73
     4
 40
17.76840059504123
 49
14.80700049586778
 74
     0
 49
-1.233916707988925
 74
     0
 49
0.4935666831955928
 74
     0
 49
-1.233916707988925
 74
     0
  0
LTYPE
  5
3B
330
5
100
AcDbSymbolTableRecord
100
AcDbLinetypeTableRecord
  2
DIVIDEX2
 70
     0
  3
CADPAC LINETYPE
 72
    65
 73
     6
 40
24.67833415977941
 49
19.74266732782371
 74
     0
 49
-1.645222277318567
 74
     0
 49
0.0
 74
     0
 49
-1.645222277318567
 74
     0
 49
0.0
 74
     0
 49
-1.645222277318567
 74
     0
  0
LTYPE
  5
3C
330
5
100
AcDbSymbolTableRecord
100
AcDbLinetypeTableRecord
  2
DIVIDE
 70
     0
  3
CADPAC LINETYPE
 72
    65
 73
     6
 40
34.54966782369127
 49
19.74266732782371
 74
     0
 49
-1.645222277318567
 74
     0
 49
4.935666831955928
 74
     0
 49
-1.645222277318567
 74
     0
 49
4.935666831955928
 74
     0
 49
-1.645222277318567
 74
     0
  0
LTYPE
  5
3D
330
5
100
AcDbSymbolTableRecord
100
AcDbLinetypeTableRecord
  2
DIVIDE2
 70
     0
  3
CADPAC LINETYPE
 72
    65
 73
     6
 40
25.91225086776845
 49
14.80700049586778
 74
     0
 49
-1.233916707988925
 74
     0
 49
3.701750123966946
 74
     0
 49
-1.233916707988925
 74
     0
 49
3.701750123966946
 74
     0
 49
-1.233916707988925
 74
     0
  0
LTYPE
  5
3E
330
5
100
AcDbSymbolTableRecord
100
AcDbLinetypeTableRecord
  2
BORDERX2
 70
     0
  3
CADPAC LINETYPE
 72
    65
 73
     6
 40
71.97847463269078
 49
20.56527846648308
 74
     0
 49
-10.28263923324154
 74
     0
 49
20.56527846648308
 74
     0
 49
-10.28263923324154
 74
     0
 49
0.0
 74
     0
 49
-10.28263923324154
 74
     0
  0
LTYPE
  5
3F
330
5
100
AcDbSymbolTableRecord
100
AcDbLinetypeTableRecord
  2
BORDER
 70
     0
  3
CADPAC LINETYPE
 72
    65
 73
     6
 40
57.58277970615262
 49
16.45222277318646
 74
     0
 49
-8.226111386593232
 74
     0
 49
16.45222277318646
 74
     0
 49
-8.226111386593232
 74
     0
 49
0.0
 74
     0
 49
-8.226111386593232
 74
     0
  0
LTYPE
  5
40
330
5
100
AcDbSymbolTableRecord
100
AcDbLinetypeTableRecord
  2
BORDER2
 70
     0
  3
CADPAC LINETYPE
 72
    65
 73
     6
 40
21.38788960514222
 49
9.871333663911855
 74
     0
 49
-1.645222277318567
 74
     0
 49
0.0
 74
     0
 49
-1.645222277318567
 74
     0
 49
0.0
 74
     0
 49
-8.226111386593232
 74
     0
  0
LTYPE
  5
41
330
5
100
AcDbSymbolTableRecord
100
AcDbLinetypeTableRecord
  2
PHANTOMX2
 70
     0
  3
CADPAC LINETYPE
 72
    65
 73
     6
 40
61.69583539944924
 49
20.56527846648308
 74
     0
 49
-8.226111386593232
 74
     0
 49
8.226111386593232
 74
     0
 49
-8.226111386593232
 74
     0
 49
8.226111386593232
 74
     0
 49
-8.226111386593232
 74
     0
  0
LTYPE
  5
42
330
5
100
AcDbSymbolTableRecord
100
AcDbLinetypeTableRecord
  2
PHANTOM
 70
     0
  3
CADPAC LINETYPE
 72
    65
 73
     6
 40
51.00189059687804
 49
16.45222277318646
 74
     0
 49
-8.226111386593232
 74
     0
 49
4.935666831955939
 74
     0
 49
-8.226111386593232
 74
     0
 49
4.935666831955939
 74
     0
 49
-8.226111386593232
 74
     0
  0
LTYPE
  5
43
330
5
100
AcDbSymbolTableRecord
100
AcDbLinetypeTableRecord
  2
PHANTOM2
 70
     0
  3
CADPAC LINETYPE
 72
    65
 73
     6
 40
43.59839034894412
 49
12.33916707988985
 74
     0
 49
-8.226111386593232
 74
     0
 49
3.290444554637293
 74
     0
 49
-8.226111386593232
 74
     0
 49
3.290444554637293
 74
     0
 49
-8.226111386593232
 74
     0
  0
LTYPE
  5
44
330
5
100
AcDbSymbolTableRecord
100
AcDbLinetypeTableRecord
  2
ACAD_ISO06W100
 70
     0
  3
CADPAC LINETYPE
 72
    65
 73
     8
 40
26.32355643709798
 49
19.74266732782371
 74
     0
 49
-1.645222277318567
 74
     0
 49
0.0
 74
     0
 49
-1.645222277318567
 74
     0
 49
0.0
 74
     0
 49
-1.645222277318567
 74
     0
 49
0.0
 74
     0
 49
-1.645222277318567
 74
     0
  0
LTYPE
  5
45
330
5
100
AcDbSymbolTableRecord
100
AcDbLinetypeTableRecord
  2
ACAD_ISO13W100
 70
     0
  3
CADPAC LINETYPE
 72
    65
 73
     8
 40
65.80889109274585
 49
16.45222277318646
 74
     0
 49
-8.226111386593232
 74
     0
 49
16.45222277318646
 74
     0
 49
-8.226111386593232
 74
     0
 49
0.0
 74
     0
 49
-8.226111386593232
 74
     0
 49
0.0
 74
     0
 49
-8.226111386593232
 74
     0
  0
LTYPE
  5
46
330
5
100
AcDbSymbolTableRecord
100
AcDbLinetypeTableRecord
  2
ACAD_ISO14W100
 70
     0
  3
CADPAC LINETYPE
 72
    65
 73
     8
 40
49.35666831955939
 49
16.45222277318646
 74
     0
 49
-8.226111386593232
 74
     0
 49
0.0
 74
     0
 49
-8.226111386593232
 74
     0
 49
0.0
 74
     0
 49
-8.226111386593232
 74
     0
 49
0.0
 74
     0
 49
-8.226111386593232
 74
     0
  0
ENDTAB
  0
TABLE
  2
LAYER
  5
2
330
0
100
AcDbSymbolTable
 70
     1
  0
LAYER
  5
10
330
2
100
AcDbSymbolTableRecord
100
AcDbLayerTableRecord
  2
0
 70
     0
 62
     7
  6
CONTINUOUS
  0
ENDTAB
  0
TABLE
  2
STYLE
  5
3
330
0
100
AcDbSymbolTable
 70
     2
  0
STYLE
  5
11
330
3
100
AcDbSymbolTableRecord
100
AcDbTextStyleTableRecord
  2
STANDARD
 70
     0
 40
0.0
 41
1.0
 50
0.0
 71
     0
 42
0.2
  3
txt
  4

  0
STYLE
  5
1C2
330
3
100
AcDbSymbolTableRecord
100
AcDbTextStyleTableRecord
  2
FDASTYLE0
 70
     0
 40
20.0
 41
0.6684682282186804
 50
0.0
 71
     0
 42
0.2
  3
txt.shx
  4
bigfont
  0
ENDTAB
  0
TABLE
  2
VIEW
  5
6
330
0
100
AcDbSymbolTable
 70
     0
  0
ENDTAB
  0
TABLE
  2
UCS
  5
7
330
0
100
AcDbSymbolTable
 70
     0
  0
ENDTAB
  0
TABLE
  2
APPID
  5
9
330
0
100
AcDbSymbolTable
 70
     2
  0
APPID
  5
12
330
9
100
AcDbSymbolTableRecord
100
AcDbRegAppTableRecord
  2
ACAD
 70
     0
  0
APPID
  5
2A
330
9
100
AcDbSymbolTableRecord
100
AcDbRegAppTableRecord
  2
DAFUSIONOUT
 70
     0
  0
ENDTAB
  0
TABLE
  2
DIMSTYLE
  5
A
330
0
100
AcDbSymbolTable
 70
     1
  0
DIMSTYLE
105
27
330
A
100
AcDbSymbolTableRecord
100
AcDbDimStyleTableRecord
  2
STANDARD
 70
     0
  3

  4

  5

  6

  7

 40
1.0
 41
0.18
 42
0.0625
 43
0.38
 44
0.18
 45
0.0
 46
0.0
 47
0.0
 48
0.0
140
0.18
141
0.09
142
0.0
143
25.4
144
1.0
145
0.0
146
1.0
147
0.09
 71
     0
 72
     0
 73
     1
 74
     1
 75
     0
 76
     0
 77
     0
 78
     0
170
     0
171
     2
172
     0
173
     0
174
     0
175
     0
176
     0
177
     0
178
     0
270
     2
271
     4
272
     4
273
     2
274
     2
340
11
275
     0
280
     0
281
     0
282
     0
283
     1
284
     0
285
     0
286
     0
287
     3
288
     0
  0
ENDTAB
  0
TABLE
  2
BLOCK_RECORD
  5
1
330
0
100
AcDbSymbolTable
 70
     1
  0
BLOCK_RECORD
  5
1F
330
1
100
AcDbSymbolTableRecord
100
AcDbBlockTableRecord
  2
*MODEL_SPACE
  0
BLOCK_RECORD
  5
1B
330
1
100
AcDbSymbolTableRecord
100
AcDbBlockTableRecord
  2
*PAPER_SPACE
  0
ENDTAB
  0
ENDSEC
  0
SECTION
  2
BLOCKS
  0
BLOCK
  5
20
330
1F
100
AcDbEntity
  8
0
100
AcDbBlockBegin
  2
*MODEL_SPACE
 70
     0
 71
     0
 10
0.0
 20
0.0
 30
0.0
  3
*MODEL_SPACE
  1

  0
ENDBLK
  5
21
330
1F
100
AcDbEntity
  8
0
100
AcDbBlockEnd
  0
BLOCK
  5
1C
330
1B
100
AcDbEntity
 67
     1
  8
0
100
AcDbBlockBegin
  2
*PAPER_SPACE
 70
     0
 71
     0
 10
0.0
 20
0.0
 30
0.0
  3
*PAPER_SPACE
  1

  0
ENDBLK
  5
1D
330
1B
100
AcDbEntity
 67
     1
  8
0
100
AcDbBlockEnd
  0
ENDSEC
  0
SECTION
  2
ENTITIES
  0
LINE
  5
47
330
1F
100
AcDbEntity
  8
0
  6
DASHED
 62
     7
100
AcDbLine
 10
-259.6775200000001
 20
473.9158550000001
 30
0.0
 11
-259.6775200000001
 21
447.6708550000001
 31
0.0
  0
LINE
  5
48
330
1F
100
AcDbEntity
  8
0
  6
DASHED
 62
     7
100
AcDbLine
 10
-225.5774700000001
 20
473.9158550000001
 30
0.0
 11
-225.5774700000001
 21
447.6708550000001
 31
0.0
  0
LINE
  5
49
330
1F
100
AcDbEntity
  8
0
  6
DASHED
 62
     7
100
AcDbLine
 10
-252.6775200000001
 20
480.9159050000002
 30
0.0
 11
-232.5775199999999
 21
480.9159050000002
 31
0.0
  0
LINE
  5
4A
330
1F
100
AcDbEntity
  8
0
  6
DASHED
 62
     7
100
AcDbLine
 10
-259.67757
 20
473.9160050000003
 30
0.0
 11
-252.6775200000001
 21
480.9159550000003
 31
0.0
  0
LINE
  5
4B
330
1F
100
AcDbEntity
  8
0
  6
DASHED
 62
     7
100
AcDbLine
 10
-232.5774199999997
 20
480.9158049999998
 30
0.0
 11
-225.5773699999999
 21
473.9157050000002
 31
0.0
  0
LINE
  5
4C
330
1F
100
AcDbEntity
  8
0
  6
DASHED
 62
     7
100
AcDbLine
 10
-297.1775200000001
 20
473.9158550000001
 30
0.0
 11
-297.1775200000001
 21
447.6708550000001
 31
0.0
  0
LINE
  5
4D
330
1F
100
AcDbEntity
  8
0
  6
DASHED
 62
     7
100
AcDbLine
 10
-297.1775200000001
 20
473.9159050000001
 30
0.0
 11
-304.17757
 21
480.9159550000001
 31
0.0
  0
LINE
  5
4E
330
1F
100
AcDbEntity
  8
0
  6
DASHED
 62
     7
100
AcDbLine
 10
-304.17747
 20
480.9159050000002
 30
0.0
 11
-324.2774699999999
 21
480.9159050000002
 31
0.0
  0
LINE
  5
4F
330
1F
100
AcDbEntity
  8
0
  6
DASHED
 62
     7
100
AcDbLine
 10
-324.2774700000001
 20
480.9159050000004
 30
0.0
 11
-331.2774700000001
 21
473.9158550000003
 31
0.0
  0
LINE
  5
50
330
1F
100
AcDbEntity
  8
0
  6
DASHED
 62
     7
100
AcDbLine
 10
-331.27752
 20
473.9158550000001
 30
0.0
 11
-331.27752
 21
447.6708550000001
 31
0.0
  0
LINE
  5
51
330
1F
100
AcDbEntity
  8
0
 62
     7
100
AcDbLine
 10
-128.6775200000001
 20
431.4159050000001
 30
0.0
 11
-108.67752
 21
431.4159050000001
 31
0.0
  0
LINE
  5
52
330
1F
100
AcDbEntity
  8
0
 62
     7
100
AcDbLine
 10
-259.6775200000001
 20
291.9158550000001
 30
0.0
 11
-259.6775200000001
 21
244.4158550000001
 31
0.0
  0
LINE
  5
53
330
1F
100
AcDbEntity
  8
0
 62
     7
100
AcDbLine
 10
-297.1775200000001
 20
291.9158550000001
 30
0.0
 11
-297.1775200000001
 21
244.4158550000001
 31
0.0
  0
LINE
  5
54
330
1F
100
AcDbEntity
  8
0
 62
     7
100
AcDbLine
 10
-18.67751999999996
 20
64.41585500000008
 30
0.0
 11
-18.67751999999996
 21
291.9158550000001
 31
0.0
  0
LINE
  5
55
330
1F
100
AcDbEntity
  8
0
 62
     7
100
AcDbLine
 10
-25.67746999999997
 20
57.41585500000008
 30
0.0
 11
-18.67741999999987
 21
64.41585499999997
 31
0.0
  0
LINE
  5
56
330
1F
100
AcDbEntity
  8
0
 62
     7
100
AcDbLine
 10
-138.3775199999999
 20
57.41585500000008
 30
0.0
 11
-25.67746999999997
 21
57.41585500000008
 31
0.0
  0
LINE
  5
57
330
1F
100
AcDbEntity
  8
0
 62
     7
100
AcDbLine
 10
-418.3776199999999
 20
57.41585500000008
 30
0.0
 11
-531.1774199999999
 21
57.41585500000008
 31
0.0
  0
LINE
  5
58
330
1F
100
AcDbEntity
  8
0
 62
     7
100
AcDbLine
 10
-531.1777200000003
 20
57.41595500000028
 30
0.0
 11
-538.1777200000003
 21
64.41595500000005
 31
0.0
  0
LINE
  5
59
330
1F
100
AcDbEntity
  8
0
 62
     7
100
AcDbLine
 10
-538.17757
 20
64.41585500000008
 30
0.0
 11
-538.17757
 21
291.9158550000001
 31
0.0
  0
LINE
  5
5A
330
1F
100
AcDbEntity
  8
0
 62
     7
100
AcDbLine
 10
-428.17757
 20
431.4159050000001
 30
0.0
 11
-448.17757
 21
431.4159050000001
 31
0.0
  0
LINE
  5
5B
330
1F
100
AcDbEntity
  8
0
 62
     7
100
AcDbLine
 10
-531.1774199999999
 20
57.41585500000008
 30
0.0
 11
-531.1774199999999
 21
244.4158550000001
 31
0.0
  0
LINE
  5
5C
330
1F
100
AcDbEntity
  8
0
 62
     7
100
AcDbLine
 10
-25.67746999999997
 20
57.41585500000008
 30
0.0
 11
-25.67746999999997
 21
244.4158550000001
 31
0.0
  0
LINE
  5
5D
330
1F
100
AcDbEntity
  8
0
 62
     7
100
AcDbLine
 10
280.9016800000001
 20
365.0313550000002
 30
0.0
 11
289.41553
 21
374.8567550000001
 31
0.0
  0
LINE
  5
5E
330
1F
100
AcDbEntity
  8
0
 62
     7
100
AcDbLine
 10
292.2381800000002
 20
355.208405
 30
0.0
 11
300.7519800000001
 21
365.033855
 31
0.0
  0
LINE
  5
5F
330
1F
100
AcDbEntity
  8
0
 62
     7
100
AcDbLine
 10
247.06138
 20
239.0488050000001
 30
0.0
 11
248.9115800000001
 21
251.9174550000003
 31
0.0
  0
LINE
  5
60
330
1F
100
AcDbEntity
  8
0
 62
     7
100
AcDbLine
 10
261.9083299999999
 20
236.9142550000001
 30
0.0
 11
263.75853
 21
249.7828550000002
 31
0.0
  0
LINE
  5
61
330
1F
100
AcDbEntity
  8
0
 62
     7
100
AcDbLine
 10
256.09838
 20
301.9026050000002
 30
0.0
 11
257.9485799999999
 21
314.7710050000001
 31
0.0
  0
LINE
  5
62
330
1F
100
AcDbEntity
  8
0
 62
     7
100
AcDbLine
 10
270.94533
 20
299.7679549999999
 30
0.0
 11
272.79553
 21
312.636455
 31
0.0
  0
LINE
  5
63
330
1F
100
AcDbEntity
  8
0
 62
     7
100
AcDbLine
 10
286.70438
 20
114.7702550000001
 30
0.0
 11
281.3035800000001
 21
126.596355
 31
0.0
  0
LINE
  5
64
330
1F
100
AcDbEntity
  8
0
 62
     7
100
AcDbLine
 10
300.3488800000001
 20
121.001405
 30
0.0
 11
294.9481300000001
 21
132.8275049999999
 31
0.0
  0
LINE
  5
65
330
1F
100
AcDbEntity
  8
0
 62
     7
100
AcDbLine
 10
260.3254800000001
 20
172.531955
 30
0.0
 11
254.9247800000001
 21
184.3579050000002
 31
0.0
  0
LINE
  5
66
330
1F
100
AcDbEntity
  8
0
 62
     7
100
AcDbLine
 10
273.9700300000002
 20
178.7631050000001
 30
0.0
 11
268.5692800000002
 21
190.5890549999998
 31
0.0
  0
LINE
  5
67
330
1F
100
AcDbEntity
  8
0
 62
     7
100
AcDbLine
 10
476.0099100000001
 20
533.9002550000001
 30
0.0
 11
481.0099100000001
 21
533.9002550000001
 31
0.0
  0
LINE
  5
68
330
1F
100
AcDbEntity
  8
0
 62
     7
100
AcDbLine
 10
476.0099100000001
 20
436.3924050000001
 30
0.0
 11
481.0099100000001
 21
436.3924050000001
 31
0.0
  0
LINE
  5
69
330
1F
100
AcDbEntity
  8
0
 62
     7
100
AcDbLine
 10
481.0099100000001
 20
533.9002550000001
 30
0.0
 11
481.0099100000001
 21
436.3924050000001
 31
0.0
  0
LINE
  5
6A
330
1F
100
AcDbEntity
  8
0
 62
     7
100
AcDbLine
 10
476.0099100000001
 20
533.9002550000001
 30
0.0
 11
476.0099100000001
 21
436.3924050000001
 31
0.0
  0
LINE
  5
6B
330
1F
100
AcDbEntity
  8
0
 62
     7
100
AcDbLine
 10
481.0099100000001
 20
-45.06853499999994
 30
0.0
 11
481.0099100000001
 21
52.4393050000001
 31
0.0
  0
LINE
  5
6C
330
1F
100
AcDbEntity
  8
0
 62
     7
100
AcDbLine
 10
476.0099100000001
 20
-45.06853499999994
 30
0.0
 11
476.0099100000001
 21
52.4393050000001
 31
0.0
  0
LINE
  5
6D
330
1F
100
AcDbEntity
  8
0
 62
     7
100
AcDbLine
 10
-448.17757
 20
291.9158550000001
 30
0.0
 11
-428.17757
 21
291.9158550000001
 31
0.0
  0
LINE
  5
6E
330
1F
100
AcDbEntity
  8
0
 62
     7
100
AcDbLine
 10
-128.6775200000001
 20
291.9158550000001
 30
0.0
 11
-108.67752
 21
291.9158550000001
 31
0.0
  0
LINE
  5
6F
330
1F
100
AcDbEntity
  8
0
 62
     7
100
AcDbLine
 10
308.1335800000001
 20
88.05130499999996
 30
0.0
 11
311.86893
 21
94.38905499999999
 31
0.0
  0
LINE
  5
70
330
1F
100
AcDbEntity
  8
0
 62
     7
100
AcDbLine
 10
-373.3775199999999
 20
-34.8935449999999
 30
0.0
 11
-377.37757
 21
-37.20294499999994
 31
0.0
  0
LINE
  5
71
330
1F
100
AcDbEntity
  8
0
 62
     7
100
AcDbLine
 10
-373.3775199999999
 20
-30.27469499999995
 30
0.0
 11
-373.3775199999999
 21
-34.8935449999999
 31
0.0
  0
LINE
  5
72
330
1F
100
AcDbEntity
  8
0
 62
     7
100
AcDbLine
 10
-377.37757
 20
-27.96529499999986
 30
0.0
 11
-373.3775199999999
 21
-30.27474499999983
 31
0.0
  0
LINE
  5
73
330
1F
100
AcDbEntity
  8
0
 62
     7
100
AcDbLine
 10
-381.37757
 20
-30.27469499999995
 30
0.0
 11
-377.37757
 21
-27.96529499999986
 31
0.0
  0
LINE
  5
74
330
1F
100
AcDbEntity
  8
0
 62
     7
100
AcDbLine
 10
-381.37757
 20
-34.8935449999999
 30
0.0
 11
-381.37757
 21
-30.27469499999995
 31
0.0
  0
LINE
  5
75
330
1F
100
AcDbEntity
  8
0
 62
     7
100
AcDbLine
 10
-377.3775700000002
 20
-37.20294499999989
 30
0.0
 11
-381.37757
 21
-34.89354500000002
 31
0.0
  0
LINE
  5
76
330
1F
100
AcDbEntity
  8
0
 62
     7
100
AcDbLine
 10
-274.3775199999999
 20
-34.89354499999979
 30
0.0
 11
-278.3775199999999
 21
-37.20294499999983
 31
0.0
  0
LINE
  5
77
330
1F
100
AcDbEntity
  8
0
 62
     7
100
AcDbLine
 10
-274.3775199999999
 20
-30.27469499999995
 30
0.0
 11
-274.3775199999999
 21
-34.8935449999999
 31
0.0
  0
LINE
  5
78
330
1F
100
AcDbEntity
  8
0
 62
     7
100
AcDbLine
 10
-278.3775200000001
 20
-27.96529499999974
 30
0.0
 11
-274.3775199999999
 21
-30.27474499999983
 31
0.0
  0
LINE
  5
79
330
1F
100
AcDbEntity
  8
0
 62
     7
100
AcDbLine
 10
-282.3775199999999
 20
-30.27469499999995
 30
0.0
 11
-278.3775199999999
 21
-27.96529499999997
 31
0.0
  0
LINE
  5
7A
330
1F
100
AcDbEntity
  8
0
 62
     7
100
AcDbLine
 10
-282.37757
 20
-34.8935449999999
 30
0.0
 11
-282.37757
 21
-30.27469499999995
 31
0.0
  0
LINE
  5
7B
330
1F
100
AcDbEntity
  8
0
 62
     7
100
AcDbLine
 10
-278.37757
 20
-37.20294499999989
 30
0.0
 11
-282.37757
 21
-34.89354499999979
 31
0.0
  0
LINE
  5
7C
330
1F
100
AcDbEntity
  8
0
 62
     7
100
AcDbLine
 10
-175.3774199999999
 20
-34.8935449999999
 30
0.0
 11
-179.37747
 21
-37.20294499999994
 31
0.0
  0
LINE
  5
7D
330
1F
100
AcDbEntity
  8
0
 62
     7
100
AcDbLine
 10
-175.3774199999999
 20
-30.27469499999995
 30
0.0
 11
-175.3774199999999
 21
-34.8935449999999
 31
0.0
  0
LINE
  5
7E
330
1F
100
AcDbEntity
  8
0
 62
     7
100
AcDbLine
 10
-179.37747
 20
-27.96529499999997
 30
0.0
 11
-175.3774199999999
 21
-30.27474499999994
 31
0.0
  0
LINE
  5
7F
330
1F
100
AcDbEntity
  8
0
 62
     7
100
AcDbLine
 10
-183.3774199999999
 20
-30.27469499999995
 30
0.0
 11
-179.3774199999999
 21
-27.96529499999997
 31
0.0
  0
LINE
  5
80
330
1F
100
AcDbEntity
  8
0
 62
     7
100
AcDbLine
 10
-183.37747
 20
-34.8935449999999
 30
0.0
 11
-183.37747
 21
-30.27469499999995
 31
0.0
  0
LINE
  5
81
330
1F
100
AcDbEntity
  8
0
 62
     7
100
AcDbLine
 10
-179.37747
 20
-37.202945
 30
0.0
 11
-183.37747
 21
-34.89354500000002
 31
0.0
  0
LINE
  5
82
330
1F
100
AcDbEntity
  8
0
 62
     7
100
AcDbLine
 10
-155.9504700000001
 20
433.8163550000002
 30
0.0
 11
-152.7175700000001
 21
437.0492550000002
 31
0.0
  0
LINE
  5
83
330
1F
100
AcDbEntity
  8
0
 62
     7
100
AcDbLine
 10
-166.4753199999999
 20
432.2717550000002
 30
0.0
 11
-163.24247
 21
435.5046550000002
 31
0.0
  0
LINE
  5
84
330
1F
100
AcDbEntity
  8
0
 62
     7
100
AcDbLine
 10
-161.30272
 20
437.4444050000002
 30
0.0
 11
-158.0698200000001
 21
440.6772550000002
 31
0.0
  0
LINE
  5
85
330
1F
100
AcDbEntity
  8
0
 62
     7
100
AcDbLine
 10
-156.1300700000001
 20
442.6170050000001
 30
0.0
 11
-152.89722
 21
445.8499049999999
 31
0.0
  0
LINE
  5
86
330
1F
100
AcDbEntity
  8
0
 62
     7
100
AcDbLine
 10
-168.6477200000001
 20
439.0796550000002
 30
0.0
 11
-166.8704700000002
 21
440.8568550000002
 31
0.0
  0
LINE
  5
87
330
1F
100
AcDbEntity
  8
0
 62
     7
100
AcDbLine
 10
-164.93072
 20
442.796605
 30
0.0
 11
-161.6978700000001
 21
446.029505
 31
0.0
  0
LINE
  5
88
330
1F
100
AcDbEntity
  8
0
 62
     7
100
AcDbLine
 10
-159.7581200000003
 20
447.9692550000002
 30
0.0
 11
-156.5252200000001
 21
451.2021550000002
 31
0.0
  0
LINE
  5
89
330
1F
100
AcDbEntity
  8
0
 62
     7
100
AcDbLine
 10
-154.5855199999998
 20
453.1418549999999
 30
0.0
 11
-153.0397699999998
 21
454.687605
 31
0.0
  0
LINE
  5
8A
330
1F
100
AcDbEntity
  8
0
 62
     7
100
AcDbLine
 10
-167.37872
 20
449.328855
 30
0.0
 11
-167.0500699999999
 21
449.657505
 31
0.0
  0
LINE
  5
8B
330
1F
100
AcDbEntity
  8
0
 62
     7
100
AcDbLine
 10
-165.11037
 20
451.5972550000003
 30
0.0
 11
-161.87747
 21
454.8301550000002
 31
0.0
  0
LINE
  5
8C
330
1F
100
AcDbEntity
  8
0
 62
     7
100
AcDbLine
 10
-159.9377199999998
 20
456.769905
 30
0.0
 11
-159.2918199999998
 21
457.415805
 31
0.0
  0
LINE
  5
8D
330
1F
100
AcDbEntity
  8
0
 62
     7
100
AcDbLine
 10
-357.7274200000001
 20
457.5909050000001
 30
0.0
 11
-357.7274200000001
 21
477.440905
 31
0.0
  0
LINE
  5
8E
330
1F
100
AcDbEntity
  8
0
 62
     7
100
AcDbLine
 10
-368.4275200000001
 20
467.5159050000001
 30
0.0
 11
-188.4275200000001
 21
467.5159050000001
 31
0.0
  0
LINE
  5
8F
330
1F
100
AcDbEntity
  8
0
 62
     7
100
AcDbLine
 10
-357.7274699999999
 20
457.5909050000001
 30
0.0
 11
-348.5274699999999
 21
457.5909050000001
 31
0.0
  0
LINE
  5
90
330
1F
100
AcDbEntity
  8
0
 62
     7
100
AcDbLine
 10
-353.12747
 20
449.5909050000001
 30
0.0
 11
-353.12747
 21
457.5909050000001
 31
0.0
  0
LINE
  5
91
330
1F
100
AcDbEntity
  8
0
 62
     7
100
AcDbLine
 10
-353.1275199999999
 20
449.5909050000001
 30
0.0
 11
-348.5274699999999
 21
449.5909050000001
 31
0.0
  0
LINE
  5
92
330
1F
100
AcDbEntity
  8
0
 62
     7
100
AcDbLine
 10
-348.5274699999999
 20
441.5159550000001
 30
0.0
 11
-348.5274699999999
 21
493.5159050000001
 31
0.0
  0
LINE
  5
93
330
1F
100
AcDbEntity
  8
0
 62
     7
100
AcDbLine
 10
-353.12747
 20
485.4409550000001
 30
0.0
 11
-353.12747
 21
477.440905
 31
0.0
  0
LINE
  5
94
330
1F
100
AcDbEntity
  8
0
 62
     7
100
AcDbLine
 10
-353.1275199999999
 20
485.4409550000001
 30
0.0
 11
-348.5274699999999
 21
485.4409550000001
 31
0.0
  0
LINE
  5
95
330
1F
100
AcDbEntity
  8
0
 62
     7
100
AcDbLine
 10
-348.5274699999999
 20
493.5159050000001
 30
0.0
 11
-340.5274699999999
 21
493.5159050000001
 31
0.0
  0
LINE
  5
96
330
1F
100
AcDbEntity
  8
0
 62
     7
100
AcDbLine
 10
-340.5274699999999
 20
497.6659050000002
 30
0.0
 11
-332.52752
 21
497.6659050000002
 31
0.0
  0
LINE
  5
97
330
1F
100
AcDbEntity
  8
0
 62
     7
100
AcDbLine
 10
-348.5274699999999
 20
441.5159550000001
 30
0.0
 11
-340.5274699999999
 21
441.5159550000001
 31
0.0
  0
LINE
  5
98
330
1F
100
AcDbEntity
  8
0
 62
     7
100
AcDbLine
 10
-340.52742
 20
437.3659050000001
 30
0.0
 11
-340.52742
 21
497.6659050000002
 31
0.0
  0
LINE
  5
99
330
1F
100
AcDbEntity
  8
0
 62
     7
100
AcDbLine
 10
-332.52742
 20
437.3659050000001
 30
0.0
 11
-332.52742
 21
497.6659050000002
 31
0.0
  0
LINE
  5
9A
330
1F
100
AcDbEntity
  8
0
 62
     7
100
AcDbLine
 10
-340.5274699999999
 20
437.3659050000001
 30
0.0
 11
-332.52752
 21
437.3659050000001
 31
0.0
  0
LINE
  5
9B
330
1F
100
AcDbEntity
  8
0
 62
     7
100
AcDbLine
 10
-332.52752
 20
447.6709550000001
 30
0.0
 11
-294.4274199999999
 21
447.6709550000001
 31
0.0
  0
LINE
  5
9C
330
1F
100
AcDbEntity
  8
0
 62
     7
100
AcDbLine
 10
-332.52752
 20
487.3609050000001
 30
0.0
 11
-294.4274199999999
 21
487.3609050000001
 31
0.0
  0
LINE
  5
9D
330
1F
100
AcDbEntity
  8
0
 62
     7
100
AcDbLine
 10
-294.4274199999999
 20
437.3659050000001
 30
0.0
 11
-294.4274199999999
 21
497.6659050000002
 31
0.0
  0
LINE
  5
9E
330
1F
100
AcDbEntity
  8
0
 62
     7
100
AcDbLine
 10
-286.4275200000001
 20
437.3659050000001
 30
0.0
 11
-294.4275200000001
 21
437.3659050000001
 31
0.0
  0
LINE
  5
9F
330
1F
100
AcDbEntity
  8
0
 62
     7
100
AcDbLine
 10
-286.4274199999999
 20
437.3659050000001
 30
0.0
 11
-286.4274199999999
 21
497.6659050000002
 31
0.0
  0
LINE
  5
A0
330
1F
100
AcDbEntity
  8
0
 62
     7
100
AcDbLine
 10
-270.42737
 20
441.5159550000001
 30
0.0
 11
-286.4275200000001
 21
441.5159550000001
 31
0.0
  0
LINE
  5
A1
330
1F
100
AcDbEntity
  8
0
 62
     7
100
AcDbLine
 10
-278.4275200000001
 20
441.5159550000001
 30
0.0
 11
-278.4275200000001
 21
493.5159050000001
 31
0.0
  0
LINE
  5
A2
330
1F
100
AcDbEntity
  8
0
 62
     7
100
AcDbLine
 10
-270.42737
 20
437.3659050000001
 30
0.0
 11
-270.42737
 21
497.6659050000002
 31
0.0
  0
LINE
  5
A3
330
1F
100
AcDbEntity
  8
0
 62
     7
100
AcDbLine
 10
-270.4275200000001
 20
437.3659050000001
 30
0.0
 11
-262.4275200000001
 21
437.3659050000001
 31
0.0
  0
LINE
  5
A4
330
1F
100
AcDbEntity
  8
0
 62
     7
100
AcDbLine
 10
-262.4275200000001
 20
437.3659050000001
 30
0.0
 11
-262.4275200000001
 21
497.6659050000002
 31
0.0
  0
LINE
  5
A5
330
1F
100
AcDbEntity
  8
0
 62
     7
100
AcDbLine
 10
-262.4275200000001
 20
487.3609050000001
 30
0.0
 11
-224.3275199999999
 21
487.3609050000001
 31
0.0
  0
LINE
  5
A6
330
1F
100
AcDbEntity
  8
0
 62
     7
100
AcDbLine
 10
-262.4275200000001
 20
447.6709550000001
 30
0.0
 11
-224.3275199999999
 21
447.6709550000001
 31
0.0
  0
LINE
  5
A7
330
1F
100
AcDbEntity
  8
0
 62
     7
100
AcDbLine
 10
-286.4275200000001
 20
497.6659050000002
 30
0.0
 11
-294.4275200000001
 21
497.6659050000002
 31
0.0
  0
LINE
  5
A8
330
1F
100
AcDbEntity
  8
0
 62
     7
100
AcDbLine
 10
-270.42737
 20
493.5159050000001
 30
0.0
 11
-286.4274199999999
 21
493.5159050000001
 31
0.0
  0
LINE
  5
A9
330
1F
100
AcDbEntity
  8
0
 62
     7
100
AcDbLine
 10
-270.4275200000001
 20
497.6659050000002
 30
0.0
 11
-262.4275200000001
 21
497.6659050000002
 31
0.0
  0
LINE
  5
AA
330
1F
100
AcDbEntity
  8
0
 62
     7
100
AcDbLine
 10
-224.3275199999999
 20
437.3659050000001
 30
0.0
 11
-224.3275199999999
 21
497.6659050000002
 31
0.0
  0
LINE
  5
AB
330
1F
100
AcDbEntity
  8
0
 62
     7
100
AcDbLine
 10
-216.3275199999999
 20
437.3659050000001
 30
0.0
 11
-224.3275199999999
 21
437.3659050000001
 31
0.0
  0
LINE
  5
AC
330
1F
100
AcDbEntity
  8
0
 62
     7
100
AcDbLine
 10
-216.32742
 20
437.3659050000001
 30
0.0
 11
-216.32742
 21
497.6659050000002
 31
0.0
  0
LINE
  5
AD
330
1F
100
AcDbEntity
  8
0
 62
     7
100
AcDbLine
 10
-208.32742
 20
441.5159550000001
 30
0.0
 11
-216.3275199999999
 21
441.5159550000001
 31
0.0
  0
LINE
  5
AE
330
1F
100
AcDbEntity
  8
0
 62
     7
100
AcDbLine
 10
-208.32742
 20
441.5159550000001
 30
0.0
 11
-208.32742
 21
493.5159050000001
 31
0.0
  0
LINE
  5
AF
330
1F
100
AcDbEntity
  8
0
 62
     7
100
AcDbLine
 10
-208.32742
 20
452.1159050000001
 30
0.0
 11
-203.5775199999999
 21
452.1159050000001
 31
0.0
  0
LINE
  5
B0
330
1F
100
AcDbEntity
  8
0
 62
     7
100
AcDbLine
 10
-203.57742
 20
452.1159050000001
 30
0.0
 11
-203.57742
 21
482.9159550000001
 31
0.0
  0
LINE
  5
B1
330
1F
100
AcDbEntity
  8
0
 62
     7
100
AcDbLine
 10
-203.5775199999999
 20
457.5909050000001
 30
0.0
 11
-200.4275200000001
 21
457.5909050000001
 31
0.0
  0
LINE
  5
B2
330
1F
100
AcDbEntity
  8
0
 62
     7
100
AcDbLine
 10
-200.42737
 20
457.5909050000001
 30
0.0
 11
-200.42737
 21
477.440905
 31
0.0
  0
LINE
  5
B3
330
1F
100
AcDbEntity
  8
0
 62
     7
100
AcDbLine
 10
-216.3275199999999
 20
497.6659050000002
 30
0.0
 11
-224.3275199999999
 21
497.6659050000002
 31
0.0
  0
LINE
  5
B4
330
1F
100
AcDbEntity
  8
0
 62
     7
100
AcDbLine
 10
-208.32742
 20
493.5159050000001
 30
0.0
 11
-216.3275199999999
 21
493.5159050000001
 31
0.0
  0
LINE
  5
B5
330
1F
100
AcDbEntity
  8
0
 62
     7
100
AcDbLine
 10
-208.32742
 20
482.9159550000001
 30
0.0
 11
-203.5775199999999
 21
482.9159550000001
 31
0.0
  0
LINE
  5
B6
330
1F
100
AcDbEntity
  8
0
 62
     7
100
AcDbLine
 10
-203.5775199999999
 20
477.440905
 30
0.0
 11
-200.4275200000001
 21
477.440905
 31
0.0
  0
LINE
  5
B7
330
1F
100
AcDbEntity
  8
0
 62
     7
100
AcDbLine
 10
-357.7274699999999
 20
477.440905
 30
0.0
 11
-348.5274699999999
 21
477.440905
 31
0.0
  0
LINE
  5
B8
330
1F
100
AcDbEntity
  8
0
 62
     7
100
AcDbLine
 10
-418.37757
 20
45.03005500000006
 30
0.0
 11
-418.37757
 21
244.4158550000001
 31
0.0
  0
LINE
  5
B9
330
1F
100
AcDbEntity
  8
0
 62
     7
100
AcDbLine
 10
-390.37757
 20
-39.08414499999992
 30
0.0
 11
-390.37757
 21
244.4158550000001
 31
0.0
  0
LINE
  5
BA
330
1F
100
AcDbEntity
  8
0
 62
     7
100
AcDbLine
 10
-393.6957200000001
 20
34.1010050000001
 30
0.0
 11
-416.3864199999997
 21
42.20485499999995
 31
0.0
  0
LINE
  5
BB
330
1F
100
AcDbEntity
  8
0
 62
     7
100
AcDbLine
 10
-166.37747
 20
-39.08414499999992
 30
0.0
 11
-166.37747
 21
244.4158550000001
 31
0.0
  0
LINE
  5
BC
330
1F
100
AcDbEntity
  8
0
 62
     7
100
AcDbLine
 10
-138.37757
 20
25.03005500000006
 30
0.0
 11
-138.37757
 21
244.4158550000001
 31
0.0
  0
LINE
  5
BD
330
1F
100
AcDbEntity
  8
0
 62
     7
100
AcDbLine
 10
-163.0592700000003
 20
14.10085500000014
 30
0.0
 11
-140.36857
 21
22.20465500000034
 31
0.0
  0
LINE
  5
BE
330
1F
100
AcDbEntity
  8
0
 62
     7
100
AcDbLine
 10
-171.37757
 20
-21.08409499999993
 30
0.0
 11
-187.37757
 21
-21.08409499999993
 31
0.0
  0
LINE
  5
BF
330
1F
100
AcDbEntity
  8
0
 62
     7
100
AcDbLine
 10
-192.37757
 20
-39.08414499999992
 30
0.0
 11
-192.37757
 21
-26.08414499999992
 31
0.0
  0
LINE
  5
C0
330
1F
100
AcDbEntity
  8
0
 62
     7
100
AcDbLine
 10
-166.87757
 20
-32.58414499999992
 30
0.0
 11
-191.87757
 21
-32.58414499999992
 31
0.0
  0
LINE
  5
C1
330
1F
100
AcDbEntity
  8
0
 62
     7
100
AcDbLine
 10
-179.37747
 20
-45.08416499999993
 30
0.0
 11
-179.37747
 21
-20.08414499999992
 31
0.0
  0
LINE
  5
C2
330
1F
100
AcDbEntity
  8
0
 62
     7
100
AcDbLine
 10
-385.37757
 20
-44.08410499999991
 30
0.0
 11
-171.37757
 21
-44.08410499999991
 31
0.0
  0
LINE
  5
C3
330
1F
100
AcDbEntity
  8
0
 62
     7
100
AcDbLine
 10
-292.3775199999999
 20
-39.08414499999992
 30
0.0
 11
-292.3775199999999
 21
-26.08414499999992
 31
0.0
  0
LINE
  5
C4
330
1F
100
AcDbEntity
  8
0
 62
     7
100
AcDbLine
 10
-287.37757
 20
-21.08409499999993
 30
0.0
 11
-278.37757
 21
-21.08409499999993
 31
0.0
  0
LINE
  5
C5
330
1F
100
AcDbEntity
  8
0
 62
     7
100
AcDbLine
 10
-269.37757
 20
-21.08409499999993
 30
0.0
 11
-278.37757
 21
-21.08409499999993
 31
0.0
  0
LINE
  5
C6
330
1F
100
AcDbEntity
  8
0
 62
     7
100
AcDbLine
 10
-264.3775199999999
 20
-39.08414499999992
 30
0.0
 11
-264.3775199999999
 21
-26.08414499999992
 31
0.0
  0
LINE
  5
C7
330
1F
100
AcDbEntity
  8
0
 62
     7
100
AcDbLine
 10
-290.87757
 20
-32.58414499999992
 30
0.0
 11
-265.87757
 21
-32.58414499999992
 31
0.0
  0
LINE
  5
C8
330
1F
100
AcDbEntity
  8
0
 62
     7
100
AcDbLine
 10
-278.3775199999999
 20
-45.08416499999993
 30
0.0
 11
-278.3775199999999
 21
-20.08414499999992
 31
0.0
  0
LINE
  5
C9
330
1F
100
AcDbEntity
  8
0
 62
     7
100
AcDbLine
 10
-385.37757
 20
-21.08409499999993
 30
0.0
 11
-369.37757
 21
-21.08409499999993
 31
0.0
  0
LINE
  5
CA
330
1F
100
AcDbEntity
  8
0
 62
     7
100
AcDbLine
 10
-377.3775199999999
 20
-45.08416499999993
 30
0.0
 11
-377.3775199999999
 21
-20.08414499999992
 31
0.0
  0
LINE
  5
CB
330
1F
100
AcDbEntity
  8
0
 62
     7
100
AcDbLine
 10
-389.87757
 20
-32.58414499999992
 30
0.0
 11
-364.87757
 21
-32.58414499999992
 31
0.0
  0
LINE
  5
CC
330
1F
100
AcDbEntity
  8
0
 62
     7
100
AcDbLine
 10
-364.3775199999999
 20
-39.08414499999992
 30
0.0
 11
-364.3775199999999
 21
-26.08414499999992
 31
0.0
  0
LINE
  5
CD
330
1F
100
AcDbEntity
  8
0
 62
     7
100
AcDbLine
 10
-138.37757
 20
463.3016550000001
 30
0.0
 11
-138.37757
 21
431.9158550000001
 31
0.0
  0
LINE
  5
CE
330
1F
100
AcDbEntity
  8
0
 62
     7
100
AcDbLine
 10
-150.7774699999999
 20
436.4158050000001
 30
0.0
 11
-150.7774699999999
 21
431.9158550000001
 31
0.0
  0
LINE
  5
CF
330
1F
100
AcDbEntity
  8
0
 62
     7
100
AcDbLine
 10
-150.77762
 20
436.4158050000001
 30
0.0
 11
-138.37757
 21
436.4158050000001
 31
0.0
  0
LINE
  5
D0
330
1F
100
AcDbEntity
  8
0
 62
     7
100
AcDbLine
 10
-153.3775700000002
 20
457.4157550000002
 30
0.0
 11
-150.7775700000003
 21
436.4158050000001
 31
0.0
  0
LINE
  5
D1
330
1F
100
AcDbEntity
  8
0
 62
     7
100
AcDbLine
 10
-166.37757
 20
457.4159050000001
 30
0.0
 11
-153.37757
 21
457.4159050000001
 31
0.0
  0
LINE
  5
D2
330
1F
100
AcDbEntity
  8
0
 62
     7
100
AcDbLine
 10
-166.3774200000001
 20
457.4158050000002
 30
0.0
 11
-168.9774200000003
 21
436.4158050000002
 31
0.0
  0
LINE
  5
D3
330
1F
100
AcDbEntity
  8
0
 62
     7
100
AcDbLine
 10
-181.37757
 20
436.4158050000001
 30
0.0
 11
-168.9775699999999
 21
436.4158050000001
 31
0.0
  0
LINE
  5
D4
330
1F
100
AcDbEntity
  8
0
 62
     7
100
AcDbLine
 10
-181.37747
 20
498.915805
 30
0.0
 11
-181.37747
 21
431.9158550000001
 31
0.0
  0
LINE
  5
D5
330
1F
100
AcDbEntity
  8
0
 62
     7
100
AcDbLine
 10
-168.9775699999999
 20
436.4158050000001
 30
0.0
 11
-168.9775699999999
 21
431.9158550000001
 31
0.0
  0
LINE
  5
D6
330
1F
100
AcDbEntity
  8
0
 62
     7
100
AcDbLine
 10
-163.05912
 20
474.2306550000001
 30
0.0
 11
-140.3683199999999
 21
466.1268050000002
 31
0.0
  0
LINE
  5
D7
330
1F
100
AcDbEntity
  8
0
 62
     7
100
AcDbLine
 10
-166.37747
 20
528.915805
 30
0.0
 11
-166.37747
 21
478.9394550000001
 31
0.0
  0
LINE
  5
D8
330
1F
100
AcDbEntity
  8
0
 62
     7
100
AcDbLine
 10
-370.3775199999999
 20
503.915805
 30
0.0
 11
-186.37757
 21
503.915805
 31
0.0
  0
LINE
  5
D9
330
1F
100
AcDbEntity
  8
0
 62
     7
100
AcDbLine
 10
-171.37757
 20
510.915805
 30
0.0
 11
-187.37757
 21
510.915805
 31
0.0
  0
LINE
  5
DA
330
1F
100
AcDbEntity
  8
0
 62
     7
100
AcDbLine
 10
-179.37747
 20
534.915805
 30
0.0
 11
-179.37747
 21
509.915805
 31
0.0
  0
LINE
  5
DB
330
1F
100
AcDbEntity
  8
0
 62
     7
100
AcDbLine
 10
-166.87757
 20
522.415805
 30
0.0
 11
-191.87757
 21
522.415805
 31
0.0
  0
LINE
  5
DC
330
1F
100
AcDbEntity
  8
0
 62
     7
100
AcDbLine
 10
-192.37757
 20
528.915805
 30
0.0
 11
-192.37757
 21
515.915805
 31
0.0
  0
LINE
  5
DD
330
1F
100
AcDbEntity
  8
0
 62
     7
100
AcDbLine
 10
-385.37757
 20
533.915805
 30
0.0
 11
-171.37757
 21
533.915805
 31
0.0
  0
LINE
  5
DE
330
1F
100
AcDbEntity
  8
0
 62
     7
100
AcDbLine
 10
-264.3775199999999
 20
528.915805
 30
0.0
 11
-264.3775199999999
 21
515.915805
 31
0.0
  0
LINE
  5
DF
330
1F
100
AcDbEntity
  8
0
 62
     7
100
AcDbLine
 10
-290.87757
 20
522.415805
 30
0.0
 11
-265.87757
 21
522.415805
 31
0.0
  0
LINE
  5
E0
330
1F
100
AcDbEntity
  8
0
 62
     7
100
AcDbLine
 10
-269.37757
 20
510.915805
 30
0.0
 11
-278.37757
 21
510.915805
 31
0.0
  0
LINE
  5
E1
330
1F
100
AcDbEntity
  8
0
 62
     7
100
AcDbLine
 10
-278.3775199999999
 20
534.915805
 30
0.0
 11
-278.3775199999999
 21
509.915805
 31
0.0
  0
LINE
  5
E2
330
1F
100
AcDbEntity
  8
0
 62
     7
100
AcDbLine
 10
-287.37757
 20
510.915805
 30
0.0
 11
-278.37757
 21
510.915805
 31
0.0
  0
LINE
  5
E3
330
1F
100
AcDbEntity
  8
0
 62
     7
100
AcDbLine
 10
-292.3775199999999
 20
528.915805
 30
0.0
 11
-292.3775199999999
 21
515.915805
 31
0.0
  0
LINE
  5
E4
330
1F
100
AcDbEntity
  8
0
 62
     7
100
AcDbLine
 10
-377.3775199999999
 20
534.915805
 30
0.0
 11
-377.3775199999999
 21
509.915805
 31
0.0
  0
LINE
  5
E5
330
1F
100
AcDbEntity
  8
0
 62
     7
100
AcDbLine
 10
-389.87757
 20
522.415805
 30
0.0
 11
-364.87757
 21
522.415805
 31
0.0
  0
LINE
  5
E6
330
1F
100
AcDbEntity
  8
0
 62
     7
100
AcDbLine
 10
-364.3775199999999
 20
528.915805
 30
0.0
 11
-364.3775199999999
 21
515.915805
 31
0.0
  0
LINE
  5
E7
330
1F
100
AcDbEntity
  8
0
 62
     7
100
AcDbLine
 10
-385.37757
 20
510.915805
 30
0.0
 11
-369.37757
 21
510.915805
 31
0.0
  0
LINE
  5
E8
330
1F
100
AcDbEntity
  8
0
 62
     7
100
AcDbLine
 10
-390.37757
 20
528.915805
 30
0.0
 11
-390.37757
 21
458.9394550000001
 31
0.0
  0
LINE
  5
E9
330
1F
100
AcDbEntity
  8
0
 62
     7
100
AcDbLine
 10
-375.37747
 20
498.915805
 30
0.0
 11
-375.37747
 21
453.2845550000001
 31
0.0
  0
LINE
  5
EA
330
1F
100
AcDbEntity
  8
0
 62
     7
100
AcDbLine
 10
-365.35137
 20
446.1342550000001
 30
0.0
 11
-372.0876699999998
 21
448.586055
 31
0.0
  0
LINE
  5
EB
330
1F
100
AcDbEntity
  8
0
 62
     7
100
AcDbLine
 10
-363.3775199999999
 20
443.3152550000001
 30
0.0
 11
-363.3775199999999
 21
431.9158550000001
 31
0.0
  0
LINE
  5
EC
330
1F
100
AcDbEntity
  8
0
 62
     7
100
AcDbLine
 10
-393.6958699999999
 20
454.2307050000003
 30
0.0
 11
-416.38657
 21
446.1268550000003
 31
0.0
  0
LINE
  5
ED
330
1F
100
AcDbEntity
  8
0
 62
     7
100
AcDbLine
 10
-418.37757
 20
443.3016550000001
 30
0.0
 11
-418.37757
 21
431.9158550000001
 31
0.0
  0
LINE
  5
EE
330
1F
100
AcDbEntity
  8
0
 62
     7
100
AcDbLine
 10
476.0099100000002
 20
439.4070049999997
 30
0.0
 11
481.0099100000002
 21
444.4070049999997
 31
0.0
  0
LINE
  5
EF
330
1F
100
AcDbEntity
  8
0
 62
     7
100
AcDbLine
 10
476.0099100000002
 20
450.6323549999997
 30
0.0
 11
481.0099100000002
 21
455.6323549999997
 31
0.0
  0
LINE
  5
F0
330
1F
100
AcDbEntity
  8
0
 62
     7
100
AcDbLine
 10
476.0099100000001
 20
461.8576549999999
 30
0.0
 11
481.0099100000001
 21
466.8576549999999
 31
0.0
  0
LINE
  5
F1
330
1F
100
AcDbEntity
  8
0
 62
     7
100
AcDbLine
 10
476.0099100000001
 20
473.0830050000001
 30
0.0
 11
481.0099100000001
 21
478.0830050000001
 31
0.0
  0
LINE
  5
F2
330
1F
100
AcDbEntity
  8
0
 62
     7
100
AcDbLine
 10
476.0099100000001
 20
484.3083049999999
 30
0.0
 11
481.0099100000001
 21
489.3083549999998
 31
0.0
  0
LINE
  5
F3
330
1F
100
AcDbEntity
  8
0
 62
     7
100
AcDbLine
 10
476.0099100000001
 20
495.5336549999998
 30
0.0
 11
481.0099100000001
 21
500.5336549999998
 31
0.0
  0
LINE
  5
F4
330
1F
100
AcDbEntity
  8
0
 62
     7
100
AcDbLine
 10
476.0099100000001
 20
506.759005
 30
0.0
 11
481.00991
 21
511.7590049999998
 31
0.0
  0
LINE
  5
F5
330
1F
100
AcDbEntity
  8
0
 62
     7
100
AcDbLine
 10
476.0099100000002
 20
517.9843049999998
 30
0.0
 11
481.0099100000001
 21
522.9843049999998
 31
0.0
  0
LINE
  5
F6
330
1F
100
AcDbEntity
  8
0
 62
     7
100
AcDbLine
 10
476.00991
 20
529.209655
 30
0.0
 11
480.7005249999999
 21
533.9002550000001
 31
0.0
  0
LINE
  5
F7
330
1F
100
AcDbEntity
  8
0
 62
     7
100
AcDbLine
 10
481.0099100000001
 20
533.2326550000001
 30
0.0
 11
480.3422900000002
 21
533.9002549999999
 31
0.0
  0
LINE
  5
F8
330
1F
100
AcDbEntity
  8
0
 62
     7
100
AcDbLine
 10
481.0099100000002
 20
522.0073549999996
 30
0.0
 11
476.0099100000002
 21
527.0073549999996
 31
0.0
  0
LINE
  5
F9
330
1F
100
AcDbEntity
  8
0
 62
     7
100
AcDbLine
 10
481.0099099999999
 20
510.782055
 30
0.0
 11
476.0099100000002
 21
515.7820049999999
 31
0.0
  0
LINE
  5
FA
330
1F
100
AcDbEntity
  8
0
 62
     7
100
AcDbLine
 10
481.0099100000002
 20
499.556755
 30
0.0
 11
476.0099100000001
 21
504.5567050000001
 31
0.0
  0
LINE
  5
FB
330
1F
100
AcDbEntity
  8
0
 62
     7
100
AcDbLine
 10
481.0099100000001
 20
488.3314049999998
 30
0.0
 11
476.0099100000001
 21
493.3314049999998
 31
0.0
  0
LINE
  5
FC
330
1F
100
AcDbEntity
  8
0
 62
     7
100
AcDbLine
 10
481.0099099999999
 20
477.1061050000001
 30
0.0
 11
476.0099100000001
 21
482.1061050000002
 31
0.0
  0
LINE
  5
FD
330
1F
100
AcDbEntity
  8
0
 62
     7
100
AcDbLine
 10
481.0099100000002
 20
465.8808049999999
 30
0.0
 11
476.0099100000003
 21
470.8808049999999
 31
0.0
  0
LINE
  5
FE
330
1F
100
AcDbEntity
  8
0
 62
     7
100
AcDbLine
 10
481.0099100000002
 20
454.6555049999998
 30
0.0
 11
476.0099100000002
 21
459.6555049999998
 31
0.0
  0
LINE
  5
FF
330
1F
100
AcDbEntity
  8
0
 62
     7
100
AcDbLine
 10
481.0099100000001
 20
443.4302050000002
 30
0.0
 11
476.0099100000001
 21
448.4301550000004
 31
0.0
  0
LINE
  5
100
330
1F
100
AcDbEntity
  8
0
 62
     7
100
AcDbLine
 10
476.82236
 20
436.3924050000001
 30
0.0
 11
476.0099100000001
 21
437.204855
 31
0.0
  0
LINE
  5
101
330
1F
100
AcDbEntity
  8
0
 62
     7
100
AcDbLine
 10
476.0099100000001
 20
-43.28224499999999
 30
0.0
 11
481.0099100000001
 21
-38.28224500000005
 31
0.0
  0
LINE
  5
102
330
1F
100
AcDbEntity
  8
0
 62
     7
100
AcDbLine
 10
476.0099100000001
 20
-32.05689500000005
 30
0.0
 11
481.0099100000001
 21
-27.05689500000005
 31
0.0
  0
LINE
  5
103
330
1F
100
AcDbEntity
  8
0
 62
     7
100
AcDbLine
 10
476.0099100000001
 20
-20.83159499999988
 30
0.0
 11
481.0099100000001
 21
-15.83154499999989
 31
0.0
  0
LINE
  5
104
330
1F
100
AcDbEntity
  8
0
 62
     7
100
AcDbLine
 10
476.0099100000001
 20
-9.606245000000058
 30
0.0
 11
481.0099100000001
 21
-4.606245000000058
 31
0.0
  0
LINE
  5
105
330
1F
100
AcDbEntity
  8
0
 62
     7
100
AcDbLine
 10
476.0099100000001
 20
1.619104999999991
 30
0.0
 11
481.0099100000001
 21
6.619104999999991
 31
0.0
  0
LINE
  5
106
330
1F
100
AcDbEntity
  8
0
 62
     7
100
AcDbLine
 10
476.0099100000002
 20
12.84440499999994
 30
0.0
 11
481.0099100000001
 21
17.84440499999994
 31
0.0
  0
LINE
  5
107
330
1F
100
AcDbEntity
  8
0
 62
     7
100
AcDbLine
 10
476.0099100000001
 20
24.06975499999999
 30
0.0
 11
481.0099100000001
 21
29.06975499999999
 31
0.0
  0
LINE
  5
108
330
1F
100
AcDbEntity
  8
0
 62
     7
100
AcDbLine
 10
476.0099100000001
 20
35.29505500000005
 30
0.0
 11
481.0099100000001
 21
40.29510500000004
 31
0.0
  0
LINE
  5
109
330
1F
100
AcDbEntity
  8
0
 62
     7
100
AcDbLine
 10
476.0099100000002
 20
46.52040499999998
 30
0.0
 11
481.0099100000002
 21
51.52040499999987
 31
0.0
  0
LINE
  5
10A
330
1F
100
AcDbEntity
  8
0
 62
     7
100
AcDbLine
 10
481.0099100000001
 20
50.5444050000001
 30
0.0
 11
479.1149600000001
 21
52.4393050000001
 31
0.0
  0
LINE
  5
10B
330
1F
100
AcDbEntity
  8
0
 62
     7
100
AcDbLine
 10
481.0099100000001
 20
39.31905499999994
 30
0.0
 11
476.0099100000001
 21
44.31905499999994
 31
0.0
  0
LINE
  5
10C
330
1F
100
AcDbEntity
  8
0
 62
     7
100
AcDbLine
 10
481.0099100000001
 20
28.09375499999999
 30
0.0
 11
476.0099100000001
 21
33.09375499999999
 31
0.0
  0
LINE
  5
10D
330
1F
100
AcDbEntity
  8
0
 62
     7
100
AcDbLine
 10
481.0099100000001
 20
16.86845499999993
 30
0.0
 11
476.0099100000002
 21
21.86845499999993
 31
0.0
  0
LINE
  5
10E
330
1F
100
AcDbEntity
  8
0
 62
     7
100
AcDbLine
 10
481.0099100000001
 20
5.643154999999979
 30
0.0
 11
476.0099100000001
 21
10.64315499999998
 31
0.0
  0
LINE
  5
10F
330
1F
100
AcDbEntity
  8
0
 62
     7
100
AcDbLine
 10
481.0099099999999
 20
-5.582144999999855
 30
0.0
 11
476.0099099999999
 21
-0.5821949999998424
 31
0.0
  0
LINE
  5
110
330
1F
100
AcDbEntity
  8
0
 62
     7
100
AcDbLine
 10
481.0099100000002
 20
-16.80749500000002
 30
0.0
 11
476.0099100000001
 21
-11.80749500000002
 31
0.0
  0
LINE
  5
111
330
1F
100
AcDbEntity
  8
0
 62
     7
100
AcDbLine
 10
481.0099100000001
 20
-28.03279499999997
 30
0.0
 11
476.0099100000001
 21
-23.03279500000008
 31
0.0
  0
LINE
  5
112
330
1F
100
AcDbEntity
  8
0
 62
     7
100
AcDbLine
 10
481.0099100000001
 20
-39.25809499999991
 30
0.0
 11
476.0099100000002
 21
-34.25809500000003
 31
0.0
  0
LINE
  5
113
330
1F
100
AcDbEntity
  8
0
 62
     7
100
AcDbLine
 10
-363.3775999999999
 20
434.4158350000001
 30
0.0
 11
-363.3775999999999
 21
431.9158350000001
 31
0.0
  0
LINE
  5
114
330
1F
100
AcDbEntity
  8
0
 62
     7
100
AcDbLine
 10
-428.1775799999999
 20
431.4158050000001
 30
0.0
 11
-418.37747
 21
431.4158050000001
 31
0.0
  0
LINE
  5
115
330
1F
100
AcDbEntity
  8
0
 62
     7
100
AcDbLine
 10
-128.6775200000001
 20
431.4158050000001
 30
0.0
 11
-138.47745
 21
431.4158050000001
 31
0.0
  0
LINE
  5
116
330
1F
100
AcDbEntity
  8
0
 62
     7
100
AcDbLine
 10
-259.6775200000001
 20
447.6708450000001
 30
0.0
 11
-225.57748
 21
447.6708450000001
 31
0.0
  0
LINE
  5
117
330
1F
100
AcDbEntity
  8
0
 62
     7
100
AcDbLine
 10
-331.2775599999999
 20
447.6708450000001
 30
0.0
 11
-297.1775200000001
 21
447.6708450000001
 31
0.0
  0
LINE
  5
118
330
1F
100
AcDbEntity
  8
0
 62
     7
100
AcDbLine
 10
-259.6775200000001
 20
291.9158400000001
 30
0.0
 11
-128.67746
 21
291.9158400000001
 31
0.0
  0
LINE
  5
119
330
1F
100
AcDbEntity
  8
0
 62
     7
100
AcDbLine
 10
-428.1775799999999
 20
291.9158400000001
 30
0.0
 11
-297.1775200000001
 21
291.9158400000001
 31
0.0
  0
LINE
  5
11A
330
1F
100
AcDbEntity
  8
0
 62
     7
100
AcDbLine
 10
-448.1775799999999
 20
431.4158050000001
 30
0.0
 11
-531.1777000000001
 21
431.4158050000001
 31
0.0
  0
LINE
  5
11B
330
1F
100
AcDbEntity
  8
0
 62
     7
100
AcDbLine
 10
-25.67739999999992
 20
431.4156750000001
 30
0.0
 11
-108.67752
 21
431.4156750000001
 31
0.0
  0
LINE
  5
11C
330
1F
100
AcDbEntity
  8
0
 62
     7
100
AcDbLine
 10
-108.6775799999999
 20
291.9158400000001
 30
0.0
 11
-18.67751999999996
 21
291.9158400000001
 31
0.0
  0
LINE
  5
11D
330
1F
100
AcDbEntity
  8
0
 62
     7
100
AcDbLine
 10
-538.17764
 20
291.9158400000001
 30
0.0
 11
-448.1775799999999
 21
291.9158400000001
 31
0.0
  0
LINE
  5
11E
330
1F
100
AcDbEntity
  8
0
 62
     7
100
AcDbLine
 10
-18.67751999999996
 20
291.9158400000001
 30
0.0
 11
-18.67751999999996
 21
424.4160350000001
 31
0.0
  0
LINE
  5
11F
330
1F
100
AcDbEntity
  8
0
 62
     7
100
AcDbLine
 10
-538.17764
 20
291.9158400000001
 30
0.0
 11
-538.17764
 21
424.4160350000001
 31
0.0
  0
LINE
  5
120
330
1F
100
AcDbEntity
  8
0
 62
     7
100
AcDbLine
 10
-259.6775200000001
 20
291.9158400000001
 30
0.0
 11
-259.6775200000001
 21
447.6708450000001
 31
0.0
  0
LINE
  5
121
330
1F
100
AcDbEntity
  8
0
 62
     7
100
AcDbLine
 10
-297.1775200000001
 20
291.9158400000001
 30
0.0
 11
-297.1775200000001
 21
447.6708450000001
 31
0.0
  0
LINE
  5
122
330
1F
100
AcDbEntity
  8
0
 62
     7
100
AcDbLine
 10
-418.37747
 20
431.9158350000001
 30
0.0
 11
-418.37747
 21
431.4158050000001
 31
0.0
  0
LINE
  5
123
330
1F
100
AcDbEntity
  8
0
 62
     7
100
AcDbLine
 10
-138.47745
 20
431.9158350000001
 30
0.0
 11
-138.47745
 21
431.4158050000001
 31
0.0
  0
LINE
  5
124
330
1F
100
AcDbEntity
  8
0
 62
     7
100
AcDbLine
 10
-25.67740000000015
 20
431.4156750000004
 30
0.0
 11
-18.67740000000015
 21
424.4156850000003
 31
0.0
  0
LINE
  5
125
330
1F
100
AcDbEntity
  8
0
 62
     7
100
AcDbLine
 10
-193.4775699999999
 20
431.9158350000001
 30
0.0
 11
-138.4775699999999
 21
431.9158350000001
 31
0.0
  0
LINE
  5
126
330
1F
100
AcDbEntity
  8
0
 62
     7
100
AcDbLine
 10
-193.47744
 20
434.4158350000001
 30
0.0
 11
-193.47744
 21
431.9158350000001
 31
0.0
  0
LINE
  5
127
330
1F
100
AcDbEntity
  8
0
 62
     7
100
AcDbLine
 10
-225.5775499999999
 20
434.4158350000001
 30
0.0
 11
-193.4775699999999
 21
434.4158350000001
 31
0.0
  0
LINE
  5
128
330
1F
100
AcDbEntity
  8
0
 62
     7
100
AcDbLine
 10
-225.57748
 20
447.6708450000001
 30
0.0
 11
-225.57748
 21
434.4158350000001
 31
0.0
  0
LINE
  5
129
330
1F
100
AcDbEntity
  8
0
 62
     7
100
AcDbLine
 10
-331.2775599999999
 20
447.6708450000001
 30
0.0
 11
-331.2775599999999
 21
434.4158350000001
 31
0.0
  0
LINE
  5
12A
330
1F
100
AcDbEntity
  8
0
 62
     7
100
AcDbLine
 10
-331.27762
 20
434.4158350000001
 30
0.0
 11
-363.3775999999999
 21
434.4158350000001
 31
0.0
  0
LINE
  5
12B
330
1F
100
AcDbEntity
  8
0
 62
     7
100
AcDbLine
 10
-363.3775999999999
 20
431.9158350000001
 30
0.0
 11
-418.37747
 21
431.9158350000001
 31
0.0
  0
LINE
  5
12C
330
1F
100
AcDbEntity
  8
0
 62
     7
100
AcDbLine
 10
-531.1777600000002
 20
431.4160350000001
 30
0.0
 11
-538.1777600000002
 21
424.4160250000001
 31
0.0
  0
CIRCLE
  5
12D
330
1F
100
AcDbEntity
  8
0
 62
     7
100
AcDbCircle
 10
-821.36497
 20
244.4158550000001
 30
0.0
 40
47.5
  0
CIRCLE
  5
12E
330
1F
100
AcDbEntity
  8
0
 62
     7
100
AcDbCircle
 10
478.5099100000001
 20
244.4158550000001
 30
0.0
 40
47.5
  0
CIRCLE
  5
12F
330
1F
100
AcDbEntity
  8
0
 62
     7
100
AcDbCircle
 10
478.5099100000001
 20
244.4158550000001
 30
0.0
 40
187.000045
  0
ARC
  5
130
330
1F
100
AcDbEntity
  8
0
 62
     7
100
AcDbCircle
 10
478.5099100000001
 20
244.4158550000001
 30
0.0
 40
191.99997
100
AcDbArc
 50
0.0
 51
89.25394100000001
  0
ARC
  5
131
330
1F
100
AcDbEntity
  8
0
 62
     7
100
AcDbCircle
 10
478.5099100000001
 20
244.4158550000001
 30
0.0
 40
289.49997
100
AcDbArc
 50
0.0
 51
89.50520990000001
  0
ARC
  5
132
330
1F
100
AcDbEntity
  8
0
 62
     7
100
AcDbCircle
 10
290.82618
 20
365.0329550000001
 30
0.0
 40
9.925000000000001
100
AcDbArc
 50
49.09091200000007
 51
229.0908599999999
  0
ARC
  5
133
330
1F
100
AcDbEntity
  8
0
 62
     7
100
AcDbCircle
 10
290.82618
 20
365.0329550000001
 30
0.0
 40
26.0000015
100
AcDbArc
 50
116.4041300000001
 51
229.0908599999999
  0
ARC
  5
134
330
1F
100
AcDbEntity
  8
0
 62
     7
100
AcDbCircle
 10
254.21883
 20
438.7646050000001
 30
0.0
 40
56.319285
100
AcDbArc
 50
296.4040900000001
 51
328.42981
  0
ARC
  5
135
330
1F
100
AcDbEntity
  8
0
 62
     7
100
AcDbCircle
 10
290.82618
 20
365.0329550000001
 30
0.0
 40
9.925000000000001
100
AcDbArc
 50
229.0908999999996
 51
409.0908579999997
  0
ARC
  5
136
330
1F
100
AcDbEntity
  8
0
 62
     7
100
AcDbCircle
 10
369.01728
 20
339.2912050000001
 30
0.0
 40
56.319285
100
AcDbArc
 50
137.9971100000001
 51
161.7776800000001
  0
ARC
  5
137
330
1F
100
AcDbEntity
  8
0
 62
     7
100
AcDbCircle
 10
290.82618
 20
365.0329550000001
 30
0.0
 40
26.0000015
100
AcDbArc
 50
229.0909000000001
 51
341.7776499999999
  0
ARC
  5
138
330
1F
100
AcDbEntity
  8
0
 62
     7
100
AcDbCircle
 10
290.82618
 20
365.0329550000001
 30
0.0
 40
30.150001
100
AcDbArc
 50
91.81274809999998
 51
185.0942700000001
  0
ARC
  5
139
330
1F
100
AcDbEntity
  8
0
 62
     7
100
AcDbCircle
 10
226.87933
 20
359.332255
 30
0.0
 40
34.0504765
100
AcDbArc
 50
335.45454
 51
365.0942488
  0
ARC
  5
13A
330
1F
100
AcDbEntity
  8
0
 62
     7
100
AcDbCircle
 10
226.87933
 20
359.3321550000001
 30
0.0
 40
34.0504765
100
AcDbArc
 50
305.8148399999999
 51
335.45455
  0
ARC
  5
13B
330
1F
100
AcDbEntity
  8
0
 62
     7
100
AcDbCircle
 10
264.4474300000001
 20
307.2712550000001
 30
0.0
 40
30.150001
100
AcDbArc
 50
125.8147900000001
 51
219.0941799999999
  0
ARC
  5
13C
330
1F
100
AcDbEntity
  8
0
 62
     7
100
AcDbCircle
 10
328.39423
 20
312.9719550000001
 30
0.0
 40
34.0504765
100
AcDbArc
 50
125.8147900000001
 51
155.4545
  0
ARC
  5
13D
330
1F
100
AcDbEntity
  8
0
 62
     7
100
AcDbCircle
 10
290.82618
 20
365.0329550000001
 30
0.0
 40
30.150001
100
AcDbArc
 50
305.81475
 51
366.3690763099999
  0
ARC
  5
13E
330
1F
100
AcDbEntity
  8
0
 62
     7
100
AcDbCircle
 10
328.39423
 20
312.9718550000001
 30
0.0
 40
34.0504765
100
AcDbArc
 50
155.4545900000001
 51
185.0943
  0
ARC
  5
13F
330
1F
100
AcDbEntity
  8
0
 62
     7
100
AcDbCircle
 10
264.4474300000001
 20
307.2712550000001
 30
0.0
 40
30.150001
100
AcDbArc
 50
308.17637
 51
365.0943444
  0
ARC
  5
140
330
1F
100
AcDbEntity
  8
0
 62
     7
100
AcDbCircle
 10
264.44678
 20
181.5621550000001
 30
0.0
 40
30.150001
100
AcDbArc
 50
158.54205
 51
251.82194
  0
ARC
  5
141
330
1F
100
AcDbEntity
  8
0
 62
     7
100
AcDbCircle
 10
315.16043
 20
220.9302050000001
 30
0.0
 40
34.0504765
100
AcDbArc
 50
158.54205
 51
188.18177
  0
ARC
  5
142
330
1F
100
AcDbEntity
  8
0
 62
     7
100
AcDbCircle
 10
255.40993
 20
244.4158550000001
 30
0.0
 40
30.150001
100
AcDbArc
 50
338.5420199999999
 51
399.0963479999999
  0
ARC
  5
143
330
1F
100
AcDbEntity
  8
0
 62
     7
100
AcDbCircle
 10
264.44678
 20
181.5621550000001
 30
0.0
 40
30.150001
100
AcDbArc
 50
340.9036399999999
 51
397.821612
  0
ARC
  5
144
330
1F
100
AcDbEntity
  8
0
 62
     7
100
AcDbCircle
 10
315.16043
 20
220.9301550000001
 30
0.0
 40
34.0504765
100
AcDbArc
 50
188.1818599999999
 51
217.82158
  0
ARC
  5
145
330
1F
100
AcDbEntity
  8
0
 62
     7
100
AcDbCircle
 10
255.40993
 20
244.4158550000001
 30
0.0
 40
9.925000000000001
100
AcDbArc
 50
81.81818009999984
 51
261.8181400000002
  0
ARC
  5
146
330
1F
100
AcDbEntity
  8
0
 62
     7
100
AcDbCircle
 10
255.40993
 20
244.4158550000001
 30
0.0
 40
26.0000015
100
AcDbArc
 50
149.1313900000001
 51
261.8181400000001
  0
ARC
  5
147
330
1F
100
AcDbEntity
  8
0
 62
     7
100
AcDbCircle
 10
184.75138
 20
286.651505
 30
0.0
 40
56.319285
100
AcDbArc
 50
329.13137
 51
351.8181999999999
  0
ARC
  5
148
330
1F
100
AcDbEntity
  8
0
 62
     7
100
AcDbCircle
 10
264.44678
 20
307.2695050000001
 30
0.0
 40
9.925000000000001
100
AcDbArc
 50
81.81818009999984
 51
261.8181400000002
  0
ARC
  5
149
330
1F
100
AcDbEntity
  8
0
 62
     7
100
AcDbCircle
 10
184.75138
 20
286.651505
 30
0.0
 40
56.319285
100
AcDbArc
 50
351.81814
 51
374.504972
  0
ARC
  5
14A
330
1F
100
AcDbEntity
  8
0
 62
     7
100
AcDbCircle
 10
264.44678
 20
307.2695050000001
 30
0.0
 40
26.0000015
100
AcDbArc
 50
81.81818009999996
 51
194.50494
  0
ARC
  5
14B
330
1F
100
AcDbEntity
  8
0
 62
     7
100
AcDbCircle
 10
255.40993
 20
244.4158550000001
 30
0.0
 40
9.925000000000001
100
AcDbArc
 50
261.81816
 51
441.8181261999997
  0
ARC
  5
14C
330
1F
100
AcDbEntity
  8
0
 62
     7
100
AcDbCircle
 10
335.1053800000001
 20
265.0338550000001
 30
0.0
 40
56.319285
100
AcDbArc
 50
171.81811
 51
194.50494
  0
ARC
  5
14D
330
1F
100
AcDbEntity
  8
0
 62
     7
100
AcDbCircle
 10
255.40993
 20
244.4158550000001
 30
0.0
 40
26.0000015
100
AcDbArc
 50
261.8181599999999
 51
374.504918
  0
ARC
  5
14E
330
1F
100
AcDbEntity
  8
0
 62
     7
100
AcDbCircle
 10
264.44678
 20
307.2695050000001
 30
0.0
 40
9.925000000000001
100
AcDbArc
 50
261.81816
 51
441.8181261999997
  0
ARC
  5
14F
330
1F
100
AcDbEntity
  8
0
 62
     7
100
AcDbCircle
 10
335.1053800000001
 20
265.0338550000001
 30
0.0
 40
56.319285
100
AcDbArc
 50
149.1313300000001
 51
171.81816
  0
ARC
  5
150
330
1F
100
AcDbEntity
  8
0
 62
     7
100
AcDbCircle
 10
264.44678
 20
307.2695050000001
 30
0.0
 40
26.0000015
100
AcDbArc
 50
329.13137
 51
441.8181262000001
  0
ARC
  5
151
330
1F
100
AcDbEntity
  8
0
 62
     7
100
AcDbCircle
 10
255.40993
 20
244.4158550000001
 30
0.0
 40
30.150001
100
AcDbArc
 50
124.54002
 51
217.82155
  0
ARC
  5
152
330
1F
100
AcDbEntity
  8
0
 62
     7
100
AcDbCircle
 10
204.69628
 20
205.0479050000001
 30
0.0
 40
34.0504765
100
AcDbArc
 50
8.181808489999952
 51
37.82152399999989
  0
ARC
  5
153
330
1F
100
AcDbEntity
  8
0
 62
     7
100
AcDbCircle
 10
204.69628
 20
205.047805
 30
0.0
 40
34.0504765
100
AcDbArc
 50
338.54211
 51
368.1818220699999
  0
ARC
  5
154
330
1F
100
AcDbEntity
  8
0
 62
     7
100
AcDbCircle
 10
353.7888300000001
 20
136.3450550000001
 30
0.0
 40
34.0504765
100
AcDbArc
 50
191.2693399999999
 51
228.17436
  0
ARC
  5
155
330
1F
100
AcDbEntity
  8
0
 62
     7
100
AcDbCircle
 10
290.82618
 20
123.7989050000001
 30
0.0
 40
30.150001
100
AcDbArc
 50
11.269296
 51
71.82361889999993
  0
ARC
  5
156
330
1F
100
AcDbEntity
  8
0
 62
     7
100
AcDbCircle
 10
290.82618
 20
123.7989050000001
 30
0.0
 40
9.925000000000001
100
AcDbArc
 50
114.5454600000004
 51
294.5454100000002
  0
ARC
  5
157
330
1F
100
AcDbEntity
  8
0
 62
     7
100
AcDbCircle
 10
290.82618
 20
123.7989050000001
 30
0.0
 40
26.0000015
100
AcDbArc
 50
181.8586800000001
 51
294.5454200000001
  0
ARC
  5
158
330
1F
100
AcDbEntity
  8
0
 62
     7
100
AcDbCircle
 10
208.5501800000001
 20
121.128905
 30
0.0
 40
56.319285
100
AcDbArc
 50
1.858641299999992
 51
24.54547000000002
  0
ARC
  5
159
330
1F
100
AcDbEntity
  8
0
 62
     7
100
AcDbCircle
 10
264.4474300000001
 20
181.5604050000001
 30
0.0
 40
9.925000000000001
100
AcDbArc
 50
114.5454600000004
 51
294.5454100000002
  0
ARC
  5
15A
330
1F
100
AcDbEntity
  8
0
 62
     7
100
AcDbCircle
 10
208.5501800000001
 20
121.128905
 30
0.0
 40
56.319285
100
AcDbArc
 50
24.545415
 51
47.23224399999999
  0
ARC
  5
15B
330
1F
100
AcDbEntity
  8
0
 62
     7
100
AcDbCircle
 10
264.4474300000001
 20
181.5604050000001
 30
0.0
 40
26.0000015
100
AcDbArc
 50
114.54546
 51
227.23221
  0
ARC
  5
15C
330
1F
100
AcDbEntity
  8
0
 62
     7
100
AcDbCircle
 10
290.82618
 20
123.7989050000001
 30
0.0
 40
9.925000000000001
100
AcDbArc
 50
294.5454399999997
 51
474.5454
  0
ARC
  5
15D
330
1F
100
AcDbEntity
  8
0
 62
     7
100
AcDbCircle
 10
346.72343
 20
184.2304050000001
 30
0.0
 40
56.319285
100
AcDbArc
 50
204.5453999999999
 51
227.2322299999999
  0
ARC
  5
15E
330
1F
100
AcDbEntity
  8
0
 62
     7
100
AcDbCircle
 10
290.82618
 20
123.7989050000001
 30
0.0
 40
26.0000015
100
AcDbArc
 50
294.54544
 51
407.2321890000001
  0
ARC
  5
15F
330
1F
100
AcDbEntity
  8
0
 62
     7
100
AcDbCircle
 10
264.4474300000001
 20
181.5604050000001
 30
0.0
 40
9.925000000000001
100
AcDbArc
 50
294.5454399999997
 51
474.5454
  0
ARC
  5
160
330
1F
100
AcDbEntity
  8
0
 62
     7
100
AcDbCircle
 10
346.72343
 20
184.2304050000001
 30
0.0
 40
56.319285
100
AcDbArc
 50
181.85863
 51
204.5454499999999
  0
ARC
  5
161
330
1F
100
AcDbEntity
  8
0
 62
     7
100
AcDbCircle
 10
264.4474300000001
 20
181.5604050000001
 30
0.0
 40
26.0000015
100
AcDbArc
 50
1.858641300000057
 51
114.5453999999999
  0
ARC
  5
162
330
1F
100
AcDbEntity
  8
0
 62
     7
100
AcDbCircle
 10
290.82618
 20
123.7989050000001
 30
0.0
 40
30.150001
100
AcDbArc
 50
157.2672900000001
 51
250.54882
  0
ARC
  5
163
330
1F
100
AcDbEntity
  8
0
 62
     7
100
AcDbCircle
 10
269.44708
 20
63.26255500000013
 30
0.0
 40
34.0504765
100
AcDbArc
 50
29.80657300000001
 51
70.54879179999992
  0
ARC
  5
164
330
1F
100
AcDbEntity
  8
0
 62
     7
100
AcDbCircle
 10
478.5099100000001
 20
244.4158550000001
 30
0.0
 40
289.49997
100
AcDbArc
 50
216.70673
 51
360.0
  0
ARC
  5
165
330
1F
100
AcDbEntity
  8
0
 62
     7
100
AcDbCircle
 10
478.5099100000001
 20
244.4158550000001
 30
0.0
 40
191.99997
100
AcDbArc
 50
221.10338
 51
360.0
  0
ARC
  5
166
330
1F
100
AcDbEntity
  8
0
 62
     7
100
AcDbCircle
 10
478.5099100000001
 20
244.4158550000001
 30
0.0
 40
191.99997
100
AcDbArc
 50
90.74607770000002
 51
138.0768200000001
  0
ARC
  5
167
330
1F
100
AcDbEntity
  8
0
 62
     7
100
AcDbCircle
 10
478.5099100000001
 20
244.4158550000001
 30
0.0
 40
289.49997
100
AcDbArc
 50
90.49480880000002
 51
137.32989
  0
ARC
  5
168
330
1F
100
AcDbEntity
  8
0
 62
     7
100
AcDbCircle
 10
293.597395
 20
447.5999750000001
 30
0.0
 40
28.8088236
100
AcDbArc
 50
193.965126
 51
208.197266
  0
ARC
  5
169
330
1F
100
AcDbEntity
  8
0
 62
     7
100
AcDbCircle
 10
286.845325
 20
443.8311150000001
 30
0.0
 40
21.0776387
100
AcDbArc
 50
207.8406699999999
 51
227.2933739999999
  0
ARC
  5
16A
330
1F
100
AcDbEntity
  8
0
 62
     7
100
AcDbCircle
 10
290.6667200000001
 20
449.0733700000001
 30
0.0
 40
27.531822
100
AcDbArc
 50
228.849025
 51
243.7378739999999
  0
ARC
  5
16B
330
1F
100
AcDbEntity
  8
0
 62
     7
100
AcDbCircle
 10
328.0318150000001
 20
524.0866050000001
 30
0.0
 40
111.335829
100
AcDbArc
 50
243.575
 51
247.25904
  0
ARC
  5
16C
330
1F
100
AcDbEntity
  8
0
 62
     7
100
AcDbCircle
 10
251.5038900000001
 20
342.6245750000001
 30
0.0
 40
85.6038435
100
AcDbArc
 50
62.1799852
 51
66.97000170000001
  0
ARC
  5
16D
330
1F
100
AcDbEntity
  8
0
 62
     7
100
AcDbCircle
 10
273.894775
 20
385.0940250000001
 30
0.0
 40
37.5933762
100
AcDbArc
 50
51.24632430000002
 51
62.15345489999996
  0
ARC
  5
16E
330
1F
100
AcDbEntity
  8
0
 62
     7
100
AcDbCircle
 10
283.1684
 20
396.3890950000001
 30
0.0
 40
22.980502
100
AcDbArc
 50
33.8063270999999
 51
51.6491656
  0
ARC
  5
16F
330
1F
100
AcDbEntity
  8
0
 62
     7
100
AcDbCircle
 10
288.25224
 20
400.4153400000001
 30
0.0
 40
16.5241585
100
AcDbArc
 50
7.219878589999867
 51
32.01367350000007
  0
ARC
  5
170
330
1F
100
AcDbEntity
  8
0
 62
     7
100
AcDbCircle
 10
249.453785
 20
395.4174
 30
0.0
 40
55.643174
100
AcDbArc
 50
359.940847
 51
367.30454244
  0
ARC
  5
171
330
1F
100
AcDbEntity
  8
0
 62
     7
100
AcDbCircle
 10
355.050375
 20
395.24175
 30
0.0
 40
49.9535868
100
AcDbArc
 50
179.8644220000001
 51
188.072976
  0
ARC
  5
172
330
1F
100
AcDbEntity
  8
0
 62
     7
100
AcDbCircle
 10
314.518455
 20
389.02894
 30
0.0
 40
8.962617
100
AcDbArc
 50
185.1363379999998
 51
230.8380119999997
  0
ARC
  5
173
330
1F
100
AcDbEntity
  8
0
 62
     7
100
AcDbCircle
 10
317.79936
 20
397.100045
 30
0.0
 40
17.4800586
100
AcDbArc
 50
239.2366559999999
 51
262.668325
  0
ARC
  5
174
330
1F
100
AcDbEntity
  8
0
 62
     7
100
AcDbCircle
 10
299.21199
 20
274.9791500000001
 30
0.0
 40
106.052705
100
AcDbArc
 50
77.26117109999998
 51
81.1277585
  0
ARC
  5
175
330
1F
100
AcDbEntity
  8
0
 62
     7
100
AcDbCircle
 10
312.529005
 20
338.5936850000001
 30
0.0
 40
41.0806476
100
AcDbArc
 50
65.8278694
 51
75.81296300000005
  0
ARC
  5
176
330
1F
100
AcDbEntity
  8
0
 62
     7
100
AcDbCircle
 10
307.39742
 20
327.49571
 30
0.0
 40
53.306998
100
AcDbArc
 50
57.98377230000006
 51
65.68034820000001
  0
ARC
  5
177
330
1F
100
AcDbEntity
  8
0
 62
     7
100
AcDbCircle
 10
266.78436
 20
304.7576600000001
 30
0.0
 40
234.268551
100
AcDbArc
 50
265.011703
 51
266.810458
  0
ARC
  5
178
330
1F
100
AcDbEntity
  8
0
 62
     7
100
AcDbCircle
 10
259.823965
 20
170.946495
 30
0.0
 40
100.278621
100
AcDbArc
 50
266.527322
 51
270.731921
  0
ARC
  5
179
330
1F
100
AcDbEntity
  8
0
 62
     7
100
AcDbCircle
 10
260.469435
 20
122.5753400000001
 30
0.0
 40
51.9031755
100
AcDbArc
 50
270.701538
 51
278.824904
  0
ARC
  5
17A
330
1F
100
AcDbEntity
  8
0
 62
     7
100
AcDbCircle
 10
261.960775
 20
110.9257850000001
 30
0.0
 40
40.1639607
100
AcDbArc
 50
279.272182
 51
289.7684640000001
  0
ARC
  5
17B
330
1F
100
AcDbEntity
  8
0
 62
     7
100
AcDbCircle
 10
409.6111340000001
 20
-294.9872239999999
 30
0.0
 40
391.769231
100
AcDbArc
 50
108.934557
 51
110.011383
  0
ARC
  5
17C
330
1F
100
AcDbEntity
  8
0
 62
     7
100
AcDbCircle
 10
303.87136
 20
6.469945000000053
 30
0.0
 40
72.34610499999999
100
AcDbArc
 50
101.365255
 51
107.192791
  0
ARC
  5
17D
330
1F
100
AcDbEntity
  8
0
 62
     7
100
AcDbCircle
 10
277.78764
 20
136.07928
 30
0.0
 40
59.8618405
100
AcDbArc
 50
281.3949809999999
 51
288.437992
  0
ARC
  5
17E
330
1F
100
AcDbEntity
  8
0
 62
     7
100
AcDbCircle
 10
288.5896750000001
 20
103.4184500000001
 30
0.0
 40
25.461292
100
AcDbArc
 50
288.6233629999999
 51
305.183874
  0
ARC
  5
17F
330
1F
100
AcDbEntity
  8
0
 62
     7
100
AcDbCircle
 10
292.193475
 20
97.42061500000011
 30
0.0
 40
18.4897522
100
AcDbArc
 50
306.7661720000002
 51
329.5537419999999
  0
ARC
  5
180
330
1F
100
AcDbEntity
  8
0
 62
     7
100
AcDbCircle
 10
330.794215
 20
83.1613450000001
 30
0.0
 40
22.0051794
100
AcDbArc
 50
130.160889
 51
149.3208259999999
  0
ARC
  5
181
330
1F
100
AcDbEntity
  8
0
 62
     7
100
AcDbCircle
 10
322.573945
 20
92.93684500000006
 30
0.0
 40
9.2328628
100
AcDbArc
 50
84.61809359999974
 51
130.2995310000001
  0
ARC
  5
182
330
1F
100
AcDbEntity
  8
0
 62
     7
100
AcDbCircle
 10
325.5302400000001
 20
106.54461
 30
0.0
 40
4.88538364
100
AcDbArc
 50
244.6675529999996
 51
330.2608189999997
  0
ARC
  5
183
330
1F
100
AcDbEntity
  8
0
 62
     7
100
AcDbCircle
 10
276.47574
 20
118.153445
 30
0.0
 40
55.112742
100
AcDbArc
 50
345.249541
 51
352.8899720000001
  0
ARC
  5
184
330
1F
100
AcDbEntity
  8
0
 62
     7
100
AcDbCircle
 10
352.28845
 20
107.0857150000001
 30
0.0
 40
21.5463053
100
AcDbArc
 50
149.056216
 51
168.6342970000001
  0
CIRCLE
  5
185
330
1F
100
AcDbEntity
  8
0
 62
     7
100
AcDbCircle
 10
-377.3775199999999
 20
-32.58414499999992
 30
0.0
 40
8.0
  0
CIRCLE
  5
186
330
1F
100
AcDbEntity
  8
0
 62
     7
100
AcDbCircle
 10
-377.3775199999999
 20
-32.58414499999992
 30
0.0
 40
7.0
  0
CIRCLE
  5
187
330
1F
100
AcDbEntity
  8
0
 62
     7
100
AcDbCircle
 10
-278.3775199999999
 20
-32.58414499999992
 30
0.0
 40
8.0
  0
CIRCLE
  5
188
330
1F
100
AcDbEntity
  8
0
 62
     7
100
AcDbCircle
 10
-278.3775199999999
 20
-32.58414499999992
 30
0.0
 40
7.0
  0
CIRCLE
  5
189
330
1F
100
AcDbEntity
  8
0
 62
     7
100
AcDbCircle
 10
-179.3774199999999
 20
-32.58414499999992
 30
0.0
 40
8.0
  0
CIRCLE
  5
18A
330
1F
100
AcDbEntity
  8
0
 62
     7
100
AcDbCircle
 10
-179.3774199999999
 20
-32.58414499999992
 30
0.0
 40
7.0
  0
ARC
  5
18B
330
1F
100
AcDbEntity
  8
0
 62
     7
100
AcDbCircle
 10
-415.37757
 20
45.03005500000006
 30
0.0
 40
3.00000005
100
AcDbArc
 50
179.9999800000006
 51
250.346080000002
  0
ARC
  5
18C
330
1F
100
AcDbEntity
  8
0
 62
     7
100
AcDbCircle
 10
-395.37757
 20
29.39225500000009
 30
0.0
 40
5.0
100
AcDbArc
 50
359.9999500000002
 51
430.3461331999991
  0
ARC
  5
18D
330
1F
100
AcDbEntity
  8
0
 62
     7
100
AcDbCircle
 10
-161.37747
 20
9.392355000000066
 30
0.0
 40
5.0
100
AcDbArc
 50
109.653820000001
 51
179.9999500000002
  0
ARC
  5
18E
330
1F
100
AcDbEntity
  8
0
 62
     7
100
AcDbCircle
 10
-141.37747
 20
25.02995500000009
 30
0.0
 40
3.00000005
100
AcDbArc
 50
289.6536599999989
 51
359.9999500000002
  0
ARC
  5
18F
330
1F
100
AcDbEntity
  8
0
 62
     7
100
AcDbCircle
 10
-171.37747
 20
-16.08409499999993
 30
0.0
 40
5.0
100
AcDbArc
 50
269.9999600000012
 51
359.9999500000002
  0
ARC
  5
190
330
1F
100
AcDbEntity
  8
0
 62
     7
100
AcDbCircle
 10
-187.37757
 20
-26.08409499999993
 30
0.0
 40
5.0
100
AcDbArc
 50
89.99998179999923
 51
179.9999599999999
  0
ARC
  5
191
330
1F
100
AcDbEntity
  8
0
 62
     7
100
AcDbCircle
 10
-197.37757
 20
-39.08409499999993
 30
0.0
 40
5.0
100
AcDbArc
 50
269.9999600000012
 51
359.9999500000002
  0
ARC
  5
192
330
1F
100
AcDbEntity
  8
0
 62
     7
100
AcDbCircle
 10
-171.37747
 20
-39.08409499999993
 30
0.0
 40
5.0
100
AcDbArc
 50
269.9999600000012
 51
359.9999500000002
  0
ARC
  5
193
330
1F
100
AcDbEntity
  8
0
 62
     7
100
AcDbCircle
 10
-259.3775199999999
 20
-39.08409499999993
 30
0.0
 40
5.0
100
AcDbArc
 50
179.99998
 51
269.9999600000012
  0
ARC
  5
194
330
1F
100
AcDbEntity
  8
0
 62
     7
100
AcDbCircle
 10
-297.3775199999999
 20
-39.08409499999993
 30
0.0
 40
5.0
100
AcDbArc
 50
269.9999600000012
 51
359.9999500000002
  0
ARC
  5
195
330
1F
100
AcDbEntity
  8
0
 62
     7
100
AcDbCircle
 10
-287.3775199999999
 20
-26.08409499999993
 30
0.0
 40
5.0
100
AcDbArc
 50
89.99992679999892
 51
179.9999599999999
  0
ARC
  5
196
330
1F
100
AcDbEntity
  8
0
 62
     7
100
AcDbCircle
 10
-269.3775199999999
 20
-26.08409499999993
 30
0.0
 40
5.0
100
AcDbArc
 50
359.9999500000002
 51
449.9999817999992
  0
ARC
  5
197
330
1F
100
AcDbEntity
  8
0
 62
     7
100
AcDbCircle
 10
-385.37757
 20
-16.08409499999993
 30
0.0
 40
5.0
100
AcDbArc
 50
179.9999800000006
 51
269.9999600000012
  0
ARC
  5
198
330
1F
100
AcDbEntity
  8
0
 62
     7
100
AcDbCircle
 10
-369.3775199999999
 20
-26.08409499999993
 30
0.0
 40
5.0
100
AcDbArc
 50
359.9999500000002
 51
449.999926799999
  0
ARC
  5
199
330
1F
100
AcDbEntity
  8
0
 62
     7
100
AcDbCircle
 10
-359.3775199999999
 20
-39.08409499999993
 30
0.0
 40
5.0
100
AcDbArc
 50
179.99998
 51
269.9999600000012
  0
ARC
  5
19A
330
1F
100
AcDbEntity
  8
0
 62
     7
100
AcDbCircle
 10
-385.37757
 20
-39.08409499999993
 30
0.0
 40
5.0
100
AcDbArc
 50
179.99998
 51
269.9999600000012
  0
ARC
  5
19B
330
1F
100
AcDbEntity
  8
0
 62
     7
100
AcDbCircle
 10
-141.37747
 20
463.3016550000001
 30
0.0
 40
3.00000005
100
AcDbArc
 50
0.0
 51
70.34629019999802
  0
ARC
  5
19C
330
1F
100
AcDbEntity
  8
0
 62
     7
100
AcDbCircle
 10
-161.37747
 20
478.9394550000001
 30
0.0
 40
5.0
100
AcDbArc
 50
179.9999800000006
 51
250.3461100000006
  0
ARC
  5
19D
330
1F
100
AcDbEntity
  8
0
 62
     7
100
AcDbCircle
 10
-186.37747
 20
498.915805
 30
0.0
 40
5.0
100
AcDbArc
 50
0.0
 51
89.99998179999923
  0
ARC
  5
19E
330
1F
100
AcDbEntity
  8
0
 62
     7
100
AcDbCircle
 10
-171.37747
 20
505.915805
 30
0.0
 40
5.0
100
AcDbArc
 50
0.0
 51
89.99998179999923
  0
CIRCLE
  5
19F
330
1F
100
AcDbEntity
  8
0
 62
     7
100
AcDbCircle
 10
-179.37747
 20
522.415805
 30
0.0
 40
6.0
  0
ARC
  5
1A0
330
1F
100
AcDbEntity
  8
0
 62
     7
100
AcDbCircle
 10
-187.37757
 20
515.915805
 30
0.0
 40
5.0
100
AcDbArc
 50
179.9999600000012
 51
269.9999500000002
  0
ARC
  5
1A1
330
1F
100
AcDbEntity
  8
0
 62
     7
100
AcDbCircle
 10
-197.37757
 20
528.915805
 30
0.0
 40
5.0
100
AcDbArc
 50
0.0
 51
89.99998179999923
  0
ARC
  5
1A2
330
1F
100
AcDbEntity
  8
0
 62
     7
100
AcDbCircle
 10
-171.37747
 20
528.915805
 30
0.0
 40
5.0
100
AcDbArc
 50
0.0
 51
89.99998179999923
  0
ARC
  5
1A3
330
1F
100
AcDbEntity
  8
0
 62
     7
100
AcDbCircle
 10
-259.3775199999999
 20
528.915805
 30
0.0
 40
5.0
100
AcDbArc
 50
89.99998179999923
 51
179.9999600000012
  0
ARC
  5
1A4
330
1F
100
AcDbEntity
  8
0
 62
     7
100
AcDbCircle
 10
-269.3775199999999
 20
515.915805
 30
0.0
 40
5.0
100
AcDbArc
 50
269.9999600000012
 51
360.0
  0
CIRCLE
  5
1A5
330
1F
100
AcDbEntity
  8
0
 62
     7
100
AcDbCircle
 10
-278.3775199999999
 20
522.415805
 30
0.0
 40
6.0
  0
ARC
  5
1A6
330
1F
100
AcDbEntity
  8
0
 62
     7
100
AcDbCircle
 10
-287.3775199999999
 20
515.915805
 30
0.0
 40
5.0
100
AcDbArc
 50
179.9999800000006
 51
270.0000199999994
  0
ARC
  5
1A7
330
1F
100
AcDbEntity
  8
0
 62
     7
100
AcDbCircle
 10
-297.3775199999999
 20
528.915805
 30
0.0
 40
5.0
100
AcDbArc
 50
0.0
 51
89.99998179999923
  0
ARC
  5
1A8
330
1F
100
AcDbEntity
  8
0
 62
     7
100
AcDbCircle
 10
-359.3775199999999
 20
528.915805
 30
0.0
 40
5.0
100
AcDbArc
 50
89.99998179999923
 51
179.9999600000012
  0
ARC
  5
1A9
330
1F
100
AcDbEntity
  8
0
 62
     7
100
AcDbCircle
 10
-385.37757
 20
528.915805
 30
0.0
 40
5.0
100
AcDbArc
 50
89.99998179999923
 51
179.9999600000012
  0
CIRCLE
  5
1AA
330
1F
100
AcDbEntity
  8
0
 62
     7
100
AcDbCircle
 10
-377.3775199999999
 20
522.415805
 30
0.0
 40
6.0
  0
ARC
  5
1AB
330
1F
100
AcDbEntity
  8
0
 62
     7
100
AcDbCircle
 10
-369.3775199999999
 20
515.915805
 30
0.0
 40
5.0
100
AcDbArc
 50
270.0000199999994
 51
360.0
  0
ARC
  5
1AC
330
1F
100
AcDbEntity
  8
0
 62
     7
100
AcDbCircle
 10
-385.37757
 20
505.915805
 30
0.0
 40
5.0
100
AcDbArc
 50
89.99998179999923
 51
179.9999600000012
  0
ARC
  5
1AD
330
1F
100
AcDbEntity
  8
0
 62
     7
100
AcDbCircle
 10
-370.37747
 20
498.915805
 30
0.0
 40
5.0
100
AcDbArc
 50
89.99998179999923
 51
179.9999600000012
  0
ARC
  5
1AE
330
1F
100
AcDbEntity
  8
0
 62
     7
100
AcDbCircle
 10
-370.37747
 20
453.2845550000001
 30
0.0
 40
5.0
100
AcDbArc
 50
179.9999800000006
 51
249.999990000001
  0
ARC
  5
1AF
330
1F
100
AcDbEntity
  8
0
 62
     7
100
AcDbCircle
 10
-366.3775199999999
 20
443.3152550000001
 30
0.0
 40
3.00000005
100
AcDbArc
 50
0.0
 51
69.99995899999883
  0
ARC
  5
1B0
330
1F
100
AcDbEntity
  8
0
 62
     7
100
AcDbCircle
 10
-395.37757
 20
458.9394550000001
 30
0.0
 40
5.0
100
AcDbArc
 50
289.6538100000013
 51
360.0
  0
ARC
  5
1B1
330
1F
100
AcDbEntity
  8
0
 62
     7
100
AcDbCircle
 10
-415.37757
 20
443.3016550000001
 30
0.0
 40
3.00000005
100
AcDbArc
 50
109.6538699999989
 51
179.999960000001
  0
LINE
  5
1B2
330
1F
100
AcDbEntity
  8
0
  6
CENTER
 62
     7
100
AcDbLine
 10
-548.4275200000001
 20
244.4158550000001
 30
0.0
 11
-8.427519999999959
 21
244.4158550000001
 31
0.0
  0
LINE
  5
1B3
330
1F
100
AcDbEntity
  8
0
  6
CENTER
 62
     7
100
AcDbLine
 10
-118.67752
 20
436.6658550000001
 30
0.0
 11
-118.67752
 21
286.6658550000001
 31
0.0
  0
LINE
  5
1B4
330
1F
100
AcDbEntity
  8
0
  6
CENTER
 62
     7
100
AcDbLine
 10
-438.17757
 20
436.6658550000001
 30
0.0
 11
-438.17757
 21
286.6658550000001
 31
0.0
  0
LINE
  5
1B5
330
1F
100
AcDbEntity
  8
0
  6
CENTER
 62
     7
100
AcDbLine
 10
-821.36497
 20
304.4158550000001
 30
0.0
 11
-821.36497
 21
184.4158550000001
 31
0.0
  0
LINE
  5
1B6
330
1F
100
AcDbEntity
  8
0
  6
CENTER
 62
     7
100
AcDbLine
 10
-881.36497
 20
244.4158550000001
 30
0.0
 11
-761.36497
 21
244.4158550000001
 31
0.0
  0
LINE
  5
1B7
330
1F
100
AcDbEntity
  8
0
  6
CENTER
 62
     7
100
AcDbLine
 10
478.5099100000001
 20
544.4158550000001
 30
0.0
 11
478.5099100000001
 21
-55.5841299999999
 31
0.0
  0
LINE
  5
1B8
330
1F
100
AcDbEntity
  8
0
  6
CENTER
 62
     7
100
AcDbLine
 10
178.50998
 20
244.4158550000001
 30
0.0
 11
778.509985
 21
244.4158550000001
 31
0.0
  0
CIRCLE
  5
1B9
330
1F
100
AcDbEntity
  8
0
  6
CENTER
 62
     7
100
AcDbCircle
 10
478.5099100000001
 20
244.4158550000001
 30
0.0
 40
223.10005
  0
LINE
  5
1BA
330
1F
100
AcDbEntity
  8
0
  6
DIVIDE
 62
     7
100
AcDbLine
 10
-126.67747
 20
431.4158550000001
 30
0.0
 11
-126.67747
 21
291.9158550000001
 31
0.0
  0
LINE
  5
1BB
330
1F
100
AcDbEntity
  8
0
  6
DIVIDE
 62
     7
100
AcDbLine
 10
-110.67747
 20
431.4158550000001
 30
0.0
 11
-110.67747
 21
291.9158550000001
 31
0.0
  0
LINE
  5
1BC
330
1F
100
AcDbEntity
  8
0
  6
DIVIDE
 62
     7
100
AcDbLine
 10
-430.1775200000001
 20
431.4158550000001
 30
0.0
 11
-430.1775200000001
 21
291.9158550000001
 31
0.0
  0
LINE
  5
1BD
330
1F
100
AcDbEntity
  8
0
  6
DIVIDE
 62
     7
100
AcDbLine
 10
-446.1774199999999
 20
431.4158550000001
 30
0.0
 11
-446.1774199999999
 21
291.9158550000001
 31
0.0
  0
LINE
  5
1BE
330
1F
100
AcDbEntity
  8
0
  6
DIVIDE
 62
     7
100
AcDbLine
 10
-108.67752
 20
431.4158050000001
 30
0.0
 11
-108.67752
 21
291.9158400000001
 31
0.0
  0
LINE
  5
1BF
330
1F
100
AcDbEntity
  8
0
  6
DIVIDE
 62
     7
100
AcDbLine
 10
-128.6775200000001
 20
431.4158050000001
 30
0.0
 11
-128.6775200000001
 21
291.9158400000001
 31
0.0
  0
LINE
  5
1C0
330
1F
100
AcDbEntity
  8
0
  6
DIVIDE
 62
     7
100
AcDbLine
 10
-448.1775799999999
 20
431.4158050000001
 30
0.0
 11
-448.1775799999999
 21
291.9158400000001
 31
0.0
  0
LINE
  5
1C1
330
1F
100
AcDbEntity
  8
0
  6
DIVIDE
 62
     7
100
AcDbLine
 10
-428.1775799999999
 20
431.4158050000001
 30
0.0
 11
-428.1775799999999
 21
291.9158400000001
 31
0.0
  0
TEXT
  5
1C3
330
1F
100
AcDbEntity
  8
0
 62
     7
100
AcDbText
 10
-18.28471883596603
 20
-109.3592500124999
 30
0.0
 40
20.0
  1
ＴＳＵＢＡＫＩ
 41
0.6684682282186804
  7
FDASTYLE0
 72
     5
 11
117.1294514292317
 21
-109.3592500124999
 31
0.0
100
AcDbText
  0
TEXT
  5
1C4
330
1F
100
AcDbEntity
  8
0
 62
     7
100
AcDbText
 10
-18.28471883596603
 20
-139.3592500124999
 30
0.0
 40
20.0
  1
CR20022
 41
0.7756842423432264
  7
FDASTYLE0
 72
     5
 11
117.1294514292317
 21
-139.3592500124999
 31
0.0
100
AcDbText
  0
VIEWPORT
  5
2B
330
1B
100
AcDbEntity
 67
     1
  8
0
100
AcDbViewport
 10
-51.42749249999997
 20
202.5283024937501
 30
0.0
 40
4979.624865
 41
2051.3253150375
 68
     1
 69
     1
1001
ACAD
1000
MVIEW
1002
{
1070
    16
1010
0.0
1020
0.0
1030
0.0
1010
0.0
1020
0.0
1030
1.0
1040
0.0
1040
2051.3253150375
1040
-51.42749249999997
1040
202.5283024937501
1040
50.0
1040
0.0
1040
0.0
1070
     0
1070
   100
1070
     0
1070
     1
1070
     0
1070
     0
1070
     0
1070
     0
1040
0.0
1040
0.0
1040
0.0
1040
0.5
1040
0.5
1040
0.0
1040
0.0
1070
     0
1002
{
1002
}
1002
}
  0
ENDSEC
  0
SECTION
  2
OBJECTS
  0
DICTIONARY
  5
C
330
0
100
AcDbDictionary
  3
ACAD_GROUP
350
D
  3
ACAD_LAYOUT
350
1A
  3
ACAD_MLINESTYLE
350
17
  3
ACAD_PLOTSETTINGS
350
19
  3
ACDBHEADERROUNDTRIPXREC
350
1C5
  0
DICTIONARY
  5
D
102
{ACAD_REACTORS
330
C
102
}
330
C
100
AcDbDictionary
  0
DICTIONARY
  5
1A
102
{ACAD_REACTORS
330
C
102
}
330
C
100
AcDbDictionary
  0
DICTIONARY
  5
17
102
{ACAD_REACTORS
330
C
102
}
330
C
100
AcDbDictionary
  3
STANDARD
350
18
  0
DICTIONARY
  5
19
102
{ACAD_REACTORS
330
C
102
}
330
C
100
AcDbDictionary
  0
DICTIONARY
  5
1C5
102
{ACAD_REACTORS
330
C
102
}
330
C
100
AcDbDictionary
  3
CEPSNTYPE
350
1CE
  3
DIMSTYLEDATA
350
1E4
  3
FINGERPRINTGUID
350
1CF
  3
HYPERLINKBASE
350
1C8
  3
INSUNITS
350
1CD
  3
LAYOUTDICT
350
1CA
  3
LWETCUNION
350
1CC
  3
PLOTSETDICT
350
1CB
  3
PSVPSCALE
350
1D1
  3
PUCSBASE
350
1D4
  3
PUCSORGBACK
350
1DA
  3
PUCSORGBOTTOM
350
1D6
  3
PUCSORGFRONT
350
1D9
  3
PUCSORGLEFT
350
1D7
  3
PUCSORGRIGHT
350
1D8
  3
PUCSORGTOP
350
1D5
  3
PUCSORTHOREF
350
1D2
  3
PUCSORTHOVIEW
350
1D3
  3
STYLESHEET
350
1C9
  3
TSTACKALIGN
350
1C6
  3
TSTACKSIZE
350
1C7
  3
UCSBASE
350
1DD
  3
UCSORGBACK
350
1E3
  3
UCSORGBOTTOM
350
1DF
  3
UCSORGFRONT
350
1E2
  3
UCSORGLEFT
350
1E0
  3
UCSORGRIGHT
350
1E1
  3
UCSORGTOP
350
1DE
  3
UCSORTHOREF
350
1DB
  3
UCSORTHOVIEW
350
1DC
  3
VERSIONGUID
350
1D0
  0
MLINESTYLE
  5
18
102
{ACAD_REACTORS
330
17
102
}
330
17
100
AcDbMlineStyle
  2
Standard
 70
     0
  3

 62
   256
 51
90.0
 52
90.0
 71
     2
 49
0.5
 62
   256
  6
BYLAYER
 49
-0.5
 62
   256
  6
BYLAYER
  0
XRECORD
  5
1CE
102
{ACAD_REACTORS
330
1C5
102
}
330
1C5
100
AcDbXrecord
 90
        0
  0
XRECORD
  5
1E4
102
{ACAD_REACTORS
330
1C5
102
}
330
1C5
100
AcDbXrecord
1000
DSTYLE
1002
{
1070
   171
 70
     2
1070
   143
 40
25.4
1070
   274
 70
     2
1070
   141
 40
0.09
1070
   271
 70
     4
1070
    43
 40
0.38
1070
    44
 40
0.18
1070
   278
 70
    46
1070
    42
 40
0.0625
1070
   147
 40
0.09
1070
    77
 70
     3
1070
   272
 70
     4
1070
    73
 70
     1
1070
   172
 70
     0
1070
    74
 70
     1
1070
   283
 70
     1
1070
   340
340
11
1070
   140
 40
0.18
1070
   284
 70
     0
1070
    78
 70
     0
1002
}
  0
XRECORD
  5
1CF
102
{ACAD_REACTORS
330
1C5
102
}
330
1C5
100
AcDbXrecord
  1
{4BD0E933-5140-4382-8EE5-3D3077E8D8C9}
  0
XRECORD
  5
1C8
102
{ACAD_REACTORS
330
1C5
102
}
330
1C5
100
AcDbXrecord
  1

  0
XRECORD
  5
1CD
102
{ACAD_REACTORS
330
1C5
102
}
330
1C5
100
AcDbXrecord
 90
        4
  0
XRECORD
  5
1CA
102
{ACAD_REACTORS
330
1C5
102
}
330
1C5
100
AcDbXrecord
340
1A
  0
XRECORD
  5
1CC
102
{ACAD_REACTORS
330
1C5
102
}
330
1C5
100
AcDbXrecord
 90
    10781
  0
XRECORD
  5
1CB
102
{ACAD_REACTORS
330
1C5
102
}
330
1C5
100
AcDbXrecord
340
19
  0
XRECORD
  5
1D1
102
{ACAD_REACTORS
330
1C5
102
}
330
1C5
100
AcDbXrecord
 40
0.0
  0
XRECORD
  5
1D4
102
{ACAD_REACTORS
330
1C5
102
}
330
1C5
100
AcDbXrecord
340
0
  0
XRECORD
  5
1DA
102
{ACAD_REACTORS
330
1C5
102
}
330
1C5
100
AcDbXrecord
 10
0.0
 20
0.0
 30
0.0
  0
XRECORD
  5
1D6
102
{ACAD_REACTORS
330
1C5
102
}
330
1C5
100
AcDbXrecord
 10
0.0
 20
0.0
 30
0.0
  0
XRECORD
  5
1D9
102
{ACAD_REACTORS
330
1C5
102
}
330
1C5
100
AcDbXrecord
 10
0.0
 20
0.0
 30
0.0
  0
XRECORD
  5
1D7
102
{ACAD_REACTORS
330
1C5
102
}
330
1C5
100
AcDbXrecord
 10
0.0
 20
0.0
 30
0.0
  0
XRECORD
  5
1D8
102
{ACAD_REACTORS
330
1C5
102
}
330
1C5
100
AcDbXrecord
 10
0.0
 20
0.0
 30
0.0
  0
XRECORD
  5
1D5
102
{ACAD_REACTORS
330
1C5
102
}
330
1C5
100
AcDbXrecord
 10
0.0
 20
0.0
 30
0.0
  0
XRECORD
  5
1D2
102
{ACAD_REACTORS
330
1C5
102
}
330
1C5
100
AcDbXrecord
340
0
  0
XRECORD
  5
1D3
102
{ACAD_REACTORS
330
1C5
102
}
330
1C5
100
AcDbXrecord
 70
     0
  0
XRECORD
  5
1C9
102
{ACAD_REACTORS
330
1C5
102
}
330
1C5
100
AcDbXrecord
  1

  0
XRECORD
  5
1C6
102
{ACAD_REACTORS
330
1C5
102
}
330
1C5
100
AcDbXrecord
 90
        1
  0
XRECORD
  5
1C7
102
{ACAD_REACTORS
330
1C5
102
}
330
1C5
100
AcDbXrecord
 90
       70
  0
XRECORD
  5
1DD
102
{ACAD_REACTORS
330
1C5
102
}
330
1C5
100
AcDbXrecord
340
0
  0
XRECORD
  5
1E3
102
{ACAD_REACTORS
330
1C5
102
}
330
1C5
100
AcDbXrecord
 10
0.0
 20
0.0
 30
0.0
  0
XRECORD
  5
1DF
102
{ACAD_REACTORS
330
1C5
102
}
330
1C5
100
AcDbXrecord
 10
0.0
 20
0.0
 30
0.0
  0
XRECORD
  5
1E2
102
{ACAD_REACTORS
330
1C5
102
}
330
1C5
100
AcDbXrecord
 10
0.0
 20
0.0
 30
0.0
  0
XRECORD
  5
1E0
102
{ACAD_REACTORS
330
1C5
102
}
330
1C5
100
AcDbXrecord
 10
0.0
 20
0.0
 30
0.0
  0
XRECORD
  5
1E1
102
{ACAD_REACTORS
330
1C5
102
}
330
1C5
100
AcDbXrecord
 10
0.0
 20
0.0
 30
0.0
  0
XRECORD
  5
1DE
102
{ACAD_REACTORS
330
1C5
102
}
330
1C5
100
AcDbXrecord
 10
0.0
 20
0.0
 30
0.0
  0
XRECORD
  5
1DB
102
{ACAD_REACTORS
330
1C5
102
}
330
1C5
100
AcDbXrecord
340
0
  0
XRECORD
  5
1DC
102
{ACAD_REACTORS
330
1C5
102
}
330
1C5
100
AcDbXrecord
 70
     0
  0
XRECORD
  5
1D0
102
{ACAD_REACTORS
330
1C5
102
}
330
1C5
100
AcDbXrecord
  1
{FAEB1C32-E019-11D5-929B-00C0DF256EC4}
  0
ENDSEC
  0
EOF
