  0
SECTION
  2
HEADER
  9
$ACADVER
  1
AC1014
  9
$ACADMAINTVER
 70
     9
  9
$DWGCODEPAGE
  3
ANSI_932
  9
$INSBASE
 10
0.0
 20
0.0
 30
0.0
  9
$EXTMIN
 10
-1515.104802
 20
-636.2589945250001
 30
0.0
  9
$EXTMAX
 10
1474.931709
 20
716.5761465125
 30
0.0
  9
$LIMMIN
 10
-527.816335
 20
-517.9372605
  9
$LIMMAX
 10
527.816335
 20
517.9372605
  9
$ORTHOMODE
 70
     0
  9
$REGENMODE
 70
     1
  9
$FILLMODE
 70
     1
  9
$QTEXTMODE
 70
     0
  9
$MIRRTEXT
 70
     1
  9
$DRAGMODE
 70
     2
  9
$LTSCALE
 40
1.0
  9
$OSMODE
 70
    37
  9
$ATTMODE
 70
     1
  9
$TEXTSIZE
 40
0.2
  9
$TRACEWID
 40
0.05
  9
$TEXTSTYLE
  7
STANDARD
  9
$CLAYER
  8
0
  9
$CELTYPE
  6
BYLAYER
  9
$CECOLOR
 62
   256
  9
$CELTSCALE
 40
1.0
  9
$DELOBJ
 70
     1
  9
$DISPSILH
 70
     0
  9
$DIMSCALE
 40
1.0
  9
$DIMASZ
 40
2.5
  9
$DIMEXO
 40
0.0625
  9
$DIMDLI
 40
0.38
  9
$DIMRND
 40
0.0
  9
$DIMDLE
 40
0.0
  9
$DIMEXE
 40
0.18
  9
$DIMTP
 40
0.0
  9
$DIMTM
 40
0.0
  9
$DIMTXT
 40
0.18
  9
$DIMCEN
 40
0.09
  9
$DIMTSZ
 40
0.0
  9
$DIMTOL
 70
     0
  9
$DIMLIM
 70
     0
  9
$DIMTIH
 70
     1
  9
$DIMTOH
 70
     1
  9
$DIMSE1
 70
     0
  9
$DIMSE2
 70
     0
  9
$DIMTAD
 70
     3
  9
$DIMZIN
 70
     0
  9
$DIMBLK
  1

  9
$DIMASO
 70
     1
  9
$DIMSHO
 70
     1
  9
$DIMPOST
  1

  9
$DIMAPOST
  1

  9
$DIMALT
 70
     0
  9
$DIMALTD
 70
     2
  9
$DIMALTF
 40
25.4
  9
$DIMLFAC
 40
1.0
  9
$DIMTOFL
 70
     0
  9
$DIMTVP
 40
0.0
  9
$DIMTIX
 70
     0
  9
$DIMSOXD
 70
     0
  9
$DIMSAH
 70
     0
  9
$DIMBLK1
  1

  9
$DIMBLK2
  1

  9
$DIMSTYLE
  2
STANDARD
  9
$DIMCLRD
 70
     0
  9
$DIMCLRE
 70
     0
  9
$DIMCLRT
 70
     0
  9
$DIMTFAC
 40
1.0
  9
$DIMGAP
 40
0.09
  9
$DIMJUST
 70
     0
  9
$DIMSD1
 70
     0
  9
$DIMSD2
 70
     0
  9
$DIMTOLJ
 70
     1
  9
$DIMTZIN
 70
     0
  9
$DIMALTZ
 70
     0
  9
$DIMALTTZ
 70
     0
  9
$DIMFIT
 70
     3
  9
$DIMUPT
 70
     0
  9
$DIMUNIT
 70
     2
  9
$DIMDEC
 70
     4
  9
$DIMTDEC
 70
     4
  9
$DIMALTU
 70
     2
  9
$DIMALTTD
 70
     2
  9
$DIMTXSTY
  7
STANDARD
  9
$DIMAUNIT
 70
     0
  9
$LUNITS
 70
     2
  9
$LUPREC
 70
     4
  9
$SKETCHINC
 40
0.1
  9
$FILLETRAD
 40
0.5
  9
$AUNITS
 70
     0
  9
$AUPREC
 70
     0
  9
$MENU
  1
.
  9
$ELEVATION
 40
0.0
  9
$PELEVATION
 40
0.0
  9
$THICKNESS
 40
0.0
  9
$LIMCHECK
 70
     0
  9
$CHAMFERA
 40
0.5
  9
$CHAMFERB
 40
0.5
  9
$CHAMFERC
 40
1.0
  9
$CHAMFERD
 40
0.0
  9
$SKPOLY
 70
     0
  9
$TDCREATE
 40
2454068.631568762
  9
$TDUPDATE
 40
2454068.631568773
  9
$TDINDWG
 40
0.0000000116
  9
$TDUSRTIMER
 40
0.0000000116
  9
$USRTIMER
 70
     1
  9
$ANGBASE
 50
0.0
  9
$ANGDIR
 70
     0
  9
$PDMODE
 70
     0
  9
$PDSIZE
 40
1.0
  9
$PLINEWID
 40
0.0
  9
$COORDS
 70
     1
  9
$SPLFRAME
 70
     0
  9
$SPLINETYPE
 70
     6
  9
$SPLINESEGS
 70
     8
  9
$ATTDIA
 70
     0
  9
$ATTREQ
 70
     1
  9
$HANDLING
 70
     1
  9
$HANDSEED
  5
1CB
  9
$SURFTAB1
 70
     6
  9
$SURFTAB2
 70
     6
  9
$SURFTYPE
 70
     6
  9
$SURFU
 70
     6
  9
$SURFV
 70
     6
  9
$UCSNAME
  2

  9
$UCSORG
 10
0.0
 20
0.0
 30
0.0
  9
$UCSXDIR
 10
1.0
 20
0.0
 30
0.0
  9
$UCSYDIR
 10
0.0
 20
1.0
 30
0.0
  9
$PUCSNAME
  2

  9
$PUCSORG
 10
0.0
 20
0.0
 30
0.0
  9
$PUCSXDIR
 10
1.0
 20
0.0
 30
0.0
  9
$PUCSYDIR
 10
0.0
 20
1.0
 30
0.0
  9
$USERI1
 70
     0
  9
$USERI2
 70
     0
  9
$USERI3
 70
     0
  9
$USERI4
 70
     0
  9
$USERI5
 70
     0
  9
$USERR1
 40
0.0
  9
$USERR2
 40
0.0
  9
$USERR3
 40
0.0
  9
$USERR4
 40
0.0
  9
$USERR5
 40
0.0
  9
$WORLDVIEW
 70
     1
  9
$SHADEDGE
 70
     3
  9
$SHADEDIF
 70
    70
  9
$TILEMODE
 70
     1
  9
$MAXACTVP
 70
    64
  9
$PINSBASE
 10
0.0
 20
0.0
 30
0.0
  9
$PLIMCHECK
 70
     0
  9
$PEXTMIN
 10
1.000000000000000E+20
 20
1.000000000000000E+20
 30
1.000000000000000E+20
  9
$PEXTMAX
 10
-1.000000000000000E+20
 20
-1.000000000000000E+20
 30
-1.000000000000000E+20
  9
$PLIMMIN
 10
0.0
 20
0.0
  9
$PLIMMAX
 10
12.0
 20
9.0
  9
$UNITMODE
 70
     0
  9
$VISRETAIN
 70
     0
  9
$PLINEGEN
 70
     1
  9
$PSLTSCALE
 70
     0
  9
$TREEDEPTH
 70
  3020
  9
$PICKSTYLE
 70
     1
  9
$CMLSTYLE
  2
STANDARD
  9
$CMLJUST
 70
     0
  9
$CMLSCALE
 40
1.0
  9
$PROXYGRAPHICS
 70
     0
  9
$MEASUREMENT
 70
     1
  0
ENDSEC
  0
SECTION
  2
CLASSES
  0
CLASS
  1
ACDBDICTIONARYWDFLT
  2
AcDbDictionaryWithDefault
  3
ObjectDBX Classes
 90
        0
280
     0
281
     0
  0
CLASS
  1
XRECORD
  2
AcDbXrecord
  3
AutoCAD 2000
 90
        0
280
     0
281
     0
  0
CLASS
  1
LWPOLYLINE
  2
AcDbPolyline
  3
AutoCAD 2000
 90
        0
280
     0
281
     1
  0
CLASS
  1
HATCH
  2
AcDbHatch
  3
AutoCAD 2000
 90
        0
280
     0
281
     1
  0
CLASS
  1
ACDBPLACEHOLDER
  2
AcDbPlaceHolder
  3
ObjectDBX Classes
 90
        0
280
     0
281
     0
  0
CLASS
  1
LAYOUT
  2
AcDbLayout
  3
ObjectDBX Classes
 90
        0
280
     0
281
     0
  0
ENDSEC
  0
SECTION
  2
TABLES
  0
TABLE
  2
VPORT
  5
8
330
0
100
AcDbSymbolTable
 70
     1
  0
VPORT
  5
29
330
8
100
AcDbSymbolTableRecord
100
AcDbViewportTableRecord
  2
*ACTIVE
 70
     0
 10
0.0
 20
0.0
 11
1.0
 21
1.0
 12
0.0
 22
0.0
 13
0.0
 23
0.0
 14
0.5
 24
0.5
 15
0.5
 25
0.5
 16
0.0
 26
0.0
 36
1.0
 17
-20.0865465
 27
40.15857599375002
 37
0.0
 40
459.9639479527501
 41
2.210200208657292
 42
50.0
 43
0.0
 44
0.0
 50
0.0
 51
0.0
 71
     0
 72
  1000
 73
     1
 74
     1
 75
     0
 76
     0
 77
     0
 78
     0
  0
ENDTAB
  0
TABLE
  2
LTYPE
  5
5
330
0
100
AcDbSymbolTable
 70
    28
  0
LTYPE
  5
14
330
5
100
AcDbSymbolTableRecord
100
AcDbLinetypeTableRecord
  2
BYBLOCK
 70
     0
  3

 72
    65
 73
     0
 40
0.0
  0
LTYPE
  5
15
330
5
100
AcDbSymbolTableRecord
100
AcDbLinetypeTableRecord
  2
BYLAYER
 70
     0
  3

 72
    65
 73
     0
 40
0.0
  0
LTYPE
  5
16
330
5
100
AcDbSymbolTableRecord
100
AcDbLinetypeTableRecord
  2
CONTINUOUS
 70
     0
  3
Solid line
 72
    65
 73
     0
 40
0.0
  0
LTYPE
  5
2C
330
5
100
AcDbSymbolTableRecord
100
AcDbLinetypeTableRecord
  2
HIDDENX2
 70
     0
  3
CADPAC LINETYPE
 72
    65
 73
     2
 40
22.74148234906693
 49
17.0561117618002
 74
     0
 49
-5.685370587266732
 74
     0
  0
LTYPE
  5
2D
330
5
100
AcDbSymbolTableRecord
100
AcDbLinetypeTableRecord
  2
HIDDEN
 70
     0
  3
CADPAC LINETYPE
 72
    65
 73
     2
 40
17.0561117618002
 49
11.37074117453346
 74
     0
 49
-5.685370587266732
 74
     0
  0
LTYPE
  5
2E
330
5
100
AcDbSymbolTableRecord
100
AcDbLinetypeTableRecord
  2
HIDDEN2
 70
     0
  3
CADPAC LINETYPE
 72
    65
 73
     2
 40
14.21342646816683
 49
8.528055880900098
 74
     0
 49
-5.685370587266732
 74
     0
  0
LTYPE
  5
2F
330
5
100
AcDbSymbolTableRecord
100
AcDbLinetypeTableRecord
  2
DASHED
 70
     0
  3
CADPAC LINETYPE
 72
    65
 73
     2
 40
13.64488940944034
 49
6.822444704720169
 74
     0
 49
-6.822444704720169
 74
     0
  0
LTYPE
  5
30
330
5
100
AcDbSymbolTableRecord
100
AcDbLinetypeTableRecord
  2
DASHED2
 70
     0
  3
CADPAC LINETYPE
 72
    65
 73
     2
 40
7.95951882217355
 49
6.822444704720169
 74
     0
 49
-1.137074117453381
 74
     0
  0
LTYPE
  5
31
330
5
100
AcDbSymbolTableRecord
100
AcDbLinetypeTableRecord
  2
DASHEDX2
 70
     0
  3
CADPAC LINETYPE
 72
    65
 73
     2
 40
7.95951882217355
 49
6.822444704720169
 74
     0
 49
-1.137074117453381
 74
     0
  0
LTYPE
  5
32
330
5
100
AcDbSymbolTableRecord
100
AcDbLinetypeTableRecord
  2
DOTX2
 70
     0
  3
CADPAC LINETYPE
 72
    65
 73
     2
 40
1.421342646816726
 49
0.0
 74
     0
 49
-1.421342646816726
 74
     0
  0
LTYPE
  5
33
330
5
100
AcDbSymbolTableRecord
100
AcDbLinetypeTableRecord
  2
DOT
 70
     0
  3
CADPAC LINETYPE
 72
    65
 73
     2
 40
1.137074117453381
 49
0.0
 74
     0
 49
-1.137074117453381
 74
     0
  0
LTYPE
  5
34
330
5
100
AcDbSymbolTableRecord
100
AcDbLinetypeTableRecord
  2
DOT2
 70
     0
  3
CADPAC LINETYPE
 72
    65
 73
     2
 40
0.8528055880900354
 49
0.0
 74
     0
 49
-0.8528055880900354
 74
     0
  0
LTYPE
  5
35
330
5
100
AcDbSymbolTableRecord
100
AcDbLinetypeTableRecord
  2
CENTERX2
 70
     0
  3
CADPAC LINETYPE
 72
    65
 73
     4
 40
34.11222352360039
 49
14.21342646816683
 74
     0
 49
-7.106713234083415
 74
     0
 49
5.685370587266732
 74
     0
 49
-7.106713234083415
 74
     0
  0
LTYPE
  5
36
330
5
100
AcDbSymbolTableRecord
100
AcDbLinetypeTableRecord
  2
CENTER
 70
     0
  3
CADPAC LINETYPE
 72
    65
 73
     4
 40
26.15270470142697
 49
11.37074117453346
 74
     0
 49
-5.685370587266732
 74
     0
 49
3.411222352360039
 74
     0
 49
-5.685370587266732
 74
     0
  0
LTYPE
  5
37
330
5
100
AcDbSymbolTableRecord
100
AcDbLinetypeTableRecord
  2
CENTER2
 70
     0
  3
CADPAC LINETYPE
 72
    65
 73
     4
 40
18.19318587925354
 49
8.528055880900098
 74
     0
 49
-4.264027940450049
 74
     0
 49
1.137074117453347
 74
     0
 49
-4.264027940450049
 74
     0
  0
LTYPE
  5
38
330
5
100
AcDbSymbolTableRecord
100
AcDbLinetypeTableRecord
  2
DASHDOTX2
 70
     0
  3
CADPAC LINETYPE
 72
    65
 73
     4
 40
15.91903764434687
 49
13.64488940944011
 74
     0
 49
-1.137074117453381
 74
     0
 49
0.0
 74
     0
 49
-1.137074117453381
 74
     0
  0
LTYPE
  5
39
330
5
100
AcDbSymbolTableRecord
100
AcDbLinetypeTableRecord
  2
DASHDOT
 70
     0
  3
CADPAC LINETYPE
 72
    65
 73
     4
 40
19.3302599967069
 49
13.64488940944011
 74
     0
 49
-1.137074117453381
 74
     0
 49
3.411222352360028
 74
     0
 49
-1.137074117453381
 74
     0
  0
LTYPE
  5
3A
330
5
100
AcDbSymbolTableRecord
100
AcDbLinetypeTableRecord
  2
DASHDOT2
 70
     0
  3
CADPAC LINETYPE
 72
    65
 73
     4
 40
12.28040046849616
 49
10.23366705708008
 74
     0
 49
-0.8528055880900354
 74
     0
 49
0.3411222352360028
 74
     0
 49
-0.8528055880900354
 74
     0
  0
LTYPE
  5
3B
330
5
100
AcDbSymbolTableRecord
100
AcDbLinetypeTableRecord
  2
DIVIDEX2
 70
     0
  3
CADPAC LINETYPE
 72
    65
 73
     6
 40
17.05611176180025
 49
13.64488940944011
 74
     0
 49
-1.137074117453381
 74
     0
 49
0.0
 74
     0
 49
-1.137074117453381
 74
     0
 49
0.0
 74
     0
 49
-1.137074117453381
 74
     0
  0
LTYPE
  5
3C
330
5
100
AcDbSymbolTableRecord
100
AcDbLinetypeTableRecord
  2
DIVIDE
 70
     0
  3
CADPAC LINETYPE
 72
    65
 73
     6
 40
23.87855646652031
 49
13.64488940944011
 74
     0
 49
-1.137074117453381
 74
     0
 49
3.411222352360028
 74
     0
 49
-1.137074117453381
 74
     0
 49
3.411222352360028
 74
     0
 49
-1.137074117453381
 74
     0
  0
LTYPE
  5
3D
330
5
100
AcDbSymbolTableRecord
100
AcDbLinetypeTableRecord
  2
DIVIDE2
 70
     0
  3
CADPAC LINETYPE
 72
    65
 73
     6
 40
17.90891734989023
 49
10.23366705708008
 74
     0
 49
-0.8528055880900354
 74
     0
 49
2.558416764270021
 74
     0
 49
-0.8528055880900354
 74
     0
 49
2.558416764270021
 74
     0
 49
-0.8528055880900354
 74
     0
  0
LTYPE
  5
3E
330
5
100
AcDbSymbolTableRecord
100
AcDbLinetypeTableRecord
  2
BORDERX2
 70
     0
  3
CADPAC LINETYPE
 72
    65
 73
     6
 40
49.74699263858391
 49
14.21342646816683
 74
     0
 49
-7.106713234083415
 74
     0
 49
14.21342646816683
 74
     0
 49
-7.106713234083415
 74
     0
 49
0.0
 74
     0
 49
-7.106713234083415
 74
     0
  0
LTYPE
  5
3F
330
5
100
AcDbSymbolTableRecord
100
AcDbLinetypeTableRecord
  2
BORDER
 70
     0
  3
CADPAC LINETYPE
 72
    65
 73
     6
 40
39.79759411086712
 49
11.37074117453346
 74
     0
 49
-5.685370587266732
 74
     0
 49
11.37074117453346
 74
     0
 49
-5.685370587266732
 74
     0
 49
0.0
 74
     0
 49
-5.685370587266732
 74
     0
  0
LTYPE
  5
40
330
5
100
AcDbSymbolTableRecord
100
AcDbLinetypeTableRecord
  2
BORDER2
 70
     0
  3
CADPAC LINETYPE
 72
    65
 73
     6
 40
14.78196352689366
 49
6.822444704720169
 74
     0
 49
-1.137074117453381
 74
     0
 49
0.0
 74
     0
 49
-1.137074117453381
 74
     0
 49
0.0
 74
     0
 49
-5.685370587266732
 74
     0
  0
LTYPE
  5
41
330
5
100
AcDbSymbolTableRecord
100
AcDbLinetypeTableRecord
  2
PHANTOMX2
 70
     0
  3
CADPAC LINETYPE
 72
    65
 73
     6
 40
42.64027940450049
 49
14.21342646816683
 74
     0
 49
-5.685370587266732
 74
     0
 49
5.685370587266732
 74
     0
 49
-5.685370587266732
 74
     0
 49
5.685370587266732
 74
     0
 49
-5.685370587266732
 74
     0
  0
LTYPE
  5
42
330
5
100
AcDbSymbolTableRecord
100
AcDbLinetypeTableRecord
  2
PHANTOM
 70
     0
  3
CADPAC LINETYPE
 72
    65
 73
     6
 40
35.24929764105374
 49
11.37074117453346
 74
     0
 49
-5.685370587266732
 74
     0
 49
3.411222352360039
 74
     0
 49
-5.685370587266732
 74
     0
 49
3.411222352360039
 74
     0
 49
-5.685370587266732
 74
     0
  0
LTYPE
  5
43
330
5
100
AcDbSymbolTableRecord
100
AcDbLinetypeTableRecord
  2
PHANTOM2
 70
     0
  3
CADPAC LINETYPE
 72
    65
 73
     6
 40
30.13246411251368
 49
8.528055880900098
 74
     0
 49
-5.685370587266732
 74
     0
 49
2.274148234906693
 74
     0
 49
-5.685370587266732
 74
     0
 49
2.274148234906693
 74
     0
 49
-5.685370587266732
 74
     0
  0
LTYPE
  5
44
330
5
100
AcDbSymbolTableRecord
100
AcDbLinetypeTableRecord
  2
ACAD_ISO06W100
 70
     0
  3
CADPAC LINETYPE
 72
    65
 73
     8
 40
18.19318587925363
 49
13.64488940944011
 74
     0
 49
-1.137074117453381
 74
     0
 49
0.0
 74
     0
 49
-1.137074117453381
 74
     0
 49
0.0
 74
     0
 49
-1.137074117453381
 74
     0
 49
0.0
 74
     0
 49
-1.137074117453381
 74
     0
  0
LTYPE
  5
45
330
5
100
AcDbSymbolTableRecord
100
AcDbLinetypeTableRecord
  2
ACAD_ISO13W100
 70
     0
  3
CADPAC LINETYPE
 72
    65
 73
     8
 40
45.48296469813386
 49
11.37074117453346
 74
     0
 49
-5.685370587266732
 74
     0
 49
11.37074117453346
 74
     0
 49
-5.685370587266732
 74
     0
 49
0.0
 74
     0
 49
-5.685370587266732
 74
     0
 49
0.0
 74
     0
 49
-5.685370587266732
 74
     0
  0
LTYPE
  5
46
330
5
100
AcDbSymbolTableRecord
100
AcDbLinetypeTableRecord
  2
ACAD_ISO14W100
 70
     0
  3
CADPAC LINETYPE
 72
    65
 73
     8
 40
34.11222352360039
 49
11.37074117453346
 74
     0
 49
-5.685370587266732
 74
     0
 49
0.0
 74
     0
 49
-5.685370587266732
 74
     0
 49
0.0
 74
     0
 49
-5.685370587266732
 74
     0
 49
0.0
 74
     0
 49
-5.685370587266732
 74
     0
  0
ENDTAB
  0
TABLE
  2
LAYER
  5
2
330
0
100
AcDbSymbolTable
 70
     1
  0
LAYER
  5
10
330
2
100
AcDbSymbolTableRecord
100
AcDbLayerTableRecord
  2
0
 70
     0
 62
     7
  6
CONTINUOUS
  0
ENDTAB
  0
TABLE
  2
STYLE
  5
3
330
0
100
AcDbSymbolTable
 70
     2
  0
STYLE
  5
11
330
3
100
AcDbSymbolTableRecord
100
AcDbTextStyleTableRecord
  2
STANDARD
 70
     0
 40
0.0
 41
1.0
 50
0.0
 71
     0
 42
0.2
  3
txt
  4

  0
STYLE
  5
1A8
330
3
100
AcDbSymbolTableRecord
100
AcDbTextStyleTableRecord
  2
FDASTYLE0
 70
     0
 40
10.0
 41
0.6684682282186804
 50
0.0
 71
     0
 42
0.2
  3
txt.shx
  4
bigfont
  0
ENDTAB
  0
TABLE
  2
VIEW
  5
6
330
0
100
AcDbSymbolTable
 70
     0
  0
ENDTAB
  0
TABLE
  2
UCS
  5
7
330
0
100
AcDbSymbolTable
 70
     0
  0
ENDTAB
  0
TABLE
  2
APPID
  5
9
330
0
100
AcDbSymbolTable
 70
     2
  0
APPID
  5
12
330
9
100
AcDbSymbolTableRecord
100
AcDbRegAppTableRecord
  2
ACAD
 70
     0
  0
APPID
  5
2A
330
9
100
AcDbSymbolTableRecord
100
AcDbRegAppTableRecord
  2
DAFUSIONOUT
 70
     0
  0
ENDTAB
  0
TABLE
  2
DIMSTYLE
  5
A
330
0
100
AcDbSymbolTable
 70
     1
  0
DIMSTYLE
105
27
330
A
100
AcDbSymbolTableRecord
100
AcDbDimStyleTableRecord
  2
STANDARD
 70
     0
  3

  4

  5

  6

  7

 40
1.0
 41
0.18
 42
0.0625
 43
0.38
 44
0.18
 45
0.0
 46
0.0
 47
0.0
 48
0.0
140
0.18
141
0.09
142
0.0
143
25.4
144
1.0
145
0.0
146
1.0
147
0.09
 71
     0
 72
     0
 73
     1
 74
     1
 75
     0
 76
     0
 77
     0
 78
     0
170
     0
171
     2
172
     0
173
     0
174
     0
175
     0
176
     0
177
     0
178
     0
270
     2
271
     4
272
     4
273
     2
274
     2
340
11
275
     0
280
     0
281
     0
282
     0
283
     1
284
     0
285
     0
286
     0
287
     3
288
     0
  0
ENDTAB
  0
TABLE
  2
BLOCK_RECORD
  5
1
330
0
100
AcDbSymbolTable
 70
     1
  0
BLOCK_RECORD
  5
1F
330
1
100
AcDbSymbolTableRecord
100
AcDbBlockTableRecord
  2
*MODEL_SPACE
  0
BLOCK_RECORD
  5
1B
330
1
100
AcDbSymbolTableRecord
100
AcDbBlockTableRecord
  2
*PAPER_SPACE
  0
ENDTAB
  0
ENDSEC
  0
SECTION
  2
BLOCKS
  0
BLOCK
  5
20
330
1F
100
AcDbEntity
  8
0
100
AcDbBlockBegin
  2
*MODEL_SPACE
 70
     0
 71
     0
 10
0.0
 20
0.0
 30
0.0
  3
*MODEL_SPACE
  1

  0
ENDBLK
  5
21
330
1F
100
AcDbEntity
  8
0
100
AcDbBlockEnd
  0
BLOCK
  5
1C
330
1B
100
AcDbEntity
 67
     1
  8
0
100
AcDbBlockBegin
  2
*PAPER_SPACE
 70
     0
 71
     0
 10
0.0
 20
0.0
 30
0.0
  3
*PAPER_SPACE
  1

  0
ENDBLK
  5
1D
330
1B
100
AcDbEntity
 67
     1
  8
0
100
AcDbBlockEnd
  0
ENDSEC
  0
SECTION
  2
ENTITIES
  0
LINE
  5
47
330
1F
100
AcDbEntity
  8
0
  6
DASHED
 62
     7
100
AcDbLine
 10
-173.522145
 20
211.1310895
 30
0.0
 11
-173.522145
 21
198.3761095
 31
0.0
  0
LINE
  5
48
330
1F
100
AcDbEntity
  8
0
  6
DASHED
 62
     7
100
AcDbLine
 10
-150.822135
 20
211.1310895
 30
0.0
 11
-150.822135
 21
198.3761095
 31
0.0
  0
LINE
  5
49
330
1F
100
AcDbEntity
  8
0
  6
DASHED
 62
     7
100
AcDbLine
 10
-169.022145
 20
215.6310895
 30
0.0
 11
-155.322135
 21
215.6310895
 31
0.0
  0
LINE
  5
4A
330
1F
100
AcDbEntity
  8
0
  6
DASHED
 62
     7
100
AcDbLine
 10
-169.0221750000001
 20
215.6310295000001
 30
0.0
 11
-173.5221750000001
 21
211.1310295000001
 31
0.0
  0
LINE
  5
4B
330
1F
100
AcDbEntity
  8
0
  6
DASHED
 62
     7
100
AcDbLine
 10
-155.322195
 20
215.6311194999998
 30
0.0
 11
-150.822195
 21
211.1310894999999
 31
0.0
  0
LINE
  5
4C
330
1F
100
AcDbEntity
  8
0
  6
DASHED
 62
     7
100
AcDbLine
 10
-196.222185
 20
211.1310895
 30
0.0
 11
-196.222185
 21
198.3761095
 31
0.0
  0
LINE
  5
4D
330
1F
100
AcDbEntity
  8
0
  6
DASHED
 62
     7
100
AcDbLine
 10
-218.922195
 20
211.1310895
 30
0.0
 11
-218.922195
 21
198.3761095
 31
0.0
  0
LINE
  5
4E
330
1F
100
AcDbEntity
  8
0
  6
DASHED
 62
     7
100
AcDbLine
 10
-200.722185
 20
215.6310895
 30
0.0
 11
-214.422195
 21
215.6310895
 31
0.0
  0
LINE
  5
4F
330
1F
100
AcDbEntity
  8
0
  6
DASHED
 62
     7
100
AcDbLine
 10
-200.7221850000001
 20
215.6310895000001
 30
0.0
 11
-196.222185
 21
211.1310895
 31
0.0
  0
LINE
  5
50
330
1F
100
AcDbEntity
  8
0
  6
DASHED
 62
     7
100
AcDbLine
 10
-214.4221350000001
 20
215.6310295
 30
0.0
 11
-218.9221350000001
 21
211.1310295
 31
0.0
  0
LINE
  5
51
330
1F
100
AcDbEntity
  8
0
 62
     7
100
AcDbLine
 10
-73.522155
 20
102.1310695
 30
0.0
 11
-73.522155
 21
75.6310795
 31
0.0
  0
LINE
  5
52
330
1F
100
AcDbEntity
  8
0
 62
     7
100
AcDbLine
 10
-127.522215
 20
180.6310795000001
 30
0.0
 11
-111.522165
 21
180.6310795000001
 31
0.0
  0
LINE
  5
53
330
1F
100
AcDbEntity
  8
0
 62
     7
100
AcDbLine
 10
-173.522145
 20
102.1310695
 30
0.0
 11
-173.522145
 21
75.6310795
 31
0.0
  0
LINE
  5
54
330
1F
100
AcDbEntity
  8
0
 62
     7
100
AcDbLine
 10
-296.222175
 20
102.1310695
 30
0.0
 11
-296.222175
 21
75.6310795
 31
0.0
  0
LINE
  5
55
330
1F
100
AcDbEntity
  8
0
 62
     7
100
AcDbLine
 10
-242.222175
 20
180.6310795000001
 30
0.0
 11
-258.2221949999999
 21
180.6310795000001
 31
0.0
  0
LINE
  5
56
330
1F
100
AcDbEntity
  8
0
 62
     7
100
AcDbLine
 10
-196.222185
 20
102.1310695
 30
0.0
 11
-196.222185
 21
75.6310795
 31
0.0
  0
LINE
  5
57
330
1F
100
AcDbEntity
  8
0
 62
     7
100
AcDbLine
 10
-296.222175
 20
-23.3689205
 30
0.0
 11
-296.222175
 21
75.6310795
 31
0.0
  0
LINE
  5
58
330
1F
100
AcDbEntity
  8
0
 62
     7
100
AcDbLine
 10
-290.2219949999999
 20
-29.36889050000013
 30
0.0
 11
-296.2219950000001
 21
-23.36886049999998
 31
0.0
  0
LINE
  5
59
330
1F
100
AcDbEntity
  8
0
 62
     7
100
AcDbLine
 10
-279.322185
 20
-29.3689205
 30
0.0
 11
-290.222175
 21
-29.3689205
 31
0.0
  0
LINE
  5
5A
330
1F
100
AcDbEntity
  8
0
 62
     7
100
AcDbLine
 10
-98.322135
 20
-29.3689205
 30
0.0
 11
-79.522155
 21
-29.3689205
 31
0.0
  0
LINE
  5
5B
330
1F
100
AcDbEntity
  8
0
 62
     7
100
AcDbLine
 10
-73.522155
 20
-23.3689205
 30
0.0
 11
-73.522155
 21
75.6310795
 31
0.0
  0
LINE
  5
5C
330
1F
100
AcDbEntity
  8
0
 62
     7
100
AcDbLine
 10
-79.52212500000007
 20
-29.36883049999983
 30
0.0
 11
-73.52212500000019
 21
-23.36883049999989
 31
0.0
  0
LINE
  5
5D
330
1F
100
AcDbEntity
  8
0
 62
     7
100
AcDbLine
 10
-290.221995
 20
-29.36889050000002
 30
0.0
 11
-290.221995
 21
75.6310795
 31
0.0
  0
LINE
  5
5E
330
1F
100
AcDbEntity
  8
0
 62
     7
100
AcDbLine
 10
-79.52212499999996
 20
-29.3688305
 30
0.0
 11
-79.52212499999996
 21
75.63110949999998
 31
0.0
  0
LINE
  5
5F
330
1F
100
AcDbEntity
  8
0
 62
     7
100
AcDbLine
 10
170.222505
 20
146.7852295000001
 30
0.0
 11
176.075055
 21
153.5394295000001
 31
0.0
  0
LINE
  5
60
330
1F
100
AcDbEntity
  8
0
 62
     7
100
AcDbLine
 10
175.210485
 20
142.4630095000001
 30
0.0
 11
181.063035
 21
149.2172095000001
 31
0.0
  0
LINE
  5
61
330
1F
100
AcDbEntity
  8
0
 62
     7
100
AcDbLine
 10
150.4905449999999
 20
71.67767950000007
 30
0.0
 11
151.762425
 21
80.52383950000012
 31
0.0
  0
LINE
  5
62
330
1F
100
AcDbEntity
  8
0
 62
     7
100
AcDbLine
 10
157.0233450000001
 20
70.73834949999997
 30
0.0
 11
158.2952250000001
 21
79.58444949999995
 31
0.0
  0
LINE
  5
63
330
1F
100
AcDbEntity
  8
0
 62
     7
100
AcDbLine
 10
155.912745
 20
109.3898995000001
 30
0.0
 11
157.1846249999999
 21
118.2359995000002
 31
0.0
  0
LINE
  5
64
330
1F
100
AcDbEntity
  8
0
 62
     7
100
AcDbLine
 10
162.4455449999999
 20
108.4505395
 30
0.0
 11
163.7174249999999
 21
117.2966695
 31
0.0
  0
LINE
  5
65
330
1F
100
AcDbEntity
  8
0
 62
     7
100
AcDbLine
 10
174.497175
 20
-2.174610499999972
 30
0.0
 11
170.784585
 21
5.954849500000023
 31
0.0
  0
LINE
  5
66
330
1F
100
AcDbEntity
  8
0
 62
     7
100
AcDbLine
 10
180.500805
 20
0.5670294999999328
 30
0.0
 11
176.788185
 21
8.696489499999984
 31
0.0
  0
LINE
  5
67
330
1F
100
AcDbEntity
  8
0
 62
     7
100
AcDbLine
 10
158.669865
 20
32.48234949999994
 30
0.0
 11
154.957245
 21
40.61183949999997
 31
0.0
  0
LINE
  5
68
330
1F
100
AcDbEntity
  8
0
 62
     7
100
AcDbLine
 10
164.673495
 20
35.22398949999996
 30
0.0
 11
160.960905
 21
43.35347949999999
 31
0.0
  0
LINE
  5
69
330
1F
100
AcDbEntity
  8
0
 62
     7
100
AcDbLine
 10
286.752867
 20
254.1149695
 30
0.0
 11
289.752867
 21
254.1149695
 31
0.0
  0
LINE
  5
6A
330
1F
100
AcDbEntity
  8
0
 62
     7
100
AcDbLine
 10
286.752867
 20
183.6044395
 30
0.0
 11
289.752867
 21
183.6044395
 31
0.0
  0
LINE
  5
6B
330
1F
100
AcDbEntity
  8
0
 62
     7
100
AcDbLine
 10
289.752867
 20
254.1149695
 30
0.0
 11
289.752867
 21
183.6044395
 31
0.0
  0
LINE
  5
6C
330
1F
100
AcDbEntity
  8
0
 62
     7
100
AcDbLine
 10
286.752867
 20
254.1149695
 30
0.0
 11
286.752867
 21
183.6044395
 31
0.0
  0
LINE
  5
6D
330
1F
100
AcDbEntity
  8
0
 62
     7
100
AcDbLine
 10
289.752867
 20
-102.8528135
 30
0.0
 11
289.752867
 21
-32.34228050000002
 31
0.0
  0
LINE
  5
6E
330
1F
100
AcDbEntity
  8
0
 62
     7
100
AcDbLine
 10
286.752867
 20
-102.8528135
 30
0.0
 11
286.752867
 21
-32.34228050000002
 31
0.0
  0
LINE
  5
6F
330
1F
100
AcDbEntity
  8
0
 62
     7
100
AcDbLine
 10
-258.2221949999999
 20
102.1310695
 30
0.0
 11
-242.222175
 21
102.1310695
 31
0.0
  0
LINE
  5
70
330
1F
100
AcDbEntity
  8
0
 62
     7
100
AcDbLine
 10
-127.522215
 20
102.1310695
 30
0.0
 11
-111.522165
 21
102.1310695
 31
0.0
  0
LINE
  5
71
330
1F
100
AcDbEntity
  8
0
 62
     7
100
AcDbLine
 10
-221.0721449999999
 20
-95.17833050000013
 30
0.0
 11
-225.0721649999999
 21
-97.48776050000009
 31
0.0
  0
LINE
  5
72
330
1F
100
AcDbEntity
  8
0
 62
     7
100
AcDbLine
 10
-221.072145
 20
-90.55953049999999
 30
0.0
 11
-221.072145
 21
-95.17833050000002
 31
0.0
  0
LINE
  5
73
330
1F
100
AcDbEntity
  8
0
 62
     7
100
AcDbLine
 10
-225.072165
 20
-88.25013049999996
 30
0.0
 11
-221.0721450000001
 21
-90.55953049999994
 31
0.0
  0
LINE
  5
74
330
1F
100
AcDbEntity
  8
0
 62
     7
100
AcDbLine
 10
-229.0721549999998
 20
-90.55953050000005
 30
0.0
 11
-225.072165
 21
-88.25013050000007
 31
0.0
  0
LINE
  5
75
330
1F
100
AcDbEntity
  8
0
 62
     7
100
AcDbLine
 10
-229.072155
 20
-95.17833050000002
 30
0.0
 11
-229.072155
 21
-90.55950050000001
 31
0.0
  0
LINE
  5
76
330
1F
100
AcDbEntity
  8
0
 62
     7
100
AcDbLine
 10
-225.0721649999999
 20
-97.48776050000004
 30
0.0
 11
-229.0721549999998
 21
-95.17833050000002
 31
0.0
  0
LINE
  5
77
330
1F
100
AcDbEntity
  8
0
 62
     7
100
AcDbLine
 10
-132.5721449999999
 20
-95.17833050000024
 30
0.0
 11
-136.5721649999998
 21
-97.48776050000015
 31
0.0
  0
LINE
  5
78
330
1F
100
AcDbEntity
  8
0
 62
     7
100
AcDbLine
 10
-132.572145
 20
-90.55953049999999
 30
0.0
 11
-132.572145
 21
-95.17833050000002
 31
0.0
  0
LINE
  5
79
330
1F
100
AcDbEntity
  8
0
 62
     7
100
AcDbLine
 10
-136.572165
 20
-88.25013050000001
 30
0.0
 11
-132.572145
 21
-90.55953049999994
 31
0.0
  0
LINE
  5
7A
330
1F
100
AcDbEntity
  8
0
 62
     7
100
AcDbLine
 10
-140.5721549999998
 20
-90.55953049999999
 30
0.0
 11
-136.572165
 21
-88.25013050000001
 31
0.0
  0
LINE
  5
7B
330
1F
100
AcDbEntity
  8
0
 62
     7
100
AcDbLine
 10
-140.572155
 20
-95.17833050000002
 30
0.0
 11
-140.572155
 21
-90.55950050000001
 31
0.0
  0
LINE
  5
7C
330
1F
100
AcDbEntity
  8
0
 62
     7
100
AcDbLine
 10
-136.5721649999999
 20
-97.48776050000004
 30
0.0
 11
-140.5721549999998
 21
-95.17833050000002
 31
0.0
  0
LINE
  5
7D
330
1F
100
AcDbEntity
  8
0
 62
     7
100
AcDbLine
 10
-114.722565
 20
180.6310795000001
 30
0.0
 11
-103.711695
 21
191.6419795000001
 31
0.0
  0
LINE
  5
7E
330
1F
100
AcDbEntity
  8
0
 62
     7
100
AcDbLine
 10
-116.1379649999999
 20
198.0742194999999
 30
0.0
 11
-113.5811249999999
 21
200.6310894999999
 31
0.0
  0
LINE
  5
7F
330
1F
100
AcDbEntity
  8
0
 62
     7
100
AcDbLine
 10
-117.4166550000001
 20
180.6310795000002
 30
0.0
 11
-104.007915
 21
194.0398495000001
 31
0.0
  0
LINE
  5
80
330
1F
100
AcDbEntity
  8
0
 62
     7
100
AcDbLine
 10
-117.922095
 20
182.8196994999998
 30
0.0
 11
-104.3041050000001
 21
196.4377195
 31
0.0
  0
LINE
  5
81
330
1F
100
AcDbEntity
  8
0
 62
     7
100
AcDbLine
 10
-103.9462649999999
 20
180.6310794999999
 30
0.0
 11
-102.7221149999999
 21
181.8552294999998
 31
0.0
  0
LINE
  5
82
330
1F
100
AcDbEntity
  8
0
 62
     7
100
AcDbLine
 10
-117.6567450000001
 20
185.7791395000002
 30
0.0
 11
-104.6003250000001
 21
198.8355895000001
 31
0.0
  0
LINE
  5
83
330
1F
100
AcDbEntity
  8
0
 62
     7
100
AcDbLine
 10
-236.4721049999999
 20
215.0461195
 30
0.0
 11
-236.4721049999999
 21
203.9360395
 31
0.0
  0
LINE
  5
84
330
1F
100
AcDbEntity
  8
0
 62
     7
100
AcDbLine
 10
-236.4721949999999
 20
215.0460895
 30
0.0
 11
-229.472205
 21
215.0460895
 31
0.0
  0
LINE
  5
85
330
1F
100
AcDbEntity
  8
0
 62
     7
100
AcDbLine
 10
-232.172115
 20
220.5460795
 30
0.0
 11
-232.172115
 21
215.0461195
 31
0.0
  0
LINE
  5
86
330
1F
100
AcDbEntity
  8
0
 62
     7
100
AcDbLine
 10
-232.172205
 20
220.5460495
 30
0.0
 11
-229.472205
 21
220.5460495
 31
0.0
  0
LINE
  5
87
330
1F
100
AcDbEntity
  8
0
 62
     7
100
AcDbLine
 10
-229.472175
 20
225.0911095
 30
0.0
 11
-229.472175
 21
193.8910495
 31
0.0
  0
LINE
  5
88
330
1F
100
AcDbEntity
  8
0
 62
     7
100
AcDbLine
 10
-229.472205
 20
225.0910795
 30
0.0
 11
-224.672205
 21
225.0910795
 31
0.0
  0
LINE
  5
89
330
1F
100
AcDbEntity
  8
0
 62
     7
100
AcDbLine
 10
-224.672115
 20
227.5910995
 30
0.0
 11
-224.672115
 21
191.3910295000001
 31
0.0
  0
LINE
  5
8A
330
1F
100
AcDbEntity
  8
0
 62
     7
100
AcDbLine
 10
-224.672205
 20
227.5910995
 30
0.0
 11
-219.8722350000001
 21
227.5910995
 31
0.0
  0
LINE
  5
8B
330
1F
100
AcDbEntity
  8
0
 62
     7
100
AcDbLine
 10
-219.872175
 20
227.5910995
 30
0.0
 11
-219.872175
 21
191.3910295000001
 31
0.0
  0
LINE
  5
8C
330
1F
100
AcDbEntity
  8
0
 62
     7
100
AcDbLine
 10
-219.8722350000001
 20
220.6060795
 30
0.0
 11
-194.472135
 21
220.6060795
 31
0.0
  0
LINE
  5
8D
330
1F
100
AcDbEntity
  8
0
 62
     7
100
AcDbLine
 10
-194.472135
 20
227.5910995
 30
0.0
 11
-194.472135
 21
191.3910295000001
 31
0.0
  0
LINE
  5
8E
330
1F
100
AcDbEntity
  8
0
 62
     7
100
AcDbLine
 10
-189.672225
 20
227.5910995
 30
0.0
 11
-194.4721949999999
 21
227.5910995
 31
0.0
  0
LINE
  5
8F
330
1F
100
AcDbEntity
  8
0
 62
     7
100
AcDbLine
 10
-180.072165
 20
225.0910795
 30
0.0
 11
-189.672225
 21
225.0910795
 31
0.0
  0
LINE
  5
90
330
1F
100
AcDbEntity
  8
0
 62
     7
100
AcDbLine
 10
-189.672225
 20
227.5910995
 30
0.0
 11
-189.672225
 21
191.3910295000001
 31
0.0
  0
LINE
  5
91
330
1F
100
AcDbEntity
  8
0
 62
     7
100
AcDbLine
 10
-184.872165
 20
225.0911095
 30
0.0
 11
-184.872165
 21
193.8910495
 31
0.0
  0
LINE
  5
92
330
1F
100
AcDbEntity
  8
0
 62
     7
100
AcDbLine
 10
-180.072165
 20
227.5910995
 30
0.0
 11
-175.272255
 21
227.5910995
 31
0.0
  0
LINE
  5
93
330
1F
100
AcDbEntity
  8
0
 62
     7
100
AcDbLine
 10
-180.072165
 20
227.5910995
 30
0.0
 11
-180.072165
 21
191.3910295000001
 31
0.0
  0
LINE
  5
94
330
1F
100
AcDbEntity
  8
0
 62
     7
100
AcDbLine
 10
-175.2721350000001
 20
227.5910995
 30
0.0
 11
-175.2721350000001
 21
191.3910295000001
 31
0.0
  0
LINE
  5
95
330
1F
100
AcDbEntity
  8
0
 62
     7
100
AcDbLine
 10
-175.272255
 20
220.6060795
 30
0.0
 11
-149.8720949999999
 21
220.6060795
 31
0.0
  0
LINE
  5
96
330
1F
100
AcDbEntity
  8
0
 62
     7
100
AcDbLine
 10
-145.072245
 20
227.5910995
 30
0.0
 11
-149.872215
 21
227.5910995
 31
0.0
  0
LINE
  5
97
330
1F
100
AcDbEntity
  8
0
 62
     7
100
AcDbLine
 10
-149.8720949999999
 20
227.5910995
 30
0.0
 11
-149.8720949999999
 21
191.3910295000001
 31
0.0
  0
LINE
  5
98
330
1F
100
AcDbEntity
  8
0
 62
     7
100
AcDbLine
 10
-145.072185
 20
227.5910995
 30
0.0
 11
-145.072185
 21
191.3910295000001
 31
0.0
  0
LINE
  5
99
330
1F
100
AcDbEntity
  8
0
 62
     7
100
AcDbLine
 10
-140.272185
 20
225.0910795
 30
0.0
 11
-145.072245
 21
225.0910795
 31
0.0
  0
LINE
  5
9A
330
1F
100
AcDbEntity
  8
0
 62
     7
100
AcDbLine
 10
-140.272185
 20
225.0911095
 30
0.0
 11
-140.272185
 21
193.8910495
 31
0.0
  0
LINE
  5
9B
330
1F
100
AcDbEntity
  8
0
 62
     7
100
AcDbLine
 10
-140.272185
 20
218.0910595
 30
0.0
 11
-137.102205
 21
218.0910595
 31
0.0
  0
LINE
  5
9C
330
1F
100
AcDbEntity
  8
0
 62
     7
100
AcDbLine
 10
-137.102145
 20
218.0910895
 30
0.0
 11
-137.102145
 21
200.8910395
 31
0.0
  0
LINE
  5
9D
330
1F
100
AcDbEntity
  8
0
 62
     7
100
AcDbLine
 10
-137.102205
 20
215.0460895
 30
0.0
 11
-134.802225
 21
215.0460895
 31
0.0
  0
LINE
  5
9E
330
1F
100
AcDbEntity
  8
0
 62
     7
100
AcDbLine
 10
-134.802165
 20
215.0461195
 30
0.0
 11
-134.802165
 21
203.9360395
 31
0.0
  0
LINE
  5
9F
330
1F
100
AcDbEntity
  8
0
 62
     7
100
AcDbLine
 10
-232.172115
 20
198.4361095
 30
0.0
 11
-232.172115
 21
203.9360695
 31
0.0
  0
LINE
  5
A0
330
1F
100
AcDbEntity
  8
0
 62
     7
100
AcDbLine
 10
-244.872225
 20
209.4910495
 30
0.0
 11
-124.872225
 21
209.4910495
 31
0.0
  0
LINE
  5
A1
330
1F
100
AcDbEntity
  8
0
 62
     7
100
AcDbLine
 10
-137.102205
 20
203.9360395
 30
0.0
 11
-134.802225
 21
203.9360395
 31
0.0
  0
LINE
  5
A2
330
1F
100
AcDbEntity
  8
0
 62
     7
100
AcDbLine
 10
-236.4721949999999
 20
203.9360395
 30
0.0
 11
-229.472205
 21
203.9360395
 31
0.0
  0
LINE
  5
A3
330
1F
100
AcDbEntity
  8
0
 62
     7
100
AcDbLine
 10
-232.172205
 20
198.4360795
 30
0.0
 11
-229.472205
 21
198.4360795
 31
0.0
  0
LINE
  5
A4
330
1F
100
AcDbEntity
  8
0
 62
     7
100
AcDbLine
 10
-229.472205
 20
193.8910495
 30
0.0
 11
-224.672205
 21
193.8910495
 31
0.0
  0
LINE
  5
A5
330
1F
100
AcDbEntity
  8
0
 62
     7
100
AcDbLine
 10
-224.672205
 20
191.3910295000001
 30
0.0
 11
-219.8722350000001
 21
191.3910295000001
 31
0.0
  0
LINE
  5
A6
330
1F
100
AcDbEntity
  8
0
 62
     7
100
AcDbLine
 10
-219.8722350000001
 20
198.3760495
 30
0.0
 11
-194.472135
 21
198.3760495
 31
0.0
  0
LINE
  5
A7
330
1F
100
AcDbEntity
  8
0
 62
     7
100
AcDbLine
 10
-189.672225
 20
191.3910295000001
 30
0.0
 11
-194.4721949999999
 21
191.3910295000001
 31
0.0
  0
LINE
  5
A8
330
1F
100
AcDbEntity
  8
0
 62
     7
100
AcDbLine
 10
-180.072165
 20
193.8910495
 30
0.0
 11
-189.672225
 21
193.8910495
 31
0.0
  0
LINE
  5
A9
330
1F
100
AcDbEntity
  8
0
 62
     7
100
AcDbLine
 10
-180.072165
 20
191.3910295000001
 30
0.0
 11
-175.272255
 21
191.3910295000001
 31
0.0
  0
LINE
  5
AA
330
1F
100
AcDbEntity
  8
0
 62
     7
100
AcDbLine
 10
-175.272255
 20
198.3760495
 30
0.0
 11
-149.8720949999999
 21
198.3760495
 31
0.0
  0
LINE
  5
AB
330
1F
100
AcDbEntity
  8
0
 62
     7
100
AcDbLine
 10
-145.072245
 20
191.3910295000001
 30
0.0
 11
-149.872215
 21
191.3910295000001
 31
0.0
  0
LINE
  5
AC
330
1F
100
AcDbEntity
  8
0
 62
     7
100
AcDbLine
 10
-140.272185
 20
193.8910495
 30
0.0
 11
-145.072245
 21
193.8910495
 31
0.0
  0
LINE
  5
AD
330
1F
100
AcDbEntity
  8
0
 62
     7
100
AcDbLine
 10
-140.272185
 20
200.8910395
 30
0.0
 11
-137.102205
 21
200.8910395
 31
0.0
  0
LINE
  5
AE
330
1F
100
AcDbEntity
  8
0
 62
     7
100
AcDbLine
 10
286.7528669999999
 20
184.7305195000001
 30
0.0
 11
289.7528669999999
 21
187.7305195000001
 31
0.0
  0
LINE
  5
AF
330
1F
100
AcDbEntity
  8
0
 62
     7
100
AcDbLine
 10
286.7528669999999
 20
191.4657295000001
 30
0.0
 11
289.7528669999999
 21
194.4657295000001
 31
0.0
  0
LINE
  5
B0
330
1F
100
AcDbEntity
  8
0
 62
     7
100
AcDbLine
 10
286.752867
 20
198.2009095
 30
0.0
 11
289.752867
 21
201.2009395
 31
0.0
  0
LINE
  5
B1
330
1F
100
AcDbEntity
  8
0
 62
     7
100
AcDbLine
 10
286.7528669999999
 20
204.9361195000001
 30
0.0
 11
289.7528669999999
 21
207.9361195000001
 31
0.0
  0
LINE
  5
B2
330
1F
100
AcDbEntity
  8
0
 62
     7
100
AcDbLine
 10
286.752867
 20
211.6713295000001
 30
0.0
 11
289.752867
 21
214.6713295000001
 31
0.0
  0
LINE
  5
B3
330
1F
100
AcDbEntity
  8
0
 62
     7
100
AcDbLine
 10
286.752867
 20
218.4065094999999
 30
0.0
 11
289.752867
 21
221.4065394999999
 31
0.0
  0
LINE
  5
B4
330
1F
100
AcDbEntity
  8
0
 62
     7
100
AcDbLine
 10
286.752867
 20
225.1417195000001
 30
0.0
 11
289.752867
 21
228.1417195000001
 31
0.0
  0
LINE
  5
B5
330
1F
100
AcDbEntity
  8
0
 62
     7
100
AcDbLine
 10
286.7528669999999
 20
231.8769295000001
 30
0.0
 11
289.7528669999999
 21
234.8769295000001
 31
0.0
  0
LINE
  5
B6
330
1F
100
AcDbEntity
  8
0
 62
     7
100
AcDbLine
 10
286.7528669999999
 20
238.6121095000001
 30
0.0
 11
289.7528669999999
 21
241.6121095000001
 31
0.0
  0
LINE
  5
B7
330
1F
100
AcDbEntity
  8
0
 62
     7
100
AcDbLine
 10
286.7528669999999
 20
245.3473195000001
 30
0.0
 11
289.7528669999999
 21
248.3473195000001
 31
0.0
  0
LINE
  5
B8
330
1F
100
AcDbEntity
  8
0
 62
     7
100
AcDbLine
 10
286.7528670000002
 20
252.0824994999999
 30
0.0
 11
288.7853100000001
 21
254.1149694999999
 31
0.0
  0
LINE
  5
B9
330
1F
100
AcDbEntity
  8
0
 62
     7
100
AcDbLine
 10
289.752867
 20
253.0516495000001
 30
0.0
 11
288.689568
 21
254.1149695
 31
0.0
  0
LINE
  5
BA
330
1F
100
AcDbEntity
  8
0
 62
     7
100
AcDbLine
 10
289.7528669999999
 20
246.3164695000002
 30
0.0
 11
286.7528669999999
 21
249.3164695000002
 31
0.0
  0
LINE
  5
BB
330
1F
100
AcDbEntity
  8
0
 62
     7
100
AcDbLine
 10
289.7528669999999
 20
239.5812895000001
 30
0.0
 11
286.7528669999999
 21
242.5812895000001
 31
0.0
  0
LINE
  5
BC
330
1F
100
AcDbEntity
  8
0
 62
     7
100
AcDbLine
 10
289.7528669999999
 20
232.8461095000001
 30
0.0
 11
286.752867
 21
235.8461095
 31
0.0
  0
LINE
  5
BD
330
1F
100
AcDbEntity
  8
0
 62
     7
100
AcDbLine
 10
289.7528669999999
 20
226.1109295000001
 30
0.0
 11
286.752867
 21
229.1109295000001
 31
0.0
  0
LINE
  5
BE
330
1F
100
AcDbEntity
  8
0
 62
     7
100
AcDbLine
 10
289.752867
 20
219.3757494999999
 30
0.0
 11
286.7528670000002
 21
222.3757194999997
 31
0.0
  0
LINE
  5
BF
330
1F
100
AcDbEntity
  8
0
 62
     7
100
AcDbLine
 10
289.752867
 20
212.6405395000002
 30
0.0
 11
286.752867
 21
215.6405395000002
 31
0.0
  0
LINE
  5
C0
330
1F
100
AcDbEntity
  8
0
 62
     7
100
AcDbLine
 10
289.752867
 20
205.9053595000002
 30
0.0
 11
286.752867
 21
208.9053595000002
 31
0.0
  0
LINE
  5
C1
330
1F
100
AcDbEntity
  8
0
 62
     7
100
AcDbLine
 10
289.752867
 20
199.1701795000001
 30
0.0
 11
286.752867
 21
202.1701795000001
 31
0.0
  0
LINE
  5
C2
330
1F
100
AcDbEntity
  8
0
 62
     7
100
AcDbLine
 10
289.752867
 20
192.4349995000001
 30
0.0
 11
286.752867
 21
195.4349995000001
 31
0.0
  0
LINE
  5
C3
330
1F
100
AcDbEntity
  8
0
 62
     7
100
AcDbLine
 10
289.752867
 20
185.6998195000001
 30
0.0
 11
286.7528669999999
 21
188.6998195000001
 31
0.0
  0
LINE
  5
C4
330
1F
100
AcDbEntity
  8
0
 62
     7
100
AcDbLine
 10
288.783069
 20
-102.8528135
 30
0.0
 11
289.7528669999999
 21
-101.8830004999999
 31
0.0
  0
LINE
  5
C5
330
1F
100
AcDbEntity
  8
0
 62
     7
100
AcDbLine
 10
286.752867
 20
-98.14782050000002
 30
0.0
 11
289.752867
 21
-95.14782049999997
 31
0.0
  0
LINE
  5
C6
330
1F
100
AcDbEntity
  8
0
 62
     7
100
AcDbLine
 10
286.752867
 20
-91.41261049999997
 30
0.0
 11
289.752867
 21
-88.41261049999991
 31
0.0
  0
LINE
  5
C7
330
1F
100
AcDbEntity
  8
0
 62
     7
100
AcDbLine
 10
286.752867
 20
-84.67743049999996
 30
0.0
 11
289.752867
 21
-81.67743049999996
 31
0.0
  0
LINE
  5
C8
330
1F
100
AcDbEntity
  8
0
 62
     7
100
AcDbLine
 10
286.7528669999999
 20
-77.94222049999996
 30
0.0
 11
289.7528669999999
 21
-74.94222049999996
 31
0.0
  0
LINE
  5
C9
330
1F
100
AcDbEntity
  8
0
 62
     7
100
AcDbLine
 10
286.752867
 20
-71.20704050000006
 30
0.0
 11
289.7528670000001
 21
-68.20701050000008
 31
0.0
  0
LINE
  5
CA
330
1F
100
AcDbEntity
  8
0
 62
     7
100
AcDbLine
 10
286.7528669999999
 20
-64.47183049999995
 30
0.0
 11
289.752867
 21
-61.47183049999995
 31
0.0
  0
LINE
  5
CB
330
1F
100
AcDbEntity
  8
0
 62
     7
100
AcDbLine
 10
286.7528669999999
 20
-57.73662049999996
 30
0.0
 11
289.7528669999999
 21
-54.73662049999996
 31
0.0
  0
LINE
  5
CC
330
1F
100
AcDbEntity
  8
0
 62
     7
100
AcDbLine
 10
286.752867
 20
-51.0014405
 30
0.0
 11
289.752867
 21
-48.00141050000002
 31
0.0
  0
LINE
  5
CD
330
1F
100
AcDbEntity
  8
0
 62
     7
100
AcDbLine
 10
286.7528669999999
 20
-44.26623049999989
 30
0.0
 11
289.7528669999999
 21
-41.26623049999989
 31
0.0
  0
LINE
  5
CE
330
1F
100
AcDbEntity
  8
0
 62
     7
100
AcDbLine
 10
286.752867
 20
-37.53102050000001
 30
0.0
 11
289.752867
 21
-34.53102049999995
 31
0.0
  0
LINE
  5
CF
330
1F
100
AcDbEntity
  8
0
 62
     7
100
AcDbLine
 10
289.752867
 20
-36.56130049999996
 30
0.0
 11
286.752867
 21
-33.56130049999996
 31
0.0
  0
LINE
  5
D0
330
1F
100
AcDbEntity
  8
0
 62
     7
100
AcDbLine
 10
289.752867
 20
-43.29648049999997
 30
0.0
 11
286.752867
 21
-40.29648049999997
 31
0.0
  0
LINE
  5
D1
330
1F
100
AcDbEntity
  8
0
 62
     7
100
AcDbLine
 10
289.7528670000002
 20
-50.03166050000016
 30
0.0
 11
286.7528670000002
 21
-47.03169050000014
 31
0.0
  0
LINE
  5
D2
330
1F
100
AcDbEntity
  8
0
 62
     7
100
AcDbLine
 10
289.752867
 20
-56.76687049999993
 30
0.0
 11
286.752867
 21
-53.76687049999993
 31
0.0
  0
LINE
  5
D3
330
1F
100
AcDbEntity
  8
0
 62
     7
100
AcDbLine
 10
289.752867
 20
-63.50205049999994
 30
0.0
 11
286.752867
 21
-60.50205049999994
 31
0.0
  0
LINE
  5
D4
330
1F
100
AcDbEntity
  8
0
 62
     7
100
AcDbLine
 10
289.752867
 20
-70.23723049999995
 30
0.0
 11
286.752867
 21
-67.23723049999995
 31
0.0
  0
LINE
  5
D5
330
1F
100
AcDbEntity
  8
0
 62
     7
100
AcDbLine
 10
289.752867
 20
-76.97241049999997
 30
0.0
 11
286.752867
 21
-73.97241049999997
 31
0.0
  0
LINE
  5
D6
330
1F
100
AcDbEntity
  8
0
 62
     7
100
AcDbLine
 10
289.7528669999999
 20
-83.70759049999992
 30
0.0
 11
286.7528669999999
 21
-80.70759049999992
 31
0.0
  0
LINE
  5
D7
330
1F
100
AcDbEntity
  8
0
 62
     7
100
AcDbLine
 10
289.752867
 20
-90.44277050000005
 30
0.0
 11
286.752867
 21
-87.44280049999998
 31
0.0
  0
LINE
  5
D8
330
1F
100
AcDbEntity
  8
0
 62
     7
100
AcDbLine
 10
289.752867
 20
-97.17798049999993
 30
0.0
 11
286.752867
 21
-94.17798049999993
 31
0.0
  0
LINE
  5
D9
330
1F
100
AcDbEntity
  8
0
 62
     7
100
AcDbLine
 10
288.692523
 20
-102.8528135
 30
0.0
 11
286.752867
 21
-100.9131605000001
 31
0.0
  0
LINE
  5
DA
330
1F
100
AcDbEntity
  8
0
 62
     7
100
AcDbLine
 10
-279.322185
 20
-34.09842049999998
 30
0.0
 11
-279.322185
 21
75.63110949999998
 31
0.0
  0
LINE
  5
DB
330
1F
100
AcDbEntity
  8
0
 62
     7
100
AcDbLine
 10
-276.5605050000002
 20
-37.08894049999992
 30
0.0
 11
-257.7398550000002
 21
-38.58852049999996
 31
0.0
  0
LINE
  5
DC
330
1F
100
AcDbEntity
  8
0
 62
     7
100
AcDbLine
 10
-253.3072350000001
 20
-42.27864050000005
 30
0.0
 11
-238.0651050000001
 21
-99.16305050000005
 31
0.0
  0
LINE
  5
DD
330
1F
100
AcDbEntity
  8
0
 62
     7
100
AcDbLine
 10
-238.594485
 20
-82.86891049999997
 30
0.0
 11
-218.072175
 21
-82.86891049999997
 31
0.0
  0
LINE
  5
DE
330
1F
100
AcDbEntity
  8
0
 62
     7
100
AcDbLine
 10
-215.072175
 20
-97.86891049999997
 30
0.0
 11
-215.072175
 21
-85.86891049999997
 31
0.0
  0
LINE
  5
DF
330
1F
100
AcDbEntity
  8
0
 62
     7
100
AcDbLine
 10
-232.572135
 20
-92.86893049999998
 30
0.0
 11
-217.572135
 21
-92.86893049999998
 31
0.0
  0
LINE
  5
E0
330
1F
100
AcDbEntity
  8
0
 62
     7
100
AcDbLine
 10
-225.072135
 20
-100.3689305
 30
0.0
 11
-225.072135
 21
-85.36893049999998
 31
0.0
  0
LINE
  5
E1
330
1F
100
AcDbEntity
  8
0
 62
     7
100
AcDbLine
 10
-233.235495
 20
-102.8689025
 30
0.0
 11
-128.408775
 21
-102.8689025
 31
0.0
  0
LINE
  5
E2
330
1F
100
AcDbEntity
  8
0
 62
     7
100
AcDbLine
 10
-146.572185
 20
-97.86891049999997
 30
0.0
 11
-146.572185
 21
-85.86891049999997
 31
0.0
  0
LINE
  5
E3
330
1F
100
AcDbEntity
  8
0
 62
     7
100
AcDbLine
 10
-123.049785
 20
-82.86891049999997
 30
0.0
 11
-143.572125
 21
-82.86891049999997
 31
0.0
  0
LINE
  5
E4
330
1F
100
AcDbEntity
  8
0
 62
     7
100
AcDbLine
 10
-123.579105
 20
-99.16299049999992
 30
0.0
 11
-112.763685
 21
-58.79928050000001
 31
0.0
  0
LINE
  5
E5
330
1F
100
AcDbEntity
  8
0
 62
     7
100
AcDbLine
 10
-129.072105
 20
-92.86893049999998
 30
0.0
 11
-144.072105
 21
-92.86893049999998
 31
0.0
  0
LINE
  5
E6
330
1F
100
AcDbEntity
  8
0
 62
     7
100
AcDbLine
 10
-136.572165
 20
-100.3689305
 30
0.0
 11
-136.572165
 21
-85.36893049999998
 31
0.0
  0
LINE
  5
E7
330
1F
100
AcDbEntity
  8
0
 62
     7
100
AcDbLine
 10
-108.3029249999999
 20
-55.10697049999999
 30
0.0
 11
-101.100975
 21
-54.57438050000002
 31
0.0
  0
LINE
  5
E8
330
1F
100
AcDbEntity
  8
0
 62
     7
100
AcDbLine
 10
-98.32216500000004
 20
-51.58257049999997
 30
0.0
 11
-98.32216500000004
 21
75.63110949999998
 31
0.0
  0
LINE
  5
E9
330
1F
100
AcDbEntity
  8
0
 62
     7
100
AcDbLine
 10
-279.322185
 20
185.3606395000001
 30
0.0
 11
-279.322185
 21
180.6311095
 31
0.0
  0
LINE
  5
EA
330
1F
100
AcDbEntity
  8
0
 62
     7
100
AcDbLine
 10
-276.5604149999999
 20
188.3510994999999
 30
0.0
 11
-257.7397649999998
 21
189.8506794999998
 31
0.0
  0
LINE
  5
EB
330
1F
100
AcDbEntity
  8
0
 62
     7
100
AcDbLine
 10
-253.3071749999999
 20
193.5408295
 30
0.0
 11
-238.0650749999999
 21
250.4252094999999
 31
0.0
  0
LINE
  5
EC
330
1F
100
AcDbEntity
  8
0
 62
     7
100
AcDbLine
 10
-239.322135
 20
221.6311495
 30
0.0
 11
-239.322135
 21
180.6311095
 31
0.0
  0
LINE
  5
ED
330
1F
100
AcDbEntity
  8
0
 62
     7
100
AcDbLine
 10
-233.235495
 20
254.1310795000001
 30
0.0
 11
-128.408775
 21
254.1310795000001
 31
0.0
  0
LINE
  5
EE
330
1F
100
AcDbEntity
  8
0
 62
     7
100
AcDbLine
 10
-215.072175
 20
249.1310695
 30
0.0
 11
-215.072175
 21
237.1310695
 31
0.0
  0
LINE
  5
EF
330
1F
100
AcDbEntity
  8
0
 62
     7
100
AcDbLine
 10
-232.572135
 20
244.1311495
 30
0.0
 11
-217.572135
 21
244.1311495
 31
0.0
  0
LINE
  5
F0
330
1F
100
AcDbEntity
  8
0
 62
     7
100
AcDbLine
 10
-225.072135
 20
251.6311495
 30
0.0
 11
-225.072135
 21
236.6311495
 31
0.0
  0
LINE
  5
F1
330
1F
100
AcDbEntity
  8
0
 62
     7
100
AcDbLine
 10
-238.594485
 20
234.1310995
 30
0.0
 11
-218.072175
 21
234.1310995
 31
0.0
  0
LINE
  5
F2
330
1F
100
AcDbEntity
  8
0
 62
     7
100
AcDbLine
 10
-229.322175
 20
231.6310795000001
 30
0.0
 11
-215.572125
 21
231.6310795000001
 31
0.0
  0
LINE
  5
F3
330
1F
100
AcDbEntity
  8
0
 62
     7
100
AcDbLine
 10
-212.572155
 20
241.1311495
 30
0.0
 11
-212.572155
 21
234.6311095
 31
0.0
  0
LINE
  5
F4
330
1F
100
AcDbEntity
  8
0
 62
     7
100
AcDbLine
 10
-207.572175
 20
246.1310995
 30
0.0
 11
-154.072125
 21
246.1310995
 31
0.0
  0
LINE
  5
F5
330
1F
100
AcDbEntity
  8
0
 62
     7
100
AcDbLine
 10
-146.572185
 20
249.1310695
 30
0.0
 11
-146.572185
 21
237.1310695
 31
0.0
  0
LINE
  5
F6
330
1F
100
AcDbEntity
  8
0
 62
     7
100
AcDbLine
 10
-129.072105
 20
244.1311495
 30
0.0
 11
-144.072105
 21
244.1311495
 31
0.0
  0
LINE
  5
F7
330
1F
100
AcDbEntity
  8
0
 62
     7
100
AcDbLine
 10
-136.572165
 20
251.6311495
 30
0.0
 11
-136.572165
 21
236.6311495
 31
0.0
  0
LINE
  5
F8
330
1F
100
AcDbEntity
  8
0
 62
     7
100
AcDbLine
 10
-123.579105
 20
250.4251795000001
 30
0.0
 11
-112.7636850000001
 21
210.0614695000002
 31
0.0
  0
LINE
  5
F9
330
1F
100
AcDbEntity
  8
0
 62
     7
100
AcDbLine
 10
-123.049785
 20
234.1310995
 30
0.0
 11
-143.572125
 21
234.1310995
 31
0.0
  0
LINE
  5
FA
330
1F
100
AcDbEntity
  8
0
 62
     7
100
AcDbLine
 10
-149.072175
 20
241.1311495
 30
0.0
 11
-149.072175
 21
234.6311095
 31
0.0
  0
LINE
  5
FB
330
1F
100
AcDbEntity
  8
0
 62
     7
100
AcDbLine
 10
-146.072175
 20
231.6310795000001
 30
0.0
 11
-127.322175
 21
231.6310795000001
 31
0.0
  0
LINE
  5
FC
330
1F
100
AcDbEntity
  8
0
 62
     7
100
AcDbLine
 10
-122.322165
 20
226.6310695
 30
0.0
 11
-122.322165
 21
180.6311095
 31
0.0
  0
LINE
  5
FD
330
1F
100
AcDbEntity
  8
0
 62
     7
100
AcDbLine
 10
-108.3029850000002
 20
206.3692495000001
 30
0.0
 11
-101.101005
 21
205.8366595000001
 31
0.0
  0
LINE
  5
FE
330
1F
100
AcDbEntity
  8
0
 62
     7
100
AcDbLine
 10
-98.32216500000004
 20
202.8447595
 30
0.0
 11
-98.32216500000004
 21
180.6311095
 31
0.0
  0
LINE
  5
FF
330
1F
100
AcDbEntity
  8
0
 62
     7
100
AcDbLine
 10
-102.722145
 20
183.6310795000001
 30
0.0
 11
-98.32210499999997
 21
183.6310795000001
 31
0.0
  0
LINE
  5
100
330
1F
100
AcDbEntity
  8
0
 62
     7
100
AcDbLine
 10
-122.322105
 20
183.6310795000001
 30
0.0
 11
-117.922155
 21
183.6310795000001
 31
0.0
  0
LINE
  5
101
330
1F
100
AcDbEntity
  8
0
 62
     7
100
AcDbLine
 10
-115.822125
 20
200.6311495
 30
0.0
 11
-104.822175
 21
200.6311495
 31
0.0
  0
LINE
  5
102
330
1F
100
AcDbEntity
  8
0
 62
     7
100
AcDbLine
 10
-115.822065
 20
200.6310894999999
 30
0.0
 11
-117.922065
 21
183.6310495
 31
0.0
  0
LINE
  5
103
330
1F
100
AcDbEntity
  8
0
 62
     7
100
AcDbLine
 10
-104.8221149999999
 20
200.6310894999999
 30
0.0
 11
-102.722115
 21
183.6310495
 31
0.0
  0
LINE
  5
104
330
1F
100
AcDbEntity
  8
0
 62
     7
100
AcDbLine
 10
-102.722145
 20
183.6311095
 30
0.0
 11
-102.722145
 21
180.6311095
 31
0.0
  0
LINE
  5
105
330
1F
100
AcDbEntity
  8
0
 62
     7
100
AcDbLine
 10
-117.922155
 20
183.6311095
 30
0.0
 11
-117.922155
 21
180.6311095
 31
0.0
  0
LINE
  5
106
330
1F
100
AcDbEntity
  8
0
 62
     7
100
AcDbLine
 10
-127.5221759999999
 20
180.6311125
 30
0.0
 11
-130.422201
 21
180.6311725000001
 31
0.0
  0
LINE
  5
107
330
1F
100
AcDbEntity
  8
0
 62
     7
100
AcDbLine
 10
-79.52218200000004
 20
180.6327925000001
 30
0.0
 11
-111.522126
 21
180.6327925000001
 31
0.0
  0
LINE
  5
108
330
1F
100
AcDbEntity
  8
0
 62
     7
100
AcDbLine
 10
-73.52218200000004
 20
102.1310815
 30
0.0
 11
-73.52218200000004
 21
174.6310195
 31
0.0
  0
LINE
  5
109
330
1F
100
AcDbEntity
  8
0
 62
     7
100
AcDbLine
 10
-111.522126
 20
102.1310815
 30
0.0
 11
-73.52218200000004
 21
102.1310815
 31
0.0
  0
LINE
  5
10A
330
1F
100
AcDbEntity
  8
0
 62
     7
100
AcDbLine
 10
-173.522127
 20
102.1310815
 30
0.0
 11
-127.522188
 21
102.1310815
 31
0.0
  0
LINE
  5
10B
330
1F
100
AcDbEntity
  8
0
 62
     7
100
AcDbLine
 10
-150.8221139999999
 20
198.3761425
 30
0.0
 11
-173.522127
 21
198.3761425
 31
0.0
  0
LINE
  5
10C
330
1F
100
AcDbEntity
  8
0
 62
     7
100
AcDbLine
 10
-173.522127
 20
198.3761425
 30
0.0
 11
-173.522127
 21
102.1310815
 31
0.0
  0
LINE
  5
10D
330
1F
100
AcDbEntity
  8
0
 62
     7
100
AcDbLine
 10
-218.922183
 20
198.3761425
 30
0.0
 11
-196.222203
 21
198.3761425
 31
0.0
  0
LINE
  5
10E
330
1F
100
AcDbEntity
  8
0
 62
     7
100
AcDbLine
 10
-239.322147
 20
180.6311725000001
 30
0.0
 11
-239.322147
 21
183.1311115
 31
0.0
  0
LINE
  5
10F
330
1F
100
AcDbEntity
  8
0
 62
     7
100
AcDbLine
 10
-242.222184
 20
180.6311124999999
 30
0.0
 11
-239.3221589999999
 21
180.6311724999999
 31
0.0
  0
LINE
  5
110
330
1F
100
AcDbEntity
  8
0
 62
     7
100
AcDbLine
 10
-290.222148
 20
180.6298615
 30
0.0
 11
-258.222234
 21
180.6298615
 31
0.0
  0
LINE
  5
111
330
1F
100
AcDbEntity
  8
0
 62
     7
100
AcDbLine
 10
-296.222298
 20
102.1310815
 30
0.0
 11
-296.222298
 21
174.6310195
 31
0.0
  0
LINE
  5
112
330
1F
100
AcDbEntity
  8
0
 62
     7
100
AcDbLine
 10
-258.222204
 20
102.1310815
 30
0.0
 11
-296.222178
 21
102.1310815
 31
0.0
  0
LINE
  5
113
330
1F
100
AcDbEntity
  8
0
 62
     7
100
AcDbLine
 10
-196.222203
 20
198.3761425
 30
0.0
 11
-196.222203
 21
102.1310815
 31
0.0
  0
LINE
  5
114
330
1F
100
AcDbEntity
  8
0
 62
     7
100
AcDbLine
 10
-79.52238299999999
 20
180.6310225
 30
0.0
 11
-73.52237400000013
 21
174.6310195000001
 31
0.0
  0
LINE
  5
115
330
1F
100
AcDbEntity
  8
0
 62
     7
100
AcDbLine
 10
-130.4222129999999
 20
183.1310815000001
 30
0.0
 11
-130.4222129999999
 21
180.6311125
 31
0.0
  0
LINE
  5
116
330
1F
100
AcDbEntity
  8
0
 62
     7
100
AcDbLine
 10
-150.8221139999999
 20
183.1311115
 30
0.0
 11
-130.4222129999999
 21
183.1311115
 31
0.0
  0
LINE
  5
117
330
1F
100
AcDbEntity
  8
0
 62
     7
100
AcDbLine
 10
-150.822177
 20
198.3761425
 30
0.0
 11
-150.822177
 21
183.1310815000001
 31
0.0
  0
LINE
  5
118
330
1F
100
AcDbEntity
  8
0
 62
     7
100
AcDbLine
 10
-218.922183
 20
198.3761425
 30
0.0
 11
-218.922183
 21
183.1310815000001
 31
0.0
  0
LINE
  5
119
330
1F
100
AcDbEntity
  8
0
 62
     7
100
AcDbLine
 10
-218.922183
 20
183.1311115
 30
0.0
 11
-239.322147
 21
183.1311115
 31
0.0
  0
LINE
  5
11A
330
1F
100
AcDbEntity
  8
0
 62
     7
100
AcDbLine
 10
-196.222203
 20
102.1310815
 30
0.0
 11
-242.222172
 21
102.1310815
 31
0.0
  0
LINE
  5
11B
330
1F
100
AcDbEntity
  8
0
 62
     7
100
AcDbLine
 10
-290.2220879999999
 20
180.6310314999998
 30
0.0
 11
-296.2220969999999
 21
174.6310344999999
 31
0.0
  0
CIRCLE
  5
11C
330
1F
100
AcDbEntity
  8
0
 62
     7
100
AcDbCircle
 10
288.252867
 20
75.6310795
 30
0.0
 40
26.4999846
  0
CIRCLE
  5
11D
330
1F
100
AcDbEntity
  8
0
 62
     7
100
AcDbCircle
 10
288.252867
 20
75.6310795
 30
0.0
 40
105.0
  0
ARC
  5
11E
330
1F
100
AcDbEntity
  8
0
 62
     7
100
AcDbCircle
 10
288.252867
 20
75.6310795
 30
0.0
 40
178.5
100
AcDbArc
 50
0.0
 51
89.51851510000002
  0
CIRCLE
  5
11F
330
1F
100
AcDbEntity
  8
0
 62
     7
100
AcDbCircle
 10
175.642695
 20
148.0012795
 30
0.0
 40
5.5550001
  0
ARC
  5
120
330
1F
100
AcDbEntity
  8
0
 62
     7
100
AcDbCircle
 10
175.642695
 20
148.0012795
 30
0.0
 40
15.6000009
100
AcDbArc
 50
116.4175399999999
 51
229.0908600000001
  0
ARC
  5
121
330
1F
100
AcDbEntity
  8
0
 62
     7
100
AcDbCircle
 10
153.655635
 20
192.2598595
 30
0.0
 40
33.819255
100
AcDbArc
 50
296.41751
 51
317.7711699999999
  0
ARC
  5
122
330
1F
100
AcDbEntity
  8
0
 62
     7
100
AcDbCircle
 10
222.579945
 20
132.5365795
 30
0.0
 40
33.819255
100
AcDbArc
 50
144.7831
 51
161.7642600000001
  0
ARC
  5
123
330
1F
100
AcDbEntity
  8
0
 62
     7
100
AcDbCircle
 10
175.642695
 20
148.0012795
 30
0.0
 40
15.6000009
100
AcDbArc
 50
229.0909
 51
341.7642300000001
  0
ARC
  5
124
330
1F
100
AcDbEntity
  8
0
 62
     7
100
AcDbCircle
 10
175.642695
 20
148.0012795
 30
0.0
 40
18.1000014
100
AcDbArc
 50
93.70637709999993
 51
185.13479
  0
ARC
  5
125
330
1F
100
AcDbEntity
  8
0
 62
     7
100
AcDbCircle
 10
137.324625
 20
144.5579995000001
 30
0.0
 40
20.3724918
100
AcDbArc
 50
335.4545400000001
 51
365.1347655
  0
ARC
  5
126
330
1F
100
AcDbEntity
  8
0
 62
     7
100
AcDbCircle
 10
198.133485
 20
116.7875095000001
 30
0.0
 40
20.3724918
100
AcDbArc
 50
125.7742700000002
 51
155.4545000000001
  0
ARC
  5
127
330
1F
100
AcDbEntity
  8
0
 62
     7
100
AcDbCircle
 10
175.642695
 20
148.0012795
 30
0.0
 40
18.1000014
100
AcDbArc
 50
305.7742500000001
 51
366.4005633799999
  0
ARC
  5
128
330
1F
100
AcDbEntity
  8
0
 62
     7
100
AcDbCircle
 10
198.133485
 20
116.7875095000001
 30
0.0
 40
20.3724918
100
AcDbArc
 50
155.45459
 51
185.1348200000001
  0
ARC
  5
129
330
1F
100
AcDbEntity
  8
0
 62
     7
100
AcDbCircle
 10
159.815355
 20
113.3442595
 30
0.0
 40
18.1000014
100
AcDbArc
 50
308.1448899999999
 51
365.1348338
  0
ARC
  5
12A
330
1F
100
AcDbEntity
  8
0
 62
     7
100
AcDbCircle
 10
137.324625
 20
144.5579995000001
 30
0.0
 40
20.3724918
100
AcDbArc
 50
305.77432
 51
335.4545499999999
  0
ARC
  5
12B
330
1F
100
AcDbEntity
  8
0
 62
     7
100
AcDbCircle
 10
159.815355
 20
113.3442595
 30
0.0
 40
18.1000014
100
AcDbArc
 50
125.7743
 51
219.1262400000001
  0
ARC
  5
12C
330
1F
100
AcDbEntity
  8
0
 62
     7
100
AcDbCircle
 10
159.815055
 20
37.9188595
 30
0.0
 40
18.1000014
100
AcDbArc
 50
340.8721600000001
 51
397.862109
  0
ARC
  5
12D
330
1F
100
AcDbEntity
  8
0
 62
     7
100
AcDbCircle
 10
124.019205
 20
52.01810949999998
 30
0.0
 40
20.3724918
100
AcDbArc
 50
338.50159
 51
368.1818220700001
  0
ARC
  5
12E
330
1F
100
AcDbEntity
  8
0
 62
     7
100
AcDbCircle
 10
159.815055
 20
37.9188595
 30
0.0
 40
18.1000014
100
AcDbArc
 50
158.5015600000001
 51
251.85372
  0
ARC
  5
12F
330
1F
100
AcDbEntity
  8
0
 62
     7
100
AcDbCircle
 10
190.188765
 20
61.5318595
 30
0.0
 40
20.3724918
100
AcDbArc
 50
188.18186
 51
217.8621100000001
  0
CIRCLE
  5
130
330
1F
100
AcDbEntity
  8
0
 62
     7
100
AcDbCircle
 10
154.392885
 20
75.6310795
 30
0.0
 40
5.5550001
  0
ARC
  5
131
330
1F
100
AcDbEntity
  8
0
 62
     7
100
AcDbCircle
 10
154.392885
 20
75.6310795
 30
0.0
 40
15.6000009
100
AcDbArc
 50
149.1448
 51
261.8181400000001
  0
ARC
  5
132
330
1F
100
AcDbEntity
  8
0
 62
     7
100
AcDbCircle
 10
111.968115
 20
100.9767295
 30
0.0
 40
33.819255
100
AcDbArc
 50
329.1447800000001
 51
351.8182
  0
ARC
  5
133
330
1F
100
AcDbEntity
  8
0
 62
     7
100
AcDbCircle
 10
111.968115
 20
100.9767295
 30
0.0
 40
33.819255
100
AcDbArc
 50
351.81814
 51
374.4915580000001
  0
ARC
  5
134
330
1F
100
AcDbEntity
  8
0
 62
     7
100
AcDbCircle
 10
159.815055
 20
113.3432395
 30
0.0
 40
15.6000009
100
AcDbArc
 50
81.81818010000006
 51
194.4915199999999
  0
ARC
  5
135
330
1F
100
AcDbEntity
  8
0
 62
     7
100
AcDbCircle
 10
202.239825
 20
87.9975895
 30
0.0
 40
33.819255
100
AcDbArc
 50
171.81811
 51
194.4915200000001
  0
ARC
  5
136
330
1F
100
AcDbEntity
  8
0
 62
     7
100
AcDbCircle
 10
154.392885
 20
75.6310795
 30
0.0
 40
15.6000009
100
AcDbArc
 50
261.81816
 51
374.4915030000001
  0
ARC
  5
137
330
1F
100
AcDbEntity
  8
0
 62
     7
100
AcDbCircle
 10
202.239825
 20
87.9975895
 30
0.0
 40
33.819255
100
AcDbArc
 50
149.14475
 51
171.8181600000001
  0
ARC
  5
138
330
1F
100
AcDbEntity
  8
0
 62
     7
100
AcDbCircle
 10
159.815055
 20
113.3432395
 30
0.0
 40
15.6000009
100
AcDbArc
 50
329.1447800000001
 51
441.8181262000001
  0
CIRCLE
  5
139
330
1F
100
AcDbEntity
  8
0
 62
     7
100
AcDbCircle
 10
159.815055
 20
113.3432395
 30
0.0
 40
5.5550001
  0
ARC
  5
13A
330
1F
100
AcDbEntity
  8
0
 62
     7
100
AcDbCircle
 10
154.392885
 20
75.6310795
 30
0.0
 40
18.1000014
100
AcDbArc
 50
126.4336500000001
 51
217.86207
  0
ARC
  5
13B
330
1F
100
AcDbEntity
  8
0
 62
     7
100
AcDbCircle
 10
124.019205
 20
52.01810949999998
 30
0.0
 40
20.3724918
100
AcDbArc
 50
8.181808489999977
 51
37.86204000000009
  0
ARC
  5
13C
330
1F
100
AcDbEntity
  8
0
 62
     7
100
AcDbCircle
 10
190.188765
 20
61.5318595
 30
0.0
 40
20.3724918
100
AcDbArc
 50
158.50153
 51
188.18177
  0
ARC
  5
13D
330
1F
100
AcDbEntity
  8
0
 62
     7
100
AcDbCircle
 10
154.392885
 20
75.6310795
 30
0.0
 40
18.1000014
100
AcDbArc
 50
338.50152
 51
399.127831
  0
ARC
  5
13E
330
1F
100
AcDbEntity
  8
0
 62
     7
100
AcDbCircle
 10
162.856845
 20
-33.0248105
 30
0.0
 40
20.3724918
100
AcDbArc
 50
33.40681699999998
 51
40.90909399999995
  0
CIRCLE
  5
13F
330
1F
100
AcDbEntity
  8
0
 62
     7
100
AcDbCircle
 10
175.642695
 20
3.260939500000006
 30
0.0
 40
5.5550001
  0
ARC
  5
140
330
1F
100
AcDbEntity
  8
0
 62
     7
100
AcDbCircle
 10
175.642695
 20
3.260939500000006
 30
0.0
 40
15.6000009
100
AcDbArc
 50
181.8720999999999
 51
294.54542
  0
ARC
  5
141
330
1F
100
AcDbEntity
  8
0
 62
     7
100
AcDbCircle
 10
126.249855
 20
1.64648950000003
 30
0.0
 40
33.819255
100
AcDbArc
 50
1.872055800000017
 51
24.54547000000003
  0
ARC
  5
142
330
1F
100
AcDbEntity
  8
0
 62
     7
100
AcDbCircle
 10
126.249855
 20
1.64648950000003
 30
0.0
 40
33.819255
100
AcDbArc
 50
24.54541500000001
 51
47.21882900000006
  0
ARC
  5
143
330
1F
100
AcDbEntity
  8
0
 62
     7
100
AcDbCircle
 10
159.815355
 20
37.91783950000001
 30
0.0
 40
15.6000009
100
AcDbArc
 50
114.5454599999999
 51
227.2187999999999
  0
ARC
  5
144
330
1F
100
AcDbEntity
  8
0
 62
     7
100
AcDbCircle
 10
209.208255
 20
39.53228949999999
 30
0.0
 40
33.819255
100
AcDbArc
 50
204.5453999999999
 51
227.2188099999999
  0
ARC
  5
145
330
1F
100
AcDbEntity
  8
0
 62
     7
100
AcDbCircle
 10
175.642695
 20
3.260939500000006
 30
0.0
 40
15.6000009
100
AcDbArc
 50
294.5454400000001
 51
407.2187750000001
  0
ARC
  5
146
330
1F
100
AcDbEntity
  8
0
 62
     7
100
AcDbCircle
 10
209.208255
 20
39.53228949999999
 30
0.0
 40
33.819255
100
AcDbArc
 50
181.87204
 51
204.54545
  0
ARC
  5
147
330
1F
100
AcDbEntity
  8
0
 62
     7
100
AcDbCircle
 10
159.815355
 20
37.91783950000001
 30
0.0
 40
15.6000009
100
AcDbArc
 50
1.872055799999894
 51
114.5453999999999
  0
CIRCLE
  5
148
330
1F
100
AcDbEntity
  8
0
 62
     7
100
AcDbCircle
 10
159.815355
 20
37.91783950000001
 30
0.0
 40
5.5550001
  0
ARC
  5
149
330
1F
100
AcDbEntity
  8
0
 62
     7
100
AcDbCircle
 10
175.642695
 20
3.260939500000006
 30
0.0
 40
18.1000014
100
AcDbArc
 50
159.16092
 51
250.5893400000001
  0
ARC
  5
14A
330
1F
100
AcDbEntity
  8
0
 62
     7
100
AcDbCircle
 10
162.856845
 20
-33.0248105
 30
0.0
 40
20.3724918
100
AcDbArc
 50
40.90907999999998
 51
70.58930790000007
  0
ARC
  5
14B
330
1F
100
AcDbEntity
  8
0
 62
     7
100
AcDbCircle
 10
213.378705
 20
10.75259949999997
 30
0.0
 40
20.3724918
100
AcDbArc
 50
191.22883
 51
220.9587
  0
ARC
  5
14C
330
1F
100
AcDbEntity
  8
0
 62
     7
100
AcDbCircle
 10
175.642695
 20
3.260939500000006
 30
0.0
 40
18.1000014
100
AcDbArc
 50
11.22879300000002
 51
71.85525020000006
  0
ARC
  5
14D
330
1F
100
AcDbEntity
  8
0
 62
     7
100
AcDbCircle
 10
288.252867
 20
75.6310795
 30
0.0
 40
108.0
100
AcDbArc
 50
0.0
 51
89.20419680000002
  0
ARC
  5
14E
330
1F
100
AcDbEntity
  8
0
 62
     7
100
AcDbCircle
 10
288.252867
 20
75.6310795
 30
0.0
 40
178.5
100
AcDbArc
 50
214.17644
 51
360.0
  0
ARC
  5
14F
330
1F
100
AcDbEntity
  8
0
 62
     7
100
AcDbCircle
 10
288.252867
 20
75.6310795
 30
0.0
 40
108.0
100
AcDbArc
 50
218.78887
 51
360.0
  0
ARC
  5
150
330
1F
100
AcDbEntity
  8
0
 62
     7
100
AcDbCircle
 10
288.252867
 20
75.6310795
 30
0.0
 40
178.5
100
AcDbArc
 50
90.48150420000002
 51
142.01261
  0
ARC
  5
151
330
1F
100
AcDbEntity
  8
0
 62
     7
100
AcDbCircle
 10
288.252867
 20
75.6310795
 30
0.0
 40
108.0
100
AcDbArc
 50
90.79582190000002
 51
137.6527
  0
CIRCLE
  5
152
330
1F
100
AcDbEntity
  8
0
 62
     7
100
AcDbCircle
 10
-485.425965
 20
75.6310795
 30
0.0
 40
26.4999846
  0
ARC
  5
153
330
1F
100
AcDbEntity
  8
0
 62
     7
100
AcDbCircle
 10
147.961929
 20
174.6091855
 30
0.0
 40
10.8945218
100
AcDbArc
 50
69.94873189999983
 51
92.23777970000006
  0
ARC
  5
154
330
1F
100
AcDbEntity
  8
0
 62
     7
100
AcDbCircle
 10
147.976482
 20
176.1354925000001
 30
0.0
 40
9.469465380000001
100
AcDbArc
 50
41.23410390000012
 51
66.86361720000015
  0
ARC
  5
155
330
1F
100
AcDbEntity
  8
0
 62
     7
100
AcDbCircle
 10
141.895827
 20
170.6305435
 30
0.0
 40
17.6712645
100
AcDbArc
 50
27.92298489999989
 51
41.66164219999991
  0
ARC
  5
156
330
1F
100
AcDbEntity
  8
0
 62
     7
100
AcDbCircle
 10
205.721493
 20
203.7687505
 30
0.0
 40
54.2451945
100
AcDbArc
 50
207.2803849999999
 51
211.758154
  0
ARC
  5
157
330
1F
100
AcDbEntity
  8
0
 62
     7
100
AcDbCircle
 10
165.018237
 20
178.3811995
 30
0.0
 40
6.27589725
100
AcDbArc
 50
210.2706839999998
 51
248.9627299999997
  0
ARC
  5
158
330
1F
100
AcDbEntity
  8
0
 62
     7
100
AcDbCircle
 10
166.703937
 20
185.8763245
 30
0.0
 40
13.9214752
100
AcDbArc
 50
253.5657539999999
 51
271.0002279999999
  0
ARC
  5
159
330
1F
100
AcDbEntity
  8
0
 62
     7
100
AcDbCircle
 10
167.12952
 20
128.0210665
 30
0.0
 40
43.9362813
100
AcDbArc
 50
84.71175270000005
 51
90.23807620000004
  0
ARC
  5
15A
330
1F
100
AcDbEntity
  8
0
 62
     7
100
AcDbCircle
 10
168.788685
 20
150.1607965
 30
0.0
 40
21.7413387
100
AcDbArc
 50
72.52095839999994
 51
83.68804099999996
  0
ARC
  5
15B
330
1F
100
AcDbEntity
  8
0
 62
     7
100
AcDbCircle
 10
168.475086
 20
149.1810685
 30
0.0
 40
22.7700226
100
AcDbArc
 50
61.84616389999996
 51
72.50875490000004
  0
ARC
  5
15C
330
1F
100
AcDbEntity
  8
0
 62
     7
100
AcDbCircle
 10
169.034931
 20
150.1092355
 30
0.0
 40
21.6875849
100
AcDbArc
 50
50.79678100000004
 51
61.99321070000008
  0
ARC
  5
15D
330
1F
100
AcDbEntity
  8
0
 62
     7
100
AcDbCircle
 10
172.750218
 20
154.6186555000001
 30
0.0
 40
15.8448885
100
AcDbArc
 50
35.58132260000011
 51
50.90065649999988
  0
ARC
  5
15E
330
1F
100
AcDbEntity
  8
0
 62
     7
100
AcDbCircle
 10
170.023041
 20
153.3027025
 30
0.0
 40
18.8356597
100
AcDbArc
 50
21.1210302999999
 51
34.00975970000008
  0
ARC
  5
15F
330
1F
100
AcDbEntity
  8
0
 62
     7
100
AcDbCircle
 10
217.666785
 20
171.6442525
 30
0.0
 40
32.2166748
100
AcDbArc
 50
201.0169519999999
 51
208.554984
  0
ARC
  5
160
330
1F
100
AcDbEntity
  8
0
 62
     7
100
AcDbCircle
 10
196.367406
 20
160.1675725
 30
0.0
 40
8.02293222
100
AcDbArc
 50
209.2727379999996
 51
239.5399899999997
  0
ARC
  5
161
330
1F
100
AcDbEntity
  8
0
 62
     7
100
AcDbCircle
 10
200.111553
 20
166.8060775
 30
0.0
 40
15.6438663
100
AcDbArc
 50
240.0450889999999
 51
255.5581069999999
  0
ARC
  5
162
330
1F
100
AcDbEntity
  8
0
 62
     7
100
AcDbCircle
 10
208.135329
 20
196.7185915
 30
0.0
 40
46.6133223
100
AcDbArc
 50
255.176927
 51
260.388733
  0
ARC
  5
163
330
1F
100
AcDbEntity
  8
0
 62
     7
100
AcDbCircle
 10
190.81899
 20
93.40313049999998
 30
0.0
 40
58.1433705
100
AcDbArc
 50
76.38638320000003
 51
80.56270810000005
  0
ARC
  5
164
330
1F
100
AcDbEntity
  8
0
 62
     7
100
AcDbCircle
 10
200.708142
 20
134.3233765
 30
0.0
 40
16.0451492
100
AcDbArc
 50
61.18438160000007
 51
76.31422830000005
  0
ARC
  5
165
330
1F
100
AcDbEntity
  8
0
 62
     7
100
AcDbCircle
 10
140.757885
 20
-271.2881985
 30
0.0
 40
246.648062
100
AcDbArc
 50
88.76652920000001
 51
90.04114430000003
  0
ARC
  5
166
330
1F
100
AcDbEntity
  8
0
 62
     7
100
AcDbCircle
 10
145.228881
 20
-59.8616945
 30
0.0
 40
35.1743988
100
AcDbArc
 50
79.69598560000004
 51
88.63409000000002
  0
ARC
  5
167
330
1F
100
AcDbEntity
  8
0
 62
     7
100
AcDbCircle
 10
181.372578
 20
120.7746595
 30
0.0
 40
149.049251
100
AcDbArc
 50
258.446499
 51
260.555784
  0
ARC
  5
168
330
1F
100
AcDbEntity
  8
0
 62
     7
100
AcDbCircle
 10
159.575229
 20
-10.2820835
 30
0.0
 40
16.1922056
100
AcDbArc
 50
260.54574
 51
279.9616579999999
  0
ARC
  5
169
330
1F
100
AcDbEntity
  8
0
 62
     7
100
AcDbCircle
 10
142.36569
 20
66.87199450000003
 30
0.0
 40
95.2283448
100
AcDbArc
 50
282.130145
 51
285.4306599999999
  0
ARC
  5
16A
330
1F
100
AcDbEntity
  8
0
 62
     7
100
AcDbCircle
 10
178.936857
 20
-76.91454349999998
 30
0.0
 40
53.190639
100
AcDbArc
 50
96.28225150000003
 51
102.192363
  0
ARC
  5
16B
330
1F
100
AcDbEntity
  8
0
 62
     7
100
AcDbCircle
 10
170.727876
 20
-6.371316499999978
 30
0.0
 40
17.8326874
100
AcDbArc
 50
277.6973550000001
 51
295.329212
  0
ARC
  5
16C
330
1F
100
AcDbEntity
  8
0
 62
     7
100
AcDbCircle
 10
205.583718
 20
-79.2835925
 30
0.0
 40
62.9828865
100
AcDbArc
 50
110.621528
 51
115.6127860000001
  0
ARC
  5
16D
330
1F
100
AcDbEntity
  8
0
 62
     7
100
AcDbCircle
 10
92.60227500000002
 20
241.1417275
 30
0.0
 40
276.794533
100
AcDbArc
 50
289.1497699999999
 51
290.285729
  0
ARC
  5
16E
330
1F
100
AcDbEntity
  8
0
 62
     7
100
AcDbCircle
 10
181.495356
 20
0.9881035000000225
 30
0.0
 40
20.7172829
100
AcDbArc
 50
289.9600399999999
 51
305.13747
  0
ARC
  5
16F
330
1F
100
AcDbEntity
  8
0
 62
     7
100
AcDbCircle
 10
187.261779
 20
-7.425492500000019
 30
0.0
 40
10.5188204
100
AcDbArc
 50
305.8278099999999
 51
335.716784
  0
ARC
  5
170
330
1F
100
AcDbEntity
  8
0
 62
     7
100
AcDbCircle
 10
183.415656
 20
-6.422301500000003
 30
0.0
 40
14.4526254
100
AcDbArc
 50
338.363059
 51
360.1112836569999
  0
ARC
  5
171
330
1F
100
AcDbEntity
  8
0
 62
     7
100
AcDbCircle
 10
251.043264
 20
-6.482790500000021
 30
0.0
 40
53.1750822
100
AcDbArc
 50
173.9924270000001
 51
179.904578
  0
ARC
  5
172
330
1F
100
AcDbEntity
  8
0
 62
     7
100
AcDbCircle
 10
209.222646
 20
-2.477037499999995
 30
0.0
 40
11.1718195
100
AcDbArc
 50
143.8387050000002
 51
171.975494
  0
ARC
  5
173
330
1F
100
AcDbEntity
  8
0
 62
     7
100
AcDbCircle
 10
214.620483
 20
-6.468240499999979
 30
0.0
 40
17.8849015
100
AcDbArc
 50
126.1441730000001
 51
143.719262
  0
CIRCLE
  5
174
330
1F
100
AcDbEntity
  8
0
 62
     7
100
AcDbCircle
 10
-225.072135
 20
-92.86893049999998
 30
0.0
 40
8.000000099999999
  0
CIRCLE
  5
175
330
1F
100
AcDbEntity
  8
0
 62
     7
100
AcDbCircle
 10
-225.072135
 20
-92.86893049999998
 30
0.0
 40
7.0000002
  0
CIRCLE
  5
176
330
1F
100
AcDbEntity
  8
0
 62
     7
100
AcDbCircle
 10
-136.572135
 20
-92.86893049999998
 30
0.0
 40
8.000000099999999
  0
CIRCLE
  5
177
330
1F
100
AcDbEntity
  8
0
 62
     7
100
AcDbCircle
 10
-136.572135
 20
-92.86893049999998
 30
0.0
 40
7.0000002
  0
ARC
  5
178
330
1F
100
AcDbEntity
  8
0
 62
     7
100
AcDbCircle
 10
-276.322185
 20
-34.09845050000001
 30
0.0
 40
3.0
100
AcDbArc
 50
179.9999800000002
 51
265.4443800000011
  0
ARC
  5
179
330
1F
100
AcDbEntity
  8
0
 62
     7
100
AcDbCircle
 10
-258.136875
 20
-43.57275049999998
 30
0.0
 40
5.0000001
100
AcDbArc
 50
14.9999699999998
 51
85.44439609999964
  0
ARC
  5
17A
330
1F
100
AcDbEntity
  8
0
 62
     7
100
AcDbCircle
 10
-238.594485
 20
-77.86893049999998
 30
0.0
 40
5.0000001
100
AcDbArc
 50
194.9999599999995
 51
269.9999599999993
  0
ARC
  5
17B
330
1F
100
AcDbEntity
  8
0
 62
     7
100
AcDbCircle
 10
-218.072175
 20
-85.86891049999997
 30
0.0
 40
3.0
100
AcDbArc
 50
359.9999500000004
 51
449.9999268000007
  0
ARC
  5
17C
330
1F
100
AcDbEntity
  8
0
 62
     7
100
AcDbCircle
 10
-210.072135
 20
-97.86891049999997
 30
0.0
 40
5.0000001
100
AcDbArc
 50
179.9999799999997
 51
269.9999599999994
  0
ARC
  5
17D
330
1F
100
AcDbEntity
  8
0
 62
     7
100
AcDbCircle
 10
-233.235495
 20
-97.86891049999997
 30
0.0
 40
5.0000001
100
AcDbArc
 50
194.9999499999999
 51
269.9999599999993
  0
ARC
  5
17E
330
1F
100
AcDbEntity
  8
0
 62
     7
100
AcDbCircle
 10
-151.572165
 20
-97.86891049999997
 30
0.0
 40
5.0000001
100
AcDbArc
 50
269.9999599999993
 51
359.9999499999998
  0
ARC
  5
17F
330
1F
100
AcDbEntity
  8
0
 62
     7
100
AcDbCircle
 10
-143.572185
 20
-85.86891049999997
 30
0.0
 40
3.0
100
AcDbArc
 50
89.99998179999966
 51
179.9999600000004
  0
ARC
  5
180
330
1F
100
AcDbEntity
  8
0
 62
     7
100
AcDbCircle
 10
-123.049845
 20
-77.86893049999998
 30
0.0
 40
5.0000001
100
AcDbArc
 50
269.9999599999993
 51
344.9999600000002
  0
ARC
  5
181
330
1F
100
AcDbEntity
  8
0
 62
     7
100
AcDbCircle
 10
-128.408775
 20
-97.86891049999997
 30
0.0
 40
5.0000001
100
AcDbArc
 50
269.9999599999993
 51
344.99993
  0
ARC
  5
182
330
1F
100
AcDbEntity
  8
0
 62
     7
100
AcDbCircle
 10
-107.9341050000001
 20
-60.0933905
 30
0.0
 40
5.0000001
100
AcDbArc
 50
94.22928990000067
 51
164.9999000000004
  0
ARC
  5
183
330
1F
100
AcDbEntity
  8
0
 62
     7
100
AcDbCircle
 10
-101.322165
 20
-51.58257049999997
 30
0.0
 40
3.0
100
AcDbArc
 50
274.229389999999
 51
359.9999500000004
  0
ARC
  5
184
330
1F
100
AcDbEntity
  8
0
 62
     7
100
AcDbCircle
 10
-276.322185
 20
185.3606095
 30
0.0
 40
3.0
100
AcDbArc
 50
94.55556130000031
 51
179.9999600000004
  0
ARC
  5
185
330
1F
100
AcDbEntity
  8
0
 62
     7
100
AcDbCircle
 10
-258.136875
 20
194.8349395
 30
0.0
 40
5.0000001
100
AcDbArc
 50
274.5555399999997
 51
344.9999700000004
  0
ARC
  5
186
330
1F
100
AcDbEntity
  8
0
 62
     7
100
AcDbCircle
 10
-233.235495
 20
249.1310995
 30
0.0
 40
5.0000001
100
AcDbArc
 50
89.99998179999959
 51
164.9999900000002
  0
ARC
  5
187
330
1F
100
AcDbEntity
  8
0
 62
     7
100
AcDbCircle
 10
-210.072135
 20
249.1310995
 30
0.0
 40
5.0000001
100
AcDbArc
 50
89.99998179999959
 51
179.9999599999995
  0
CIRCLE
  5
188
330
1F
100
AcDbEntity
  8
0
 62
     7
100
AcDbCircle
 10
-225.072135
 20
244.1311495
 30
0.0
 40
5.5000002
  0
ARC
  5
189
330
1F
100
AcDbEntity
  8
0
 62
     7
100
AcDbCircle
 10
-238.594485
 20
229.1311495
 30
0.0
 40
5.0000001
100
AcDbArc
 50
89.99998179999959
 51
164.9999800000005
  0
ARC
  5
18A
330
1F
100
AcDbEntity
  8
0
 62
     7
100
AcDbCircle
 10
-229.322175
 20
221.6311495
 30
0.0
 40
10.0000002
100
AcDbArc
 50
89.99998180000026
 51
179.9999600000001
  0
ARC
  5
18B
330
1F
100
AcDbEntity
  8
0
 62
     7
100
AcDbCircle
 10
-215.572155
 20
234.6310795000001
 30
0.0
 40
3.0
100
AcDbArc
 50
270.0000199999998
 51
360.0
  0
ARC
  5
18C
330
1F
100
AcDbEntity
  8
0
 62
     7
100
AcDbCircle
 10
-218.072175
 20
237.1310995
 30
0.0
 40
3.0
100
AcDbArc
 50
270.0000199999998
 51
360.0
  0
ARC
  5
18D
330
1F
100
AcDbEntity
  8
0
 62
     7
100
AcDbCircle
 10
-207.572175
 20
241.1311495
 30
0.0
 40
5.0000001
100
AcDbArc
 50
89.99998179999959
 51
179.9999599999995
  0
ARC
  5
18E
330
1F
100
AcDbEntity
  8
0
 62
     7
100
AcDbCircle
 10
-151.572165
 20
249.1310995
 30
0.0
 40
5.0000001
100
AcDbArc
 50
0.0
 51
89.99998179999959
  0
ARC
  5
18F
330
1F
100
AcDbEntity
  8
0
 62
     7
100
AcDbCircle
 10
-154.072185
 20
241.1311495
 30
0.0
 40
5.0000001
100
AcDbArc
 50
0.0
 51
89.99998179999959
  0
CIRCLE
  5
190
330
1F
100
AcDbEntity
  8
0
 62
     7
100
AcDbCircle
 10
-136.572165
 20
244.1311495
 30
0.0
 40
5.5000002
  0
ARC
  5
191
330
1F
100
AcDbEntity
  8
0
 62
     7
100
AcDbCircle
 10
-128.408775
 20
249.1310995
 30
0.0
 40
5.0000001
100
AcDbArc
 50
15.00001100000031
 51
89.99998179999959
  0
ARC
  5
192
330
1F
100
AcDbEntity
  8
0
 62
     7
100
AcDbCircle
 10
-143.572185
 20
237.1310995
 30
0.0
 40
3.0
100
AcDbArc
 50
179.9999600000004
 51
269.9999499999994
  0
ARC
  5
193
330
1F
100
AcDbEntity
  8
0
 62
     7
100
AcDbCircle
 10
-146.072175
 20
234.6310795000001
 30
0.0
 40
3.0
100
AcDbArc
 50
179.9999800000002
 51
270.0000199999999
  0
ARC
  5
194
330
1F
100
AcDbEntity
  8
0
 62
     7
100
AcDbCircle
 10
-127.3221149999999
 20
226.6310995
 30
0.0
 40
5.0000001
100
AcDbArc
 50
0.0
 51
89.99998179999959
  0
ARC
  5
195
330
1F
100
AcDbEntity
  8
0
 62
     7
100
AcDbCircle
 10
-123.049845
 20
229.1311495
 30
0.0
 40
5.0000001
100
AcDbArc
 50
14.99998299999969
 51
89.99998179999959
  0
ARC
  5
196
330
1F
100
AcDbEntity
  8
0
 62
     7
100
AcDbCircle
 10
-107.9341050000001
 20
211.3555195
 30
0.0
 40
5.0000001
100
AcDbArc
 50
195.0000299999996
 51
265.7706400000002
  0
ARC
  5
197
330
1F
100
AcDbEntity
  8
0
 62
     7
100
AcDbCircle
 10
-101.322165
 20
202.8447895000001
 30
0.0
 40
3.0
100
AcDbArc
 50
0.0
 51
85.7705581000004
  0
LINE
  5
198
330
1F
100
AcDbEntity
  8
0
  6
CENTER
 62
     7
100
AcDbLine
 10
-119.522175
 20
186.3810895
 30
0.0
 11
-119.522175
 21
96.38108950000003
 31
0.0
  0
LINE
  5
199
330
1F
100
AcDbEntity
  8
0
  6
CENTER
 62
     7
100
AcDbLine
 10
-250.222155
 20
186.3810895
 30
0.0
 11
-250.222155
 21
96.38108950000003
 31
0.0
  0
LINE
  5
19A
330
1F
100
AcDbEntity
  8
0
  6
CENTER
 62
     7
100
AcDbLine
 10
-304.872165
 20
75.6310795
 30
0.0
 11
-64.872165
 21
75.6310795
 31
0.0
  0
LINE
  5
19B
330
1F
100
AcDbEntity
  8
0
  6
CENTER
 62
     7
100
AcDbLine
 10
98.25283500000001
 20
75.6310795
 30
0.0
 11
478.252872
 21
75.6310795
 31
0.0
  0
LINE
  5
19C
330
1F
100
AcDbEntity
  8
0
  6
CENTER
 62
     7
100
AcDbLine
 10
288.252867
 20
265.6310995
 30
0.0
 11
288.252867
 21
-114.3689585
 31
0.0
  0
LINE
  5
19D
330
1F
100
AcDbEntity
  8
0
  6
CENTER
 62
     7
100
AcDbLine
 10
-485.425965
 20
108.6310795
 30
0.0
 11
-485.425965
 21
42.6310795
 31
0.0
  0
LINE
  5
19E
330
1F
100
AcDbEntity
  8
0
  6
CENTER
 62
     7
100
AcDbLine
 10
-518.4259649999999
 20
75.6310795
 30
0.0
 11
-452.425965
 21
75.6310795
 31
0.0
  0
CIRCLE
  5
19F
330
1F
100
AcDbEntity
  8
0
  6
CENTER
 62
     7
100
AcDbCircle
 10
288.252867
 20
75.6310795
 30
0.0
 40
133.859985
  0
LINE
  5
1A0
330
1F
100
AcDbEntity
  8
0
  6
DIVIDE
 62
     7
100
AcDbLine
 10
-112.322175
 20
180.6310795000001
 30
0.0
 11
-112.322175
 21
102.1310695
 31
0.0
  0
LINE
  5
1A1
330
1F
100
AcDbEntity
  8
0
  6
DIVIDE
 62
     7
100
AcDbLine
 10
-126.722175
 20
180.6310795000001
 30
0.0
 11
-126.722175
 21
102.1310695
 31
0.0
  0
LINE
  5
1A2
330
1F
100
AcDbEntity
  8
0
  6
DIVIDE
 62
     7
100
AcDbLine
 10
-257.4221250000001
 20
180.6310795000001
 30
0.0
 11
-257.4221250000001
 21
102.1310695
 31
0.0
  0
LINE
  5
1A3
330
1F
100
AcDbEntity
  8
0
  6
DIVIDE
 62
     7
100
AcDbLine
 10
-243.022155
 20
180.6310795000001
 30
0.0
 11
-243.022155
 21
102.1310695
 31
0.0
  0
LINE
  5
1A4
330
1F
100
AcDbEntity
  8
0
  6
DIVIDE
 62
     7
100
AcDbLine
 10
-111.522189
 20
180.6311125
 30
0.0
 11
-111.522189
 21
102.1310815
 31
0.0
  0
LINE
  5
1A5
330
1F
100
AcDbEntity
  8
0
  6
DIVIDE
 62
     7
100
AcDbLine
 10
-127.522188
 20
180.6311125
 30
0.0
 11
-127.522188
 21
102.1310815
 31
0.0
  0
LINE
  5
1A6
330
1F
100
AcDbEntity
  8
0
  6
DIVIDE
 62
     7
100
AcDbLine
 10
-242.222172
 20
180.6311125
 30
0.0
 11
-242.222172
 21
102.1310815
 31
0.0
  0
LINE
  5
1A7
330
1F
100
AcDbEntity
  8
0
  6
DIVIDE
 62
     7
100
AcDbLine
 10
-258.222204
 20
180.6311125
 30
0.0
 11
-258.222204
 21
102.1310815
 31
0.0
  0
TEXT
  5
1A9
330
1F
100
AcDbEntity
  8
0
 62
     7
100
AcDbText
 10
-23.08443782087568
 20
-170.3139475125
 30
0.0
 40
10.0
  1
ＴＳＵＢＡＫＩ
 41
0.6684682282186804
  7
FDASTYLE0
 72
     5
 11
44.6226473117232
 21
-170.3139475125
 31
0.0
100
AcDbText
  0
TEXT
  5
1AA
330
1F
100
AcDbEntity
  8
0
 62
     7
100
AcDbText
 10
-23.08443782087568
 20
-185.3139475125
 30
0.0
 40
10.0
  1
CR12022
 41
0.7756842423432264
  7
FDASTYLE0
 72
     5
 11
44.6226473117232
 21
-185.3139475125
 31
0.0
100
AcDbText
  0
VIEWPORT
  5
2B
330
1B
100
AcDbEntity
 67
     1
  8
0
100
AcDbViewport
 10
-20.08654649999994
 20
40.15857599374999
 30
0.0
 40
2990.036511
 41
1352.8351410375
 68
     1
 69
     1
1001
ACAD
1000
MVIEW
1002
{
1070
    16
1010
0.0
1020
0.0
1030
0.0
1010
0.0
1020
0.0
1030
1.0
1040
0.0
1040
1352.8351410375
1040
-20.08654649999994
1040
40.15857599374999
1040
50.0
1040
0.0
1040
0.0
1070
     0
1070
   100
1070
     0
1070
     1
1070
     0
1070
     0
1070
     0
1070
     0
1040
0.0
1040
0.0
1040
0.0
1040
0.5
1040
0.5
1040
0.0
1040
0.0
1070
     0
1002
{
1002
}
1002
}
  0
ENDSEC
  0
SECTION
  2
OBJECTS
  0
DICTIONARY
  5
C
330
0
100
AcDbDictionary
  3
ACAD_GROUP
350
D
  3
ACAD_LAYOUT
350
1A
  3
ACAD_MLINESTYLE
350
17
  3
ACAD_PLOTSETTINGS
350
19
  3
ACDBHEADERROUNDTRIPXREC
350
1AB
  0
DICTIONARY
  5
D
102
{ACAD_REACTORS
330
C
102
}
330
C
100
AcDbDictionary
  0
DICTIONARY
  5
1A
102
{ACAD_REACTORS
330
C
102
}
330
C
100
AcDbDictionary
  0
DICTIONARY
  5
17
102
{ACAD_REACTORS
330
C
102
}
330
C
100
AcDbDictionary
  3
STANDARD
350
18
  0
DICTIONARY
  5
19
102
{ACAD_REACTORS
330
C
102
}
330
C
100
AcDbDictionary
  0
DICTIONARY
  5
1AB
102
{ACAD_REACTORS
330
C
102
}
330
C
100
AcDbDictionary
  3
CEPSNTYPE
350
1B4
  3
DIMSTYLEDATA
350
1CA
  3
FINGERPRINTGUID
350
1B5
  3
HYPERLINKBASE
350
1AE
  3
INSUNITS
350
1B3
  3
LAYOUTDICT
350
1B0
  3
LWETCUNION
350
1B2
  3
PLOTSETDICT
350
1B1
  3
PSVPSCALE
350
1B7
  3
PUCSBASE
350
1BA
  3
PUCSORGBACK
350
1C0
  3
PUCSORGBOTTOM
350
1BC
  3
PUCSORGFRONT
350
1BF
  3
PUCSORGLEFT
350
1BD
  3
PUCSORGRIGHT
350
1BE
  3
PUCSORGTOP
350
1BB
  3
PUCSORTHOREF
350
1B8
  3
PUCSORTHOVIEW
350
1B9
  3
STYLESHEET
350
1AF
  3
TSTACKALIGN
350
1AC
  3
TSTACKSIZE
350
1AD
  3
UCSBASE
350
1C3
  3
UCSORGBACK
350
1C9
  3
UCSORGBOTTOM
350
1C5
  3
UCSORGFRONT
350
1C8
  3
UCSORGLEFT
350
1C6
  3
UCSORGRIGHT
350
1C7
  3
UCSORGTOP
350
1C4
  3
UCSORTHOREF
350
1C1
  3
UCSORTHOVIEW
350
1C2
  3
VERSIONGUID
350
1B6
  0
MLINESTYLE
  5
18
102
{ACAD_REACTORS
330
17
102
}
330
17
100
AcDbMlineStyle
  2
Standard
 70
     0
  3

 62
   256
 51
90.0
 52
90.0
 71
     2
 49
0.5
 62
   256
  6
BYLAYER
 49
-0.5
 62
   256
  6
BYLAYER
  0
XRECORD
  5
1B4
102
{ACAD_REACTORS
330
1AB
102
}
330
1AB
100
AcDbXrecord
 90
        0
  0
XRECORD
  5
1CA
102
{ACAD_REACTORS
330
1AB
102
}
330
1AB
100
AcDbXrecord
1000
DSTYLE
1002
{
1070
   171
 70
     2
1070
   143
 40
25.4
1070
   274
 70
     2
1070
   141
 40
0.09
1070
   271
 70
     4
1070
    43
 40
0.38
1070
    44
 40
0.18
1070
   278
 70
    46
1070
    42
 40
0.0625
1070
   147
 40
0.09
1070
    77
 70
     3
1070
   272
 70
     4
1070
    73
 70
     1
1070
   172
 70
     0
1070
    74
 70
     1
1070
   283
 70
     1
1070
   340
340
11
1070
   140
 40
0.18
1070
   284
 70
     0
1070
    78
 70
     0
1002
}
  0
XRECORD
  5
1B5
102
{ACAD_REACTORS
330
1AB
102
}
330
1AB
100
AcDbXrecord
  1
{E87A14A3-4547-4969-B981-260C4C5DC935}
  0
XRECORD
  5
1AE
102
{ACAD_REACTORS
330
1AB
102
}
330
1AB
100
AcDbXrecord
  1

  0
XRECORD
  5
1B3
102
{ACAD_REACTORS
330
1AB
102
}
330
1AB
100
AcDbXrecord
 90
        4
  0
XRECORD
  5
1B0
102
{ACAD_REACTORS
330
1AB
102
}
330
1AB
100
AcDbXrecord
340
1A
  0
XRECORD
  5
1B2
102
{ACAD_REACTORS
330
1AB
102
}
330
1AB
100
AcDbXrecord
 90
    10781
  0
XRECORD
  5
1B1
102
{ACAD_REACTORS
330
1AB
102
}
330
1AB
100
AcDbXrecord
340
19
  0
XRECORD
  5
1B7
102
{ACAD_REACTORS
330
1AB
102
}
330
1AB
100
AcDbXrecord
 40
0.0
  0
XRECORD
  5
1BA
102
{ACAD_REACTORS
330
1AB
102
}
330
1AB
100
AcDbXrecord
340
0
  0
XRECORD
  5
1C0
102
{ACAD_REACTORS
330
1AB
102
}
330
1AB
100
AcDbXrecord
 10
0.0
 20
0.0
 30
0.0
  0
XRECORD
  5
1BC
102
{ACAD_REACTORS
330
1AB
102
}
330
1AB
100
AcDbXrecord
 10
0.0
 20
0.0
 30
0.0
  0
XRECORD
  5
1BF
102
{ACAD_REACTORS
330
1AB
102
}
330
1AB
100
AcDbXrecord
 10
0.0
 20
0.0
 30
0.0
  0
XRECORD
  5
1BD
102
{ACAD_REACTORS
330
1AB
102
}
330
1AB
100
AcDbXrecord
 10
0.0
 20
0.0
 30
0.0
  0
XRECORD
  5
1BE
102
{ACAD_REACTORS
330
1AB
102
}
330
1AB
100
AcDbXrecord
 10
0.0
 20
0.0
 30
0.0
  0
XRECORD
  5
1BB
102
{ACAD_REACTORS
330
1AB
102
}
330
1AB
100
AcDbXrecord
 10
0.0
 20
0.0
 30
0.0
  0
XRECORD
  5
1B8
102
{ACAD_REACTORS
330
1AB
102
}
330
1AB
100
AcDbXrecord
340
0
  0
XRECORD
  5
1B9
102
{ACAD_REACTORS
330
1AB
102
}
330
1AB
100
AcDbXrecord
 70
     0
  0
XRECORD
  5
1AF
102
{ACAD_REACTORS
330
1AB
102
}
330
1AB
100
AcDbXrecord
  1

  0
XRECORD
  5
1AC
102
{ACAD_REACTORS
330
1AB
102
}
330
1AB
100
AcDbXrecord
 90
        1
  0
XRECORD
  5
1AD
102
{ACAD_REACTORS
330
1AB
102
}
330
1AB
100
AcDbXrecord
 90
       70
  0
XRECORD
  5
1C3
102
{ACAD_REACTORS
330
1AB
102
}
330
1AB
100
AcDbXrecord
340
0
  0
XRECORD
  5
1C9
102
{ACAD_REACTORS
330
1AB
102
}
330
1AB
100
AcDbXrecord
 10
0.0
 20
0.0
 30
0.0
  0
XRECORD
  5
1C5
102
{ACAD_REACTORS
330
1AB
102
}
330
1AB
100
AcDbXrecord
 10
0.0
 20
0.0
 30
0.0
  0
XRECORD
  5
1C8
102
{ACAD_REACTORS
330
1AB
102
}
330
1AB
100
AcDbXrecord
 10
0.0
 20
0.0
 30
0.0
  0
XRECORD
  5
1C6
102
{ACAD_REACTORS
330
1AB
102
}
330
1AB
100
AcDbXrecord
 10
0.0
 20
0.0
 30
0.0
  0
XRECORD
  5
1C7
102
{ACAD_REACTORS
330
1AB
102
}
330
1AB
100
AcDbXrecord
 10
0.0
 20
0.0
 30
0.0
  0
XRECORD
  5
1C4
102
{ACAD_REACTORS
330
1AB
102
}
330
1AB
100
AcDbXrecord
 10
0.0
 20
0.0
 30
0.0
  0
XRECORD
  5
1C1
102
{ACAD_REACTORS
330
1AB
102
}
330
1AB
100
AcDbXrecord
340
0
  0
XRECORD
  5
1C2
102
{ACAD_REACTORS
330
1AB
102
}
330
1AB
100
AcDbXrecord
 70
     0
  0
XRECORD
  5
1B6
102
{ACAD_REACTORS
330
1AB
102
}
330
1AB
100
AcDbXrecord
  1
{FAEB1C32-E019-11D5-929B-00C0DF256EC4}
  0
ENDSEC
  0
EOF
