  0
SECTION
  2
HEADER
  9
$ACADVER
  1
AC1014
  9
$ACADMAINTVER
 70
     9
  9
$DWGCODEPAGE
  3
ANSI_932
  9
$INSBASE
 10
0.0
 20
0.0
 30
0.0
  9
$EXTMIN
 10
-1269.0595275
 20
-345.161628025
 30
0.0
  9
$EXTMAX
 10
772.4333055000001
 20
538.4885580125
 30
0.0
  9
$LIMMIN
 10
-598.2580255
 20
-408.829283
  9
$LIMMAX
 10
598.2580255
 20
408.829283
  9
$ORTHOMODE
 70
     0
  9
$REGENMODE
 70
     1
  9
$FILLMODE
 70
     1
  9
$QTEXTMODE
 70
     0
  9
$MIRRTEXT
 70
     1
  9
$DRAGMODE
 70
     2
  9
$LTSCALE
 40
1.0
  9
$OSMODE
 70
    37
  9
$ATTMODE
 70
     1
  9
$TEXTSIZE
 40
0.2
  9
$TRACEWID
 40
0.05
  9
$TEXTSTYLE
  7
STANDARD
  9
$CLAYER
  8
0
  9
$CELTYPE
  6
BYLAYER
  9
$CECOLOR
 62
   256
  9
$CELTSCALE
 40
1.0
  9
$DELOBJ
 70
     1
  9
$DISPSILH
 70
     0
  9
$DIMSCALE
 40
1.0
  9
$DIMASZ
 40
2.5
  9
$DIMEXO
 40
0.0625
  9
$DIMDLI
 40
0.38
  9
$DIMRND
 40
0.0
  9
$DIMDLE
 40
0.0
  9
$DIMEXE
 40
0.18
  9
$DIMTP
 40
0.0
  9
$DIMTM
 40
0.0
  9
$DIMTXT
 40
0.18
  9
$DIMCEN
 40
0.09
  9
$DIMTSZ
 40
0.0
  9
$DIMTOL
 70
     0
  9
$DIMLIM
 70
     0
  9
$DIMTIH
 70
     1
  9
$DIMTOH
 70
     1
  9
$DIMSE1
 70
     0
  9
$DIMSE2
 70
     0
  9
$DIMTAD
 70
     3
  9
$DIMZIN
 70
     0
  9
$DIMBLK
  1

  9
$DIMASO
 70
     1
  9
$DIMSHO
 70
     1
  9
$DIMPOST
  1

  9
$DIMAPOST
  1

  9
$DIMALT
 70
     0
  9
$DIMALTD
 70
     2
  9
$DIMALTF
 40
25.4
  9
$DIMLFAC
 40
1.0
  9
$DIMTOFL
 70
     0
  9
$DIMTVP
 40
0.0
  9
$DIMTIX
 70
     0
  9
$DIMSOXD
 70
     0
  9
$DIMSAH
 70
     0
  9
$DIMBLK1
  1

  9
$DIMBLK2
  1

  9
$DIMSTYLE
  2
STANDARD
  9
$DIMCLRD
 70
     0
  9
$DIMCLRE
 70
     0
  9
$DIMCLRT
 70
     0
  9
$DIMTFAC
 40
1.0
  9
$DIMGAP
 40
0.09
  9
$DIMJUST
 70
     0
  9
$DIMSD1
 70
     0
  9
$DIMSD2
 70
     0
  9
$DIMTOLJ
 70
     1
  9
$DIMTZIN
 70
     0
  9
$DIMALTZ
 70
     0
  9
$DIMALTTZ
 70
     0
  9
$DIMFIT
 70
     3
  9
$DIMUPT
 70
     0
  9
$DIMUNIT
 70
     2
  9
$DIMDEC
 70
     4
  9
$DIMTDEC
 70
     4
  9
$DIMALTU
 70
     2
  9
$DIMALTTD
 70
     2
  9
$DIMTXSTY
  7
STANDARD
  9
$DIMAUNIT
 70
     0
  9
$LUNITS
 70
     2
  9
$LUPREC
 70
     4
  9
$SKETCHINC
 40
0.1
  9
$FILLETRAD
 40
0.5
  9
$AUNITS
 70
     0
  9
$AUPREC
 70
     0
  9
$MENU
  1
.
  9
$ELEVATION
 40
0.0
  9
$PELEVATION
 40
0.0
  9
$THICKNESS
 40
0.0
  9
$LIMCHECK
 70
     0
  9
$CHAMFERA
 40
0.5
  9
$CHAMFERB
 40
0.5
  9
$CHAMFERC
 40
1.0
  9
$CHAMFERD
 40
0.0
  9
$SKPOLY
 70
     0
  9
$TDCREATE
 40
2454068.631617049
  9
$TDUPDATE
 40
2454068.63161706
  9
$TDINDWG
 40
0.0000000116
  9
$TDUSRTIMER
 40
0.0000000116
  9
$USRTIMER
 70
     1
  9
$ANGBASE
 50
0.0
  9
$ANGDIR
 70
     0
  9
$PDMODE
 70
     0
  9
$PDSIZE
 40
1.0
  9
$PLINEWID
 40
0.0
  9
$COORDS
 70
     1
  9
$SPLFRAME
 70
     0
  9
$SPLINETYPE
 70
     6
  9
$SPLINESEGS
 70
     8
  9
$ATTDIA
 70
     0
  9
$ATTREQ
 70
     1
  9
$HANDLING
 70
     1
  9
$HANDSEED
  5
1B7
  9
$SURFTAB1
 70
     6
  9
$SURFTAB2
 70
     6
  9
$SURFTYPE
 70
     6
  9
$SURFU
 70
     6
  9
$SURFV
 70
     6
  9
$UCSNAME
  2

  9
$UCSORG
 10
0.0
 20
0.0
 30
0.0
  9
$UCSXDIR
 10
1.0
 20
0.0
 30
0.0
  9
$UCSYDIR
 10
0.0
 20
1.0
 30
0.0
  9
$PUCSNAME
  2

  9
$PUCSORG
 10
0.0
 20
0.0
 30
0.0
  9
$PUCSXDIR
 10
1.0
 20
0.0
 30
0.0
  9
$PUCSYDIR
 10
0.0
 20
1.0
 30
0.0
  9
$USERI1
 70
     0
  9
$USERI2
 70
     0
  9
$USERI3
 70
     0
  9
$USERI4
 70
     0
  9
$USERI5
 70
     0
  9
$USERR1
 40
0.0
  9
$USERR2
 40
0.0
  9
$USERR3
 40
0.0
  9
$USERR4
 40
0.0
  9
$USERR5
 40
0.0
  9
$WORLDVIEW
 70
     1
  9
$SHADEDGE
 70
     3
  9
$SHADEDIF
 70
    70
  9
$TILEMODE
 70
     1
  9
$MAXACTVP
 70
    64
  9
$PINSBASE
 10
0.0
 20
0.0
 30
0.0
  9
$PLIMCHECK
 70
     0
  9
$PEXTMIN
 10
1.000000000000000E+20
 20
1.000000000000000E+20
 30
1.000000000000000E+20
  9
$PEXTMAX
 10
-1.000000000000000E+20
 20
-1.000000000000000E+20
 30
-1.000000000000000E+20
  9
$PLIMMIN
 10
0.0
 20
0.0
  9
$PLIMMAX
 10
12.0
 20
9.0
  9
$UNITMODE
 70
     0
  9
$VISRETAIN
 70
     0
  9
$PLINEGEN
 70
     1
  9
$PSLTSCALE
 70
     0
  9
$TREEDEPTH
 70
  3020
  9
$PICKSTYLE
 70
     1
  9
$CMLSTYLE
  2
STANDARD
  9
$CMLJUST
 70
     0
  9
$CMLSCALE
 40
1.0
  9
$PROXYGRAPHICS
 70
     0
  9
$MEASUREMENT
 70
     1
  0
ENDSEC
  0
SECTION
  2
CLASSES
  0
CLASS
  1
ACDBDICTIONARYWDFLT
  2
AcDbDictionaryWithDefault
  3
ObjectDBX Classes
 90
        0
280
     0
281
     0
  0
CLASS
  1
XRECORD
  2
AcDbXrecord
  3
AutoCAD 2000
 90
        0
280
     0
281
     0
  0
CLASS
  1
LWPOLYLINE
  2
AcDbPolyline
  3
AutoCAD 2000
 90
        0
280
     0
281
     1
  0
CLASS
  1
HATCH
  2
AcDbHatch
  3
AutoCAD 2000
 90
        0
280
     0
281
     1
  0
CLASS
  1
ACDBPLACEHOLDER
  2
AcDbPlaceHolder
  3
ObjectDBX Classes
 90
        0
280
     0
281
     0
  0
CLASS
  1
LAYOUT
  2
AcDbLayout
  3
ObjectDBX Classes
 90
        0
280
     0
281
     0
  0
ENDSEC
  0
SECTION
  2
TABLES
  0
TABLE
  2
VPORT
  5
8
330
0
100
AcDbSymbolTable
 70
     1
  0
VPORT
  5
29
330
8
100
AcDbSymbolTableRecord
100
AcDbViewportTableRecord
  2
*ACTIVE
 70
     0
 10
0.0
 20
0.0
 11
1.0
 21
1.0
 12
0.0
 22
0.0
 13
0.0
 23
0.0
 14
0.5
 24
0.5
 15
0.5
 25
0.5
 16
0.0
 26
0.0
 36
1.0
 17
-248.3131109999999
 27
96.66346499374998
 37
0.0
 40
300.44106325275
 41
2.310295256264863
 42
50.0
 43
0.0
 44
0.0
 50
0.0
 51
0.0
 71
     0
 72
  1000
 73
     1
 74
     1
 75
     0
 76
     0
 77
     0
 78
     0
  0
ENDTAB
  0
TABLE
  2
LTYPE
  5
5
330
0
100
AcDbSymbolTable
 70
    28
  0
LTYPE
  5
14
330
5
100
AcDbSymbolTableRecord
100
AcDbLinetypeTableRecord
  2
BYBLOCK
 70
     0
  3

 72
    65
 73
     0
 40
0.0
  0
LTYPE
  5
15
330
5
100
AcDbSymbolTableRecord
100
AcDbLinetypeTableRecord
  2
BYLAYER
 70
     0
  3

 72
    65
 73
     0
 40
0.0
  0
LTYPE
  5
16
330
5
100
AcDbSymbolTableRecord
100
AcDbLinetypeTableRecord
  2
CONTINUOUS
 70
     0
  3
Solid line
 72
    65
 73
     0
 40
0.0
  0
LTYPE
  5
2C
330
5
100
AcDbSymbolTableRecord
100
AcDbLinetypeTableRecord
  2
HIDDENX2
 70
     0
  3
CADPAC LINETYPE
 72
    65
 73
     2
 40
21.9745831221303
 49
16.48093734159772
 74
     0
 49
-5.493645780532575
 74
     0
  0
LTYPE
  5
2D
330
5
100
AcDbSymbolTableRecord
100
AcDbLinetypeTableRecord
  2
HIDDEN
 70
     0
  3
CADPAC LINETYPE
 72
    65
 73
     2
 40
16.48093734159772
 49
10.98729156106515
 74
     0
 49
-5.493645780532575
 74
     0
  0
LTYPE
  5
2E
330
5
100
AcDbSymbolTableRecord
100
AcDbLinetypeTableRecord
  2
HIDDEN2
 70
     0
  3
CADPAC LINETYPE
 72
    65
 73
     2
 40
13.73411445133144
 49
8.240468670798862
 74
     0
 49
-5.493645780532575
 74
     0
  0
LTYPE
  5
2F
330
5
100
AcDbSymbolTableRecord
100
AcDbLinetypeTableRecord
  2
DASHED
 70
     0
  3
CADPAC LINETYPE
 72
    65
 73
     2
 40
13.18474987327818
 49
6.592374936639089
 74
     0
 49
-6.592374936639089
 74
     0
  0
LTYPE
  5
30
330
5
100
AcDbSymbolTableRecord
100
AcDbLinetypeTableRecord
  2
DASHED2
 70
     0
  3
CADPAC LINETYPE
 72
    65
 73
     2
 40
7.691104092745491
 49
6.592374936639089
 74
     0
 49
-1.098729156106401
 74
     0
  0
LTYPE
  5
31
330
5
100
AcDbSymbolTableRecord
100
AcDbLinetypeTableRecord
  2
DASHEDX2
 70
     0
  3
CADPAC LINETYPE
 72
    65
 73
     2
 40
7.691104092745491
 49
6.592374936639089
 74
     0
 49
-1.098729156106401
 74
     0
  0
LTYPE
  5
32
330
5
100
AcDbSymbolTableRecord
100
AcDbLinetypeTableRecord
  2
DOTX2
 70
     0
  3
CADPAC LINETYPE
 72
    65
 73
     2
 40
1.373411445133002
 49
0.0
 74
     0
 49
-1.373411445133002
 74
     0
  0
LTYPE
  5
33
330
5
100
AcDbSymbolTableRecord
100
AcDbLinetypeTableRecord
  2
DOT
 70
     0
  3
CADPAC LINETYPE
 72
    65
 73
     2
 40
1.098729156106401
 49
0.0
 74
     0
 49
-1.098729156106401
 74
     0
  0
LTYPE
  5
34
330
5
100
AcDbSymbolTableRecord
100
AcDbLinetypeTableRecord
  2
DOT2
 70
     0
  3
CADPAC LINETYPE
 72
    65
 73
     2
 40
0.8240468670798009
 49
0.0
 74
     0
 49
-0.8240468670798009
 74
     0
  0
LTYPE
  5
35
330
5
100
AcDbSymbolTableRecord
100
AcDbLinetypeTableRecord
  2
CENTERX2
 70
     0
  3
CADPAC LINETYPE
 72
    65
 73
     4
 40
32.96187468319545
 49
13.73411445133144
 74
     0
 49
-6.867057225665718
 74
     0
 49
5.493645780532575
 74
     0
 49
-6.867057225665718
 74
     0
  0
LTYPE
  5
36
330
5
100
AcDbSymbolTableRecord
100
AcDbLinetypeTableRecord
  2
CENTER
 70
     0
  3
CADPAC LINETYPE
 72
    65
 73
     4
 40
25.27077059044984
 49
10.98729156106515
 74
     0
 49
-5.493645780532575
 74
     0
 49
3.296187468319545
 74
     0
 49
-5.493645780532575
 74
     0
  0
LTYPE
  5
37
330
5
100
AcDbSymbolTableRecord
100
AcDbLinetypeTableRecord
  2
CENTER2
 70
     0
  3
CADPAC LINETYPE
 72
    65
 73
     4
 40
17.57966649770424
 49
8.240468670798862
 74
     0
 49
-4.120234335399431
 74
     0
 49
1.098729156106515
 74
     0
 49
-4.120234335399431
 74
     0
  0
LTYPE
  5
38
330
5
100
AcDbSymbolTableRecord
100
AcDbLinetypeTableRecord
  2
DASHDOTX2
 70
     0
  3
CADPAC LINETYPE
 72
    65
 73
     4
 40
15.38220818549098
 49
13.18474987327818
 74
     0
 49
-1.098729156106401
 74
     0
 49
0.0
 74
     0
 49
-1.098729156106401
 74
     0
  0
LTYPE
  5
39
330
5
100
AcDbSymbolTableRecord
100
AcDbLinetypeTableRecord
  2
DASHDOT
 70
     0
  3
CADPAC LINETYPE
 72
    65
 73
     4
 40
18.67839565381053
 49
13.18474987327818
 74
     0
 49
-1.098729156106401
 74
     0
 49
3.296187468319545
 74
     0
 49
-1.098729156106401
 74
     0
  0
LTYPE
  5
3A
330
5
100
AcDbSymbolTableRecord
100
AcDbLinetypeTableRecord
  2
DASHDOT2
 70
     0
  3
CADPAC LINETYPE
 72
    65
 73
     4
 40
11.86627488595019
 49
9.888562404958634
 74
     0
 49
-0.8240468670798009
 74
     0
 49
0.3296187468319545
 74
     0
 49
-0.8240468670798009
 74
     0
  0
LTYPE
  5
3B
330
5
100
AcDbSymbolTableRecord
100
AcDbLinetypeTableRecord
  2
DIVIDEX2
 70
     0
  3
CADPAC LINETYPE
 72
    65
 73
     6
 40
16.48093734159738
 49
13.18474987327818
 74
     0
 49
-1.098729156106401
 74
     0
 49
0.0
 74
     0
 49
-1.098729156106401
 74
     0
 49
0.0
 74
     0
 49
-1.098729156106401
 74
     0
  0
LTYPE
  5
3C
330
5
100
AcDbSymbolTableRecord
100
AcDbLinetypeTableRecord
  2
DIVIDE
 70
     0
  3
CADPAC LINETYPE
 72
    65
 73
     6
 40
23.07331227823647
 49
13.18474987327818
 74
     0
 49
-1.098729156106401
 74
     0
 49
3.296187468319545
 74
     0
 49
-1.098729156106401
 74
     0
 49
3.296187468319545
 74
     0
 49
-1.098729156106401
 74
     0
  0
LTYPE
  5
3D
330
5
100
AcDbSymbolTableRecord
100
AcDbLinetypeTableRecord
  2
DIVIDE2
 70
     0
  3
CADPAC LINETYPE
 72
    65
 73
     6
 40
17.30498420867735
 49
9.888562404958634
 74
     0
 49
-0.8240468670798009
 74
     0
 49
2.472140601239659
 74
     0
 49
-0.8240468670798009
 74
     0
 49
2.472140601239659
 74
     0
 49
-0.8240468670798009
 74
     0
  0
LTYPE
  5
3E
330
5
100
AcDbSymbolTableRecord
100
AcDbLinetypeTableRecord
  2
BORDERX2
 70
     0
  3
CADPAC LINETYPE
 72
    65
 73
     6
 40
48.06940057966003
 49
13.73411445133144
 74
     0
 49
-6.867057225665718
 74
     0
 49
13.73411445133144
 74
     0
 49
-6.867057225665718
 74
     0
 49
0.0
 74
     0
 49
-6.867057225665718
 74
     0
  0
LTYPE
  5
3F
330
5
100
AcDbSymbolTableRecord
100
AcDbLinetypeTableRecord
  2
BORDER
 70
     0
  3
CADPAC LINETYPE
 72
    65
 73
     6
 40
38.45552046372802
 49
10.98729156106515
 74
     0
 49
-5.493645780532575
 74
     0
 49
10.98729156106515
 74
     0
 49
-5.493645780532575
 74
     0
 49
0.0
 74
     0
 49
-5.493645780532575
 74
     0
  0
LTYPE
  5
40
330
5
100
AcDbSymbolTableRecord
100
AcDbLinetypeTableRecord
  2
BORDER2
 70
     0
  3
CADPAC LINETYPE
 72
    65
 73
     6
 40
14.28347902938447
 49
6.592374936639089
 74
     0
 49
-1.098729156106401
 74
     0
 49
0.0
 74
     0
 49
-1.098729156106401
 74
     0
 49
0.0
 74
     0
 49
-5.493645780532575
 74
     0
  0
LTYPE
  5
41
330
5
100
AcDbSymbolTableRecord
100
AcDbLinetypeTableRecord
  2
PHANTOMX2
 70
     0
  3
CADPAC LINETYPE
 72
    65
 73
     6
 40
41.20234335399431
 49
13.73411445133144
 74
     0
 49
-5.493645780532575
 74
     0
 49
5.493645780532575
 74
     0
 49
-5.493645780532575
 74
     0
 49
5.493645780532575
 74
     0
 49
-5.493645780532575
 74
     0
  0
LTYPE
  5
42
330
5
100
AcDbSymbolTableRecord
100
AcDbLinetypeTableRecord
  2
PHANTOM
 70
     0
  3
CADPAC LINETYPE
 72
    65
 73
     6
 40
34.06060383930196
 49
10.98729156106515
 74
     0
 49
-5.493645780532575
 74
     0
 49
3.296187468319545
 74
     0
 49
-5.493645780532575
 74
     0
 49
3.296187468319545
 74
     0
 49
-5.493645780532575
 74
     0
  0
LTYPE
  5
43
330
5
100
AcDbSymbolTableRecord
100
AcDbLinetypeTableRecord
  2
PHANTOM2
 70
     0
  3
CADPAC LINETYPE
 72
    65
 73
     6
 40
29.11632263682265
 49
8.240468670798862
 74
     0
 49
-5.493645780532575
 74
     0
 49
2.19745831221303
 74
     0
 49
-5.493645780532575
 74
     0
 49
2.19745831221303
 74
     0
 49
-5.493645780532575
 74
     0
  0
LTYPE
  5
44
330
5
100
AcDbSymbolTableRecord
100
AcDbLinetypeTableRecord
  2
ACAD_ISO06W100
 70
     0
  3
CADPAC LINETYPE
 72
    65
 73
     8
 40
17.57966649770378
 49
13.18474987327818
 74
     0
 49
-1.098729156106401
 74
     0
 49
0.0
 74
     0
 49
-1.098729156106401
 74
     0
 49
0.0
 74
     0
 49
-1.098729156106401
 74
     0
 49
0.0
 74
     0
 49
-1.098729156106401
 74
     0
  0
LTYPE
  5
45
330
5
100
AcDbSymbolTableRecord
100
AcDbLinetypeTableRecord
  2
ACAD_ISO13W100
 70
     0
  3
CADPAC LINETYPE
 72
    65
 73
     8
 40
43.9491662442606
 49
10.98729156106515
 74
     0
 49
-5.493645780532575
 74
     0
 49
10.98729156106515
 74
     0
 49
-5.493645780532575
 74
     0
 49
0.0
 74
     0
 49
-5.493645780532575
 74
     0
 49
0.0
 74
     0
 49
-5.493645780532575
 74
     0
  0
LTYPE
  5
46
330
5
100
AcDbSymbolTableRecord
100
AcDbLinetypeTableRecord
  2
ACAD_ISO14W100
 70
     0
  3
CADPAC LINETYPE
 72
    65
 73
     8
 40
32.96187468319545
 49
10.98729156106515
 74
     0
 49
-5.493645780532575
 74
     0
 49
0.0
 74
     0
 49
-5.493645780532575
 74
     0
 49
0.0
 74
     0
 49
-5.493645780532575
 74
     0
 49
0.0
 74
     0
 49
-5.493645780532575
 74
     0
  0
ENDTAB
  0
TABLE
  2
LAYER
  5
2
330
0
100
AcDbSymbolTable
 70
     1
  0
LAYER
  5
10
330
2
100
AcDbSymbolTableRecord
100
AcDbLayerTableRecord
  2
0
 70
     0
 62
     7
  6
CONTINUOUS
  0
ENDTAB
  0
TABLE
  2
STYLE
  5
3
330
0
100
AcDbSymbolTable
 70
     2
  0
STYLE
  5
11
330
3
100
AcDbSymbolTableRecord
100
AcDbTextStyleTableRecord
  2
STANDARD
 70
     0
 40
0.0
 41
1.0
 50
0.0
 71
     0
 42
0.2
  3
txt
  4

  0
STYLE
  5
194
330
3
100
AcDbSymbolTableRecord
100
AcDbTextStyleTableRecord
  2
FDASTYLE0
 70
     0
 40
15.0
 41
0.6684682360819537
 50
0.0
 71
     0
 42
0.2
  3
txt.shx
  4
bigfont
  0
ENDTAB
  0
TABLE
  2
VIEW
  5
6
330
0
100
AcDbSymbolTable
 70
     0
  0
ENDTAB
  0
TABLE
  2
UCS
  5
7
330
0
100
AcDbSymbolTable
 70
     0
  0
ENDTAB
  0
TABLE
  2
APPID
  5
9
330
0
100
AcDbSymbolTable
 70
     2
  0
APPID
  5
12
330
9
100
AcDbSymbolTableRecord
100
AcDbRegAppTableRecord
  2
ACAD
 70
     0
  0
APPID
  5
2A
330
9
100
AcDbSymbolTableRecord
100
AcDbRegAppTableRecord
  2
DAFUSIONOUT
 70
     0
  0
ENDTAB
  0
TABLE
  2
DIMSTYLE
  5
A
330
0
100
AcDbSymbolTable
 70
     1
  0
DIMSTYLE
105
27
330
A
100
AcDbSymbolTableRecord
100
AcDbDimStyleTableRecord
  2
STANDARD
 70
     0
  3

  4

  5

  6

  7

 40
1.0
 41
0.18
 42
0.0625
 43
0.38
 44
0.18
 45
0.0
 46
0.0
 47
0.0
 48
0.0
140
0.18
141
0.09
142
0.0
143
25.4
144
1.0
145
0.0
146
1.0
147
0.09
 71
     0
 72
     0
 73
     1
 74
     1
 75
     0
 76
     0
 77
     0
 78
     0
170
     0
171
     2
172
     0
173
     0
174
     0
175
     0
176
     0
177
     0
178
     0
270
     2
271
     4
272
     4
273
     2
274
     2
340
11
275
     0
280
     0
281
     0
282
     0
283
     1
284
     0
285
     0
286
     0
287
     3
288
     0
  0
ENDTAB
  0
TABLE
  2
BLOCK_RECORD
  5
1
330
0
100
AcDbSymbolTable
 70
     1
  0
BLOCK_RECORD
  5
1F
330
1
100
AcDbSymbolTableRecord
100
AcDbBlockTableRecord
  2
*MODEL_SPACE
  0
BLOCK_RECORD
  5
1B
330
1
100
AcDbSymbolTableRecord
100
AcDbBlockTableRecord
  2
*PAPER_SPACE
  0
ENDTAB
  0
ENDSEC
  0
SECTION
  2
BLOCKS
  0
BLOCK
  5
20
330
1F
100
AcDbEntity
  8
0
100
AcDbBlockBegin
  2
*MODEL_SPACE
 70
     0
 71
     0
 10
0.0
 20
0.0
 30
0.0
  3
*MODEL_SPACE
  1

  0
ENDBLK
  5
21
330
1F
100
AcDbEntity
  8
0
100
AcDbBlockEnd
  0
BLOCK
  5
1C
330
1B
100
AcDbEntity
 67
     1
  8
0
100
AcDbBlockBegin
  2
*PAPER_SPACE
 70
     0
 71
     0
 10
0.0
 20
0.0
 30
0.0
  3
*PAPER_SPACE
  1

  0
ENDBLK
  5
1D
330
1B
100
AcDbEntity
 67
     1
  8
0
100
AcDbBlockEnd
  0
ENDSEC
  0
SECTION
  2
ENTITIES
  0
LINE
  5
47
330
1F
100
AcDbEntity
  8
0
  6
DASHED
 62
     7
100
AcDbLine
 10
-353.2055164999999
 20
211.438496
 30
0.0
 11
-353.2055164999999
 21
200.8934959999999
 31
0.0
  0
LINE
  5
48
330
1F
100
AcDbEntity
  8
0
  6
DASHED
 62
     7
100
AcDbLine
 10
-336.2055164999999
 20
211.438496
 30
0.0
 11
-336.2055164999999
 21
200.8934959999999
 31
0.0
  0
LINE
  5
49
330
1F
100
AcDbEntity
  8
0
  6
DASHED
 62
     7
100
AcDbLine
 10
-349.7055164999999
 20
214.938496
 30
0.0
 11
-339.7055164999999
 21
214.938496
 31
0.0
  0
LINE
  5
4A
330
1F
100
AcDbEntity
  8
0
  6
DASHED
 62
     7
100
AcDbLine
 10
-353.2054565
 20
211.438456
 30
0.0
 11
-349.7054765
 21
214.938456
 31
0.0
  0
LINE
  5
4B
330
1F
100
AcDbEntity
  8
0
  6
DASHED
 62
     7
100
AcDbLine
 10
-339.7055365
 20
214.9384959999999
 30
0.0
 11
-336.2055165
 21
211.4384959999999
 31
0.0
  0
LINE
  5
4C
330
1F
100
AcDbEntity
  8
0
  6
DASHED
 62
     7
100
AcDbLine
 10
-372.0054964999999
 20
211.438496
 30
0.0
 11
-372.0054964999999
 21
200.8934959999999
 31
0.0
  0
LINE
  5
4D
330
1F
100
AcDbEntity
  8
0
  6
DASHED
 62
     7
100
AcDbLine
 10
-389.0054964999999
 20
211.438496
 30
0.0
 11
-389.0054964999999
 21
200.8934959999999
 31
0.0
  0
LINE
  5
4E
330
1F
100
AcDbEntity
  8
0
  6
DASHED
 62
     7
100
AcDbLine
 10
-375.5054964999999
 20
214.938496
 30
0.0
 11
-385.5054964999999
 21
214.938496
 31
0.0
  0
LINE
  5
4F
330
1F
100
AcDbEntity
  8
0
  6
DASHED
 62
     7
100
AcDbLine
 10
-372.0055364999998
 20
211.438516
 30
0.0
 11
-375.5054964999998
 21
214.938496
 31
0.0
  0
LINE
  5
50
330
1F
100
AcDbEntity
  8
0
  6
DASHED
 62
     7
100
AcDbLine
 10
-385.5054965
 20
214.938496
 30
0.0
 11
-389.0054965
 21
211.438496
 31
0.0
  0
LINE
  5
51
330
1F
100
AcDbEntity
  8
0
 62
     7
100
AcDbLine
 10
-273.2055164999999
 20
125.438496
 30
0.0
 11
-273.2055164999999
 21
108.938496
 31
0.0
  0
LINE
  5
52
330
1F
100
AcDbEntity
  8
0
 62
     7
100
AcDbLine
 10
-315.2055164999999
 20
188.938496
 30
0.0
 11
-303.2055164999999
 21
188.938496
 31
0.0
  0
LINE
  5
53
330
1F
100
AcDbEntity
  8
0
 62
     7
100
AcDbLine
 10
-452.0055365
 20
125.438496
 30
0.0
 11
-452.0055365
 21
108.938496
 31
0.0
  0
LINE
  5
54
330
1F
100
AcDbEntity
  8
0
 62
     7
100
AcDbLine
 10
-410.0054964999999
 20
188.938496
 30
0.0
 11
-422.0054765
 21
188.938496
 31
0.0
  0
LINE
  5
55
330
1F
100
AcDbEntity
  8
0
 62
     7
100
AcDbLine
 10
-372.0054964999999
 20
125.438496
 30
0.0
 11
-372.0054964999999
 21
108.938496
 31
0.0
  0
LINE
  5
56
330
1F
100
AcDbEntity
  8
0
 62
     7
100
AcDbLine
 10
-353.2055164999999
 20
125.438496
 30
0.0
 11
-353.2055164999999
 21
108.938496
 31
0.0
  0
LINE
  5
57
330
1F
100
AcDbEntity
  8
0
 62
     7
100
AcDbLine
 10
-452.0055365
 20
33.93849599999996
 30
0.0
 11
-452.0055365
 21
108.938496
 31
0.0
  0
LINE
  5
58
330
1F
100
AcDbEntity
  8
0
 62
     7
100
AcDbLine
 10
-452.0054765
 20
33.93849599999999
 30
0.0
 11
-447.0055365
 21
28.93849599999999
 31
0.0
  0
LINE
  5
59
330
1F
100
AcDbEntity
  8
0
 62
     7
100
AcDbLine
 10
-436.6054965
 20
28.93849599999996
 30
0.0
 11
-447.0055365
 21
28.93849599999996
 31
0.0
  0
LINE
  5
5A
330
1F
100
AcDbEntity
  8
0
 62
     7
100
AcDbLine
 10
-273.2055765
 20
33.93849599999996
 30
0.0
 11
-278.2055365
 21
28.938536
 31
0.0
  0
LINE
  5
5B
330
1F
100
AcDbEntity
  8
0
 62
     7
100
AcDbLine
 10
-288.6054965
 20
28.93849599999996
 30
0.0
 11
-278.2055164999999
 21
28.93849599999996
 31
0.0
  0
LINE
  5
5C
330
1F
100
AcDbEntity
  8
0
 62
     7
100
AcDbLine
 10
-273.2055164999999
 20
33.93849599999996
 30
0.0
 11
-273.2055164999999
 21
108.938496
 31
0.0
  0
LINE
  5
5D
330
1F
100
AcDbEntity
  8
0
 62
     7
100
AcDbLine
 10
-447.0054765
 20
28.93849599999996
 30
0.0
 11
-447.0054765
 21
108.938496
 31
0.0
  0
LINE
  5
5E
330
1F
100
AcDbEntity
  8
0
 62
     7
100
AcDbLine
 10
-278.2055164999999
 20
28.93851599999996
 30
0.0
 11
-278.2055164999999
 21
108.938496
 31
0.0
  0
LINE
  5
5F
330
1F
100
AcDbEntity
  8
0
 62
     7
100
AcDbLine
 10
-125.2653765
 20
163.8180959999999
 30
0.0
 11
-120.3944765
 21
168.689016
 31
0.0
  0
LINE
  5
60
330
1F
100
AcDbEntity
  8
0
 62
     7
100
AcDbLine
 10
-129.9322165
 20
168.4849760000001
 30
0.0
 11
-125.0613365
 21
173.3558560000001
 31
0.0
  0
LINE
  5
61
330
1F
100
AcDbEntity
  8
0
 62
     7
100
AcDbLine
 10
-140.9542165
 20
73.01249600000003
 30
0.0
 11
-144.0815165
 21
79.15019599999997
 31
0.0
  0
LINE
  5
62
330
1F
100
AcDbEntity
  8
0
 62
     7
100
AcDbLine
 10
-135.0735965
 20
76.00883599999995
 30
0.0
 11
-138.2008964999999
 21
82.146536
 31
0.0
  0
LINE
  5
63
330
1F
100
AcDbEntity
  8
0
 62
     7
100
AcDbLine
 10
-120.6593965
 20
47.71937599999998
 30
0.0
 11
-123.7866965
 21
53.85707599999998
 31
0.0
  0
LINE
  5
64
330
1F
100
AcDbEntity
  8
0
 62
     7
100
AcDbLine
 10
-126.5400164999999
 20
44.72305599999993
 30
0.0
 11
-129.6673164999999
 21
50.86073599999997
 31
0.0
  0
LINE
  5
65
330
1F
100
AcDbEntity
  8
0
 62
     7
100
AcDbLine
 10
-143.3756564999999
 20
137.4119959999999
 30
0.0
 11
-142.2980764999999
 21
144.2156759999999
 31
0.0
  0
LINE
  5
66
330
1F
100
AcDbEntity
  8
0
 62
     7
100
AcDbLine
 10
-136.8569765
 20
136.379556
 30
0.0
 11
-135.7793765
 21
143.1832360000001
 31
0.0
  0
LINE
  5
67
330
1F
100
AcDbEntity
  8
0
 62
     7
100
AcDbLine
 10
-141.8237564999999
 20
105.0204559999999
 30
0.0
 11
-140.7461764999999
 21
111.824136
 31
0.0
  0
LINE
  5
68
330
1F
100
AcDbEntity
  8
0
 62
     7
100
AcDbLine
 10
-148.3424565
 20
106.052896
 30
0.0
 11
-147.2648765
 21
112.856576
 31
0.0
  0
LINE
  5
69
330
1F
100
AcDbEntity
  8
0
 62
     7
100
AcDbLine
 10
-42.06430649999996
 20
233.9359159999999
 30
0.0
 11
-44.06430649999996
 21
233.9359159999999
 31
0.0
  0
LINE
  5
6A
330
1F
100
AcDbEntity
  8
0
 62
     7
100
AcDbLine
 10
-44.06430649999996
 20
191.434616
 30
0.0
 11
-42.06430649999996
 21
191.434616
 31
0.0
  0
LINE
  5
6B
330
1F
100
AcDbEntity
  8
0
 62
     7
100
AcDbLine
 10
-42.06430649999996
 20
233.9359159999999
 30
0.0
 11
-42.06430649999996
 21
191.434616
 31
0.0
  0
LINE
  5
6C
330
1F
100
AcDbEntity
  8
0
 62
     7
100
AcDbLine
 10
-44.06430649999996
 20
233.9344959999999
 30
0.0
 11
-44.06430649999996
 21
191.434616
 31
0.0
  0
LINE
  5
6D
330
1F
100
AcDbEntity
  8
0
 62
     7
100
AcDbLine
 10
-42.06430649999996
 20
-16.05894800000004
 30
0.0
 11
-42.06430649999996
 21
26.44235599999996
 31
0.0
  0
LINE
  5
6E
330
1F
100
AcDbEntity
  8
0
 62
     7
100
AcDbLine
 10
-44.06430649999996
 20
-16.05751400000003
 30
0.0
 11
-44.06430649999996
 21
26.44235599999996
 31
0.0
  0
LINE
  5
6F
330
1F
100
AcDbEntity
  8
0
 62
     7
100
AcDbLine
 10
-422.0054765
 20
125.438496
 30
0.0
 11
-410.0054964999999
 21
125.438496
 31
0.0
  0
LINE
  5
70
330
1F
100
AcDbEntity
  8
0
 62
     7
100
AcDbLine
 10
-315.2055164999999
 20
125.438496
 30
0.0
 11
-303.2055164999999
 21
125.438496
 31
0.0
  0
LINE
  5
71
330
1F
100
AcDbEntity
  8
0
 62
     7
100
AcDbLine
 10
-297.6054965
 20
-6.793540000000064
 30
0.0
 11
-300.6054964999999
 21
-8.525586000000061
 31
0.0
  0
LINE
  5
72
330
1F
100
AcDbEntity
  8
0
 62
     7
100
AcDbLine
 10
-297.6054965
 20
-3.329462000000035
 30
0.0
 11
-297.6054965
 21
-6.793540000000036
 31
0.0
  0
LINE
  5
73
330
1F
100
AcDbEntity
  8
0
 62
     7
100
AcDbLine
 10
-300.6054965
 20
-1.59741200000002
 30
0.0
 11
-297.6054965
 21
-3.329462000000007
 31
0.0
  0
LINE
  5
74
330
1F
100
AcDbEntity
  8
0
 62
     7
100
AcDbLine
 10
-303.6054965000001
 20
-3.329450000000009
 30
0.0
 11
-300.6054965000001
 21
-1.597409999999996
 31
0.0
  0
LINE
  5
75
330
1F
100
AcDbEntity
  8
0
 62
     7
100
AcDbLine
 10
-303.6054965
 20
-6.793550000000039
 30
0.0
 11
-303.6054965
 21
-3.329454000000027
 31
0.0
  0
LINE
  5
76
330
1F
100
AcDbEntity
  8
0
 62
     7
100
AcDbLine
 10
-300.6054965
 20
-8.525592000000074
 30
0.0
 11
-303.6054765
 21
-6.793558000000076
 31
0.0
  0
LINE
  5
77
330
1F
100
AcDbEntity
  8
0
 62
     7
100
AcDbLine
 10
-421.6054965
 20
-6.793539999999979
 30
0.0
 11
-424.6054965
 21
-8.525585999999976
 31
0.0
  0
LINE
  5
78
330
1F
100
AcDbEntity
  8
0
 62
     7
100
AcDbLine
 10
-421.6054965
 20
-3.329462000000035
 30
0.0
 11
-421.6054965
 21
-6.793540000000036
 31
0.0
  0
LINE
  5
79
330
1F
100
AcDbEntity
  8
0
 62
     7
100
AcDbLine
 10
-424.6054965
 20
-1.597412000000048
 30
0.0
 11
-421.6054965
 21
-3.329462000000007
 31
0.0
  0
LINE
  5
7A
330
1F
100
AcDbEntity
  8
0
 62
     7
100
AcDbLine
 10
-427.6054965
 20
-3.32944999999998
 30
0.0
 11
-424.6054965
 21
-1.59740999999994
 31
0.0
  0
LINE
  5
7B
330
1F
100
AcDbEntity
  8
0
 62
     7
100
AcDbLine
 10
-427.6054965
 20
-6.793550000000039
 30
0.0
 11
-427.6054965
 21
-3.329454000000027
 31
0.0
  0
LINE
  5
7C
330
1F
100
AcDbEntity
  8
0
 62
     7
100
AcDbLine
 10
-424.6054964999998
 20
-8.525592000000103
 30
0.0
 11
-427.6054765
 21
-6.793558000000047
 31
0.0
  0
LINE
  5
7D
330
1F
100
AcDbEntity
  8
0
 62
     7
100
AcDbLine
 10
-301.8520164999999
 20
188.938496
 30
0.0
 11
-293.4302964999999
 21
197.360236
 31
0.0
  0
LINE
  5
7E
330
1F
100
AcDbEntity
  8
0
 62
     7
100
AcDbLine
 10
-305.4441165
 20
188.938496
 30
0.0
 11
-293.8694765
 21
200.513176
 31
0.0
  0
LINE
  5
7F
330
1F
100
AcDbEntity
  8
0
 62
     7
100
AcDbLine
 10
-306.5005164999999
 20
191.474196
 30
0.0
 11
-294.3086365
 21
203.6660959999999
 31
0.0
  0
LINE
  5
80
330
1F
100
AcDbEntity
  8
0
 62
     7
100
AcDbLine
 10
-305.9192164999999
 20
195.6476159999998
 30
0.0
 11
-296.1283964999998
 21
205.4384559999998
 31
0.0
  0
LINE
  5
81
330
1F
100
AcDbEntity
  8
0
 62
     7
100
AcDbLine
 10
-403.6054965
 20
205.725996
 30
0.0
 11
-403.6054965
 21
215.110996
 31
0.0
  0
LINE
  5
82
330
1F
100
AcDbEntity
  8
0
 62
     7
100
AcDbLine
 10
-412.6054965
 20
210.418496
 30
0.0
 11
-312.6054965
 21
210.418496
 31
0.0
  0
LINE
  5
83
330
1F
100
AcDbEntity
  8
0
 62
     7
100
AcDbLine
 10
-403.6054965
 20
205.725996
 30
0.0
 11
-397.6554965
 21
205.725996
 31
0.0
  0
LINE
  5
84
330
1F
100
AcDbEntity
  8
0
 62
     7
100
AcDbLine
 10
-399.8554965
 20
201.225996
 30
0.0
 11
-399.8554965
 21
205.725996
 31
0.0
  0
LINE
  5
85
330
1F
100
AcDbEntity
  8
0
 62
     7
100
AcDbLine
 10
-397.6554965
 20
197.418496
 30
0.0
 11
-397.6554965
 21
223.418496
 31
0.0
  0
LINE
  5
86
330
1F
100
AcDbEntity
  8
0
 62
     7
100
AcDbLine
 10
-399.8554965
 20
201.225996
 30
0.0
 11
-397.6554965
 21
201.225996
 31
0.0
  0
LINE
  5
87
330
1F
100
AcDbEntity
  8
0
 62
     7
100
AcDbLine
 10
-397.6554965
 20
197.418496
 30
0.0
 11
-393.6554965
 21
197.418496
 31
0.0
  0
LINE
  5
88
330
1F
100
AcDbEntity
  8
0
 62
     7
100
AcDbLine
 10
-393.6554965
 20
195.368516
 30
0.0
 11
-393.6554965
 21
225.468496
 31
0.0
  0
LINE
  5
89
330
1F
100
AcDbEntity
  8
0
 62
     7
100
AcDbLine
 10
-393.6554965
 20
195.368516
 30
0.0
 11
-389.6554965
 21
195.368516
 31
0.0
  0
LINE
  5
8A
330
1F
100
AcDbEntity
  8
0
 62
     7
100
AcDbLine
 10
-389.6554965
 20
195.368516
 30
0.0
 11
-389.6554965
 21
225.468496
 31
0.0
  0
LINE
  5
8B
330
1F
100
AcDbEntity
  8
0
 62
     7
100
AcDbLine
 10
-389.6554965
 20
200.8934959999999
 30
0.0
 11
-370.6054965
 21
200.8934959999999
 31
0.0
  0
LINE
  5
8C
330
1F
100
AcDbEntity
  8
0
 62
     7
100
AcDbLine
 10
-370.6054965
 20
195.368516
 30
0.0
 11
-370.6054965
 21
225.468496
 31
0.0
  0
LINE
  5
8D
330
1F
100
AcDbEntity
  8
0
 62
     7
100
AcDbLine
 10
-366.6054965
 20
195.368516
 30
0.0
 11
-370.6054965
 21
195.368516
 31
0.0
  0
LINE
  5
8E
330
1F
100
AcDbEntity
  8
0
 62
     7
100
AcDbLine
 10
-366.6054965
 20
195.368516
 30
0.0
 11
-366.6054965
 21
225.468496
 31
0.0
  0
LINE
  5
8F
330
1F
100
AcDbEntity
  8
0
 62
     7
100
AcDbLine
 10
-362.6054965
 20
197.418496
 30
0.0
 11
-362.6054965
 21
223.418496
 31
0.0
  0
LINE
  5
90
330
1F
100
AcDbEntity
  8
0
 62
     7
100
AcDbLine
 10
-358.6054965
 20
197.418496
 30
0.0
 11
-366.6054965
 21
197.418496
 31
0.0
  0
LINE
  5
91
330
1F
100
AcDbEntity
  8
0
 62
     7
100
AcDbLine
 10
-358.6054965
 20
195.368516
 30
0.0
 11
-358.6054965
 21
225.468496
 31
0.0
  0
LINE
  5
92
330
1F
100
AcDbEntity
  8
0
 62
     7
100
AcDbLine
 10
-358.6054965
 20
195.368516
 30
0.0
 11
-354.6054965
 21
195.368516
 31
0.0
  0
LINE
  5
93
330
1F
100
AcDbEntity
  8
0
 62
     7
100
AcDbLine
 10
-354.6054965
 20
195.368516
 30
0.0
 11
-354.6054965
 21
225.468496
 31
0.0
  0
LINE
  5
94
330
1F
100
AcDbEntity
  8
0
 62
     7
100
AcDbLine
 10
-354.6054965
 20
200.8934959999999
 30
0.0
 11
-335.5555165
 21
200.8934959999999
 31
0.0
  0
LINE
  5
95
330
1F
100
AcDbEntity
  8
0
 62
     7
100
AcDbLine
 10
-335.5555165
 20
195.368516
 30
0.0
 11
-335.5555165
 21
225.468496
 31
0.0
  0
LINE
  5
96
330
1F
100
AcDbEntity
  8
0
 62
     7
100
AcDbLine
 10
-331.5555165
 20
195.368516
 30
0.0
 11
-335.5555165
 21
195.368516
 31
0.0
  0
LINE
  5
97
330
1F
100
AcDbEntity
  8
0
 62
     7
100
AcDbLine
 10
-331.5555165
 20
195.368516
 30
0.0
 11
-331.5555165
 21
225.468496
 31
0.0
  0
LINE
  5
98
330
1F
100
AcDbEntity
  8
0
 62
     7
100
AcDbLine
 10
-327.5555165
 20
197.418496
 30
0.0
 11
-331.5555165
 21
197.418496
 31
0.0
  0
LINE
  5
99
330
1F
100
AcDbEntity
  8
0
 62
     7
100
AcDbLine
 10
-327.5555165
 20
197.418496
 30
0.0
 11
-327.5555165
 21
223.418496
 31
0.0
  0
LINE
  5
9A
330
1F
100
AcDbEntity
  8
0
 62
     7
100
AcDbLine
 10
-327.5555165
 20
203.0184959999999
 30
0.0
 11
-324.3854964999999
 21
203.0184959999999
 31
0.0
  0
LINE
  5
9B
330
1F
100
AcDbEntity
  8
0
 62
     7
100
AcDbLine
 10
-324.3854964999999
 20
203.0184959999999
 30
0.0
 11
-324.3854964999999
 21
217.818496
 31
0.0
  0
LINE
  5
9C
330
1F
100
AcDbEntity
  8
0
 62
     7
100
AcDbLine
 10
-324.3854964999999
 20
205.725996
 30
0.0
 11
-321.7055164999999
 21
205.725996
 31
0.0
  0
LINE
  5
9D
330
1F
100
AcDbEntity
  8
0
 62
     7
100
AcDbLine
 10
-321.7055164999999
 20
205.725996
 30
0.0
 11
-321.7055164999999
 21
215.110996
 31
0.0
  0
LINE
  5
9E
330
1F
100
AcDbEntity
  8
0
 62
     7
100
AcDbLine
 10
-403.6054965
 20
215.110996
 30
0.0
 11
-397.6554965
 21
215.110996
 31
0.0
  0
LINE
  5
9F
330
1F
100
AcDbEntity
  8
0
 62
     7
100
AcDbLine
 10
-399.8554965
 20
219.610996
 30
0.0
 11
-397.6554965
 21
219.610996
 31
0.0
  0
LINE
  5
A0
330
1F
100
AcDbEntity
  8
0
 62
     7
100
AcDbLine
 10
-397.6554965
 20
223.418496
 30
0.0
 11
-393.6554965
 21
223.418496
 31
0.0
  0
LINE
  5
A1
330
1F
100
AcDbEntity
  8
0
 62
     7
100
AcDbLine
 10
-393.6554965
 20
225.468496
 30
0.0
 11
-389.6554965
 21
225.468496
 31
0.0
  0
LINE
  5
A2
330
1F
100
AcDbEntity
  8
0
 62
     7
100
AcDbLine
 10
-389.6554965
 20
219.943496
 30
0.0
 11
-370.6054965
 21
219.943496
 31
0.0
  0
LINE
  5
A3
330
1F
100
AcDbEntity
  8
0
 62
     7
100
AcDbLine
 10
-366.6054965
 20
225.468496
 30
0.0
 11
-370.6054965
 21
225.468496
 31
0.0
  0
LINE
  5
A4
330
1F
100
AcDbEntity
  8
0
 62
     7
100
AcDbLine
 10
-358.6054965
 20
223.418496
 30
0.0
 11
-366.6054965
 21
223.418496
 31
0.0
  0
LINE
  5
A5
330
1F
100
AcDbEntity
  8
0
 62
     7
100
AcDbLine
 10
-358.6054965
 20
225.468496
 30
0.0
 11
-354.6054965
 21
225.468496
 31
0.0
  0
LINE
  5
A6
330
1F
100
AcDbEntity
  8
0
 62
     7
100
AcDbLine
 10
-354.6054965
 20
219.943496
 30
0.0
 11
-335.5555165
 21
219.943496
 31
0.0
  0
LINE
  5
A7
330
1F
100
AcDbEntity
  8
0
 62
     7
100
AcDbLine
 10
-331.5555165
 20
225.468496
 30
0.0
 11
-335.5555165
 21
225.468496
 31
0.0
  0
LINE
  5
A8
330
1F
100
AcDbEntity
  8
0
 62
     7
100
AcDbLine
 10
-327.5555165
 20
223.418496
 30
0.0
 11
-331.5555165
 21
223.418496
 31
0.0
  0
LINE
  5
A9
330
1F
100
AcDbEntity
  8
0
 62
     7
100
AcDbLine
 10
-327.5555165
 20
217.818496
 30
0.0
 11
-324.3854964999999
 21
217.818496
 31
0.0
  0
LINE
  5
AA
330
1F
100
AcDbEntity
  8
0
 62
     7
100
AcDbLine
 10
-324.3854964999999
 20
215.110996
 30
0.0
 11
-321.7055164999999
 21
215.110996
 31
0.0
  0
LINE
  5
AB
330
1F
100
AcDbEntity
  8
0
 62
     7
100
AcDbLine
 10
-399.8554965
 20
215.110996
 30
0.0
 11
-399.8554965
 21
219.610996
 31
0.0
  0
LINE
  5
AC
330
1F
100
AcDbEntity
  8
0
 62
     7
100
AcDbLine
 10
-44.06430649999993
 20
192.5801759999999
 30
0.0
 11
-42.06430649999999
 21
194.5801959999999
 31
0.0
  0
LINE
  5
AD
330
1F
100
AcDbEntity
  8
0
 62
     7
100
AcDbLine
 10
-44.06430649999993
 20
197.0703159999999
 30
0.0
 11
-42.06430649999996
 21
199.0703159999999
 31
0.0
  0
LINE
  5
AE
330
1F
100
AcDbEntity
  8
0
 62
     7
100
AcDbLine
 10
-44.06430649999993
 20
201.5604559999999
 30
0.0
 11
-42.06430649999993
 21
203.5604559999999
 31
0.0
  0
LINE
  5
AF
330
1F
100
AcDbEntity
  8
0
 62
     7
100
AcDbLine
 10
-44.06430649999996
 20
206.050576
 30
0.0
 11
-42.06430649999996
 21
208.050576
 31
0.0
  0
LINE
  5
B0
330
1F
100
AcDbEntity
  8
0
 62
     7
100
AcDbLine
 10
-44.06430649999996
 20
210.540716
 30
0.0
 11
-42.06430649999999
 21
212.5407159999999
 31
0.0
  0
LINE
  5
B1
330
1F
100
AcDbEntity
  8
0
 62
     7
100
AcDbLine
 10
-44.06430649999993
 20
215.0308359999999
 30
0.0
 11
-42.06430649999996
 21
217.0308559999999
 31
0.0
  0
LINE
  5
B2
330
1F
100
AcDbEntity
  8
0
 62
     7
100
AcDbLine
 10
-44.06430649999996
 20
219.520976
 30
0.0
 11
-42.06430649999999
 21
221.5209759999999
 31
0.0
  0
LINE
  5
B3
330
1F
100
AcDbEntity
  8
0
 62
     7
100
AcDbLine
 10
-44.06430649999993
 20
224.0111159999999
 30
0.0
 11
-42.06430649999993
 21
226.0111159999999
 31
0.0
  0
LINE
  5
B4
330
1F
100
AcDbEntity
  8
0
 62
     7
100
AcDbLine
 10
-44.06430649999996
 20
228.5012359999999
 30
0.0
 11
-42.06430649999999
 21
230.5012559999999
 31
0.0
  0
LINE
  5
B5
330
1F
100
AcDbEntity
  8
0
 62
     7
100
AcDbLine
 10
-44.06430649999996
 20
232.9913759999999
 30
0.0
 11
-43.11975849999993
 21
233.9359159999999
 31
0.0
  0
LINE
  5
B6
330
1F
100
AcDbEntity
  8
0
 62
     7
100
AcDbLine
 10
-42.06430649999993
 20
230.6693559999999
 30
0.0
 11
-44.06430649999999
 21
232.6693559999999
 31
0.0
  0
LINE
  5
B7
330
1F
100
AcDbEntity
  8
0
 62
     7
100
AcDbLine
 10
-42.06430649999996
 20
226.1792359999999
 30
0.0
 11
-44.0643064999999
 21
228.1792359999998
 31
0.0
  0
LINE
  5
B8
330
1F
100
AcDbEntity
  8
0
 62
     7
100
AcDbLine
 10
-42.06430649999999
 20
221.689116
 30
0.0
 11
-44.06430649999999
 21
223.689096
 31
0.0
  0
LINE
  5
B9
330
1F
100
AcDbEntity
  8
0
 62
     7
100
AcDbLine
 10
-42.06430649999999
 20
217.1989759999999
 30
0.0
 11
-44.06430649999999
 21
219.1989759999999
 31
0.0
  0
LINE
  5
BA
330
1F
100
AcDbEntity
  8
0
 62
     7
100
AcDbLine
 10
-42.06430649999999
 20
212.7088559999999
 30
0.0
 11
-44.06430649999999
 21
214.7088559999999
 31
0.0
  0
LINE
  5
BB
330
1F
100
AcDbEntity
  8
0
 62
     7
100
AcDbLine
 10
-42.06430649999993
 20
208.2187359999999
 30
0.0
 11
-44.06430649999993
 21
210.2187359999999
 31
0.0
  0
LINE
  5
BC
330
1F
100
AcDbEntity
  8
0
 62
     7
100
AcDbLine
 10
-42.06430649999999
 20
203.7286159999999
 30
0.0
 11
-44.06430649999999
 21
205.7286159999999
 31
0.0
  0
LINE
  5
BD
330
1F
100
AcDbEntity
  8
0
 62
     7
100
AcDbLine
 10
-42.06430649999993
 20
199.2384959999999
 30
0.0
 11
-44.06430649999993
 21
201.2384959999999
 31
0.0
  0
LINE
  5
BE
330
1F
100
AcDbEntity
  8
0
 62
     7
100
AcDbLine
 10
-42.06430649999999
 20
194.748376
 30
0.0
 11
-44.06430649999999
 21
196.748356
 31
0.0
  0
LINE
  5
BF
330
1F
100
AcDbEntity
  8
0
 62
     7
100
AcDbLine
 10
-43.24067649999992
 20
191.434616
 30
0.0
 11
-44.0643064999999
 21
192.2582359999999
 31
0.0
  0
LINE
  5
C0
330
1F
100
AcDbEntity
  8
0
 62
     7
100
AcDbLine
 10
-44.06430649999996
 20
-13.96591000000004
 30
0.0
 11
-42.06430649999999
 21
-11.96590600000005
 31
0.0
  0
LINE
  5
C1
330
1F
100
AcDbEntity
  8
0
 62
     7
100
AcDbLine
 10
-44.06430649999996
 20
-9.475778000000076
 30
0.0
 11
-42.06430649999996
 21
-7.475774000000087
 31
0.0
  0
LINE
  5
C2
330
1F
100
AcDbEntity
  8
0
 62
     7
100
AcDbLine
 10
-44.06430649999999
 20
-4.985646000000003
 30
0.0
 11
-42.06430649999999
 21
-2.985642000000013
 31
0.0
  0
LINE
  5
C3
330
1F
100
AcDbEntity
  8
0
 62
     7
100
AcDbLine
 10
-44.06430649999993
 20
-0.4955140000000711
 30
0.0
 11
-42.06430649999993
 21
1.504489999999947
 31
0.0
  0
LINE
  5
C4
330
1F
100
AcDbEntity
  8
0
 62
     7
100
AcDbLine
 10
-44.06430649999999
 20
3.994618000000003
 30
0.0
 11
-42.06430649999999
 21
5.994621999999993
 31
0.0
  0
LINE
  5
C5
330
1F
100
AcDbEntity
  8
0
 62
     7
100
AcDbLine
 10
-44.06430649999993
 20
8.484751999999929
 30
0.0
 11
-42.06430649999993
 21
10.48475599999995
 31
0.0
  0
LINE
  5
C6
330
1F
100
AcDbEntity
  8
0
 62
     7
100
AcDbLine
 10
-44.06430649999996
 20
12.97487599999994
 30
0.0
 11
-42.06430649999993
 21
14.97489599999994
 31
0.0
  0
LINE
  5
C7
330
1F
100
AcDbEntity
  8
0
 62
     7
100
AcDbLine
 10
-44.06430649999993
 20
17.46501599999991
 30
0.0
 11
-42.06430649999993
 21
19.46501599999991
 31
0.0
  0
LINE
  5
C8
330
1F
100
AcDbEntity
  8
0
 62
     7
100
AcDbLine
 10
-44.06430649999993
 20
21.9551559999999
 30
0.0
 11
-42.06430649999993
 21
23.9551559999999
 31
0.0
  0
LINE
  5
C9
330
1F
100
AcDbEntity
  8
0
 62
     7
100
AcDbLine
 10
-42.06430649999996
 20
24.12367599999993
 30
0.0
 11
-44.06430649999993
 21
26.1236759999999
 31
0.0
  0
LINE
  5
CA
330
1F
100
AcDbEntity
  8
0
 62
     7
100
AcDbLine
 10
-42.06430649999996
 20
19.63355599999994
 30
0.0
 11
-44.06430649999996
 21
21.63355599999994
 31
0.0
  0
LINE
  5
CB
330
1F
100
AcDbEntity
  8
0
 62
     7
100
AcDbLine
 10
-42.06430649999993
 20
15.1434359999999
 30
0.0
 11
-44.06430649999993
 21
17.14341599999992
 31
0.0
  0
LINE
  5
CC
330
1F
100
AcDbEntity
  8
0
 62
     7
100
AcDbLine
 10
-42.06430649999993
 20
10.65330399999996
 30
0.0
 11
-44.06430649999993
 21
12.65329599999996
 31
0.0
  0
LINE
  5
CD
330
1F
100
AcDbEntity
  8
0
 62
     7
100
AcDbLine
 10
-42.06430649999996
 20
6.163181999999921
 30
0.0
 11
-44.06430649999996
 21
8.163177999999931
 31
0.0
  0
LINE
  5
CE
330
1F
100
AcDbEntity
  8
0
 62
     7
100
AcDbLine
 10
-42.06430649999996
 20
1.673057999999998
 30
0.0
 11
-44.06430649999996
 21
3.673053999999979
 31
0.0
  0
LINE
  5
CF
330
1F
100
AcDbEntity
  8
0
 62
     7
100
AcDbLine
 10
-42.06430649999993
 20
-2.817066000000068
 30
0.0
 11
-44.06430649999996
 21
-0.8170700000000295
 31
0.0
  0
LINE
  5
D0
330
1F
100
AcDbEntity
  8
0
 62
     7
100
AcDbLine
 10
-42.06430649999993
 20
-7.307190000000077
 30
0.0
 11
-44.06430649999993
 21
-5.307194000000067
 31
0.0
  0
LINE
  5
D1
330
1F
100
AcDbEntity
  8
0
 62
     7
100
AcDbLine
 10
-42.0643064999999
 20
-11.79731200000006
 30
0.0
 11
-44.06430649999993
 21
-9.797316000000052
 31
0.0
  0
LINE
  5
D2
330
1F
100
AcDbEntity
  8
0
 62
     7
100
AcDbLine
 10
-42.29279449999999
 20
-16.05894800000002
 30
0.0
 11
-44.06430649999999
 21
-14.28744
 31
0.0
  0
LINE
  5
D3
330
1F
100
AcDbEntity
  8
0
 62
     7
100
AcDbLine
 10
-436.6054965
 20
-6.57622200000003
 30
0.0
 11
-436.6054965
 21
108.938496
 31
0.0
  0
LINE
  5
D4
330
1F
100
AcDbEntity
  8
0
 62
     7
100
AcDbLine
 10
-424.6054965
 20
6.93848799999995
 30
0.0
 11
-424.6054965
 21
-17.06151200000005
 31
0.0
  0
LINE
  5
D5
330
1F
100
AcDbEntity
  8
0
 62
     7
100
AcDbLine
 10
-436.6054965
 20
-5.06151200000005
 30
0.0
 11
-412.6054965
 21
-5.06151200000005
 31
0.0
  0
LINE
  5
D6
330
1F
100
AcDbEntity
  8
0
 62
     7
100
AcDbLine
 10
-415.6054965
 20
-14.06151200000005
 30
0.0
 11
-415.6054965
 21
-5.06151200000005
 31
0.0
  0
LINE
  5
D7
330
1F
100
AcDbEntity
  8
0
 62
     7
100
AcDbLine
 10
-431.6054965
 20
-14.06151200000005
 30
0.0
 11
-415.6054965
 21
-14.06151200000005
 31
0.0
  0
LINE
  5
D8
330
1F
100
AcDbEntity
  8
0
 62
     7
100
AcDbLine
 10
-433.6054965
 20
-12.06151200000005
 30
0.0
 11
-433.6054965
 21
-5.06151200000005
 31
0.0
  0
LINE
  5
D9
330
1F
100
AcDbEntity
  8
0
 62
     7
100
AcDbLine
 10
-434.8481565
 20
-10.81892000000008
 30
0.0
 11
-431.3628765
 21
-14.30420200000006
 31
0.0
  0
LINE
  5
DA
330
1F
100
AcDbEntity
  8
0
 62
     7
100
AcDbLine
 10
-427.1202165
 20
-16.06151200000005
 30
0.0
 11
-298.0907965
 21
-16.06151200000005
 31
0.0
  0
LINE
  5
DB
330
1F
100
AcDbEntity
  8
0
 62
     7
100
AcDbLine
 10
-309.6054965
 20
-14.06151200000005
 30
0.0
 11
-309.6054965
 21
-5.06151200000005
 31
0.0
  0
LINE
  5
DC
330
1F
100
AcDbEntity
  8
0
 62
     7
100
AcDbLine
 10
-312.6054965
 20
-5.06151200000005
 30
0.0
 11
-288.6054965
 21
-5.06151200000005
 31
0.0
  0
LINE
  5
DD
330
1F
100
AcDbEntity
  8
0
 62
     7
100
AcDbLine
 10
-300.6054965
 20
6.93848799999995
 30
0.0
 11
-300.6054965
 21
-17.06151200000005
 31
0.0
  0
LINE
  5
DE
330
1F
100
AcDbEntity
  8
0
 62
     7
100
AcDbLine
 10
-291.6054965
 20
-12.06151200000005
 30
0.0
 11
-291.6054965
 21
-5.06151200000005
 31
0.0
  0
LINE
  5
DF
330
1F
100
AcDbEntity
  8
0
 62
     7
100
AcDbLine
 10
-290.3628364999998
 20
-10.81883600000012
 30
0.0
 11
-293.8481364999998
 21
-14.30412600000011
 31
0.0
  0
LINE
  5
E0
330
1F
100
AcDbEntity
  8
0
 62
     7
100
AcDbLine
 10
-293.6054965
 20
-14.06151200000005
 30
0.0
 11
-309.6054965
 21
-14.06151200000005
 31
0.0
  0
LINE
  5
E1
330
1F
100
AcDbEntity
  8
0
 62
     7
100
AcDbLine
 10
-288.6054965
 20
-6.57622200000003
 30
0.0
 11
-288.6054965
 21
108.938496
 31
0.0
  0
LINE
  5
E2
330
1F
100
AcDbEntity
  8
0
 62
     7
100
AcDbLine
 10
-436.6054965
 20
224.453196
 30
0.0
 11
-436.6054965
 21
188.938496
 31
0.0
  0
LINE
  5
E3
330
1F
100
AcDbEntity
  8
0
 62
     7
100
AcDbLine
 10
-434.8480964999999
 20
228.6958159999999
 30
0.0
 11
-431.3628164999999
 21
232.1810959999999
 31
0.0
  0
LINE
  5
E4
330
1F
100
AcDbEntity
  8
0
 62
     7
100
AcDbLine
 10
-431.6054965
 20
231.938496
 30
0.0
 11
-415.6054965
 21
231.938496
 31
0.0
  0
LINE
  5
E5
330
1F
100
AcDbEntity
  8
0
 62
     7
100
AcDbLine
 10
-433.6054965
 20
229.938496
 30
0.0
 11
-433.6054965
 21
222.938496
 31
0.0
  0
LINE
  5
E6
330
1F
100
AcDbEntity
  8
0
 62
     7
100
AcDbLine
 10
-436.6054965
 20
222.938496
 30
0.0
 11
-412.6054965
 21
222.938496
 31
0.0
  0
LINE
  5
E7
330
1F
100
AcDbEntity
  8
0
 62
     7
100
AcDbLine
 10
-424.6054965
 20
234.938496
 30
0.0
 11
-424.6054965
 21
210.938496
 31
0.0
  0
LINE
  5
E8
330
1F
100
AcDbEntity
  8
0
 62
     7
100
AcDbLine
 10
-415.6054965
 20
231.938496
 30
0.0
 11
-415.6054965
 21
222.938496
 31
0.0
  0
LINE
  5
E9
330
1F
100
AcDbEntity
  8
0
 62
     7
100
AcDbLine
 10
-427.1202165
 20
233.938496
 30
0.0
 11
-298.0907965
 21
233.938496
 31
0.0
  0
LINE
  5
EA
330
1F
100
AcDbEntity
  8
0
 62
     7
100
AcDbLine
 10
-405.6054965
 20
225.438496
 30
0.0
 11
-405.6054965
 21
188.938496
 31
0.0
  0
LINE
  5
EB
330
1F
100
AcDbEntity
  8
0
 62
     7
100
AcDbLine
 10
-403.6054965
 20
227.438496
 30
0.0
 11
-314.6054965
 21
227.438496
 31
0.0
  0
LINE
  5
EC
330
1F
100
AcDbEntity
  8
0
 62
     7
100
AcDbLine
 10
-312.6054965
 20
225.438496
 30
0.0
 11
-312.6054965
 21
222.938496
 31
0.0
  0
LINE
  5
ED
330
1F
100
AcDbEntity
  8
0
 62
     7
100
AcDbLine
 10
-312.6054965
 20
222.938496
 30
0.0
 11
-288.6054965
 21
222.938496
 31
0.0
  0
LINE
  5
EE
330
1F
100
AcDbEntity
  8
0
 62
     7
100
AcDbLine
 10
-311.5054964999999
 20
217.919536
 30
0.0
 11
-311.5054964999999
 21
188.938496
 31
0.0
  0
LINE
  5
EF
330
1F
100
AcDbEntity
  8
0
 62
     7
100
AcDbLine
 10
-311.5054964999999
 20
191.438496
 30
0.0
 11
-306.5054964999999
 21
191.438496
 31
0.0
  0
LINE
  5
F0
330
1F
100
AcDbEntity
  8
0
 62
     7
100
AcDbLine
 10
-306.5054964999999
 20
191.438496
 30
0.0
 11
-306.5054964999999
 21
188.938496
 31
0.0
  0
LINE
  5
F1
330
1F
100
AcDbEntity
  8
0
 62
     7
100
AcDbLine
 10
-306.5055164999999
 20
191.438456
 30
0.0
 11
-304.5555165
 21
205.438456
 31
0.0
  0
LINE
  5
F2
330
1F
100
AcDbEntity
  8
0
 62
     7
100
AcDbLine
 10
-304.5555165
 20
205.438496
 30
0.0
 11
-294.5555165
 21
205.438496
 31
0.0
  0
LINE
  5
F3
330
1F
100
AcDbEntity
  8
0
 62
     7
100
AcDbLine
 10
-292.6054765
 20
191.4384959999998
 30
0.0
 11
-294.5554764999999
 21
205.438496
 31
0.0
  0
LINE
  5
F4
330
1F
100
AcDbEntity
  8
0
 62
     7
100
AcDbLine
 10
-292.6054965
 20
191.438496
 30
0.0
 11
-292.6054965
 21
188.938496
 31
0.0
  0
LINE
  5
F5
330
1F
100
AcDbEntity
  8
0
 62
     7
100
AcDbLine
 10
-292.6054965
 20
191.438496
 30
0.0
 11
-288.6054965
 21
191.438496
 31
0.0
  0
LINE
  5
F6
330
1F
100
AcDbEntity
  8
0
 62
     7
100
AcDbLine
 10
-288.6054965
 20
224.453196
 30
0.0
 11
-288.6054965
 21
188.938496
 31
0.0
  0
LINE
  5
F7
330
1F
100
AcDbEntity
  8
0
 62
     7
100
AcDbLine
 10
-290.3628965
 20
228.6957959999999
 30
0.0
 11
-293.8481965
 21
232.1810959999999
 31
0.0
  0
LINE
  5
F8
330
1F
100
AcDbEntity
  8
0
 62
     7
100
AcDbLine
 10
-293.6054965
 20
231.938496
 30
0.0
 11
-309.6054965
 21
231.938496
 31
0.0
  0
LINE
  5
F9
330
1F
100
AcDbEntity
  8
0
 62
     7
100
AcDbLine
 10
-300.6054965
 20
234.938496
 30
0.0
 11
-300.6054965
 21
210.938496
 31
0.0
  0
LINE
  5
FA
330
1F
100
AcDbEntity
  8
0
 62
     7
100
AcDbLine
 10
-309.6054965
 20
231.938496
 30
0.0
 11
-309.6054965
 21
222.938496
 31
0.0
  0
LINE
  5
FB
330
1F
100
AcDbEntity
  8
0
 62
     7
100
AcDbLine
 10
-291.6054965
 20
229.938496
 30
0.0
 11
-291.6054965
 21
222.938496
 31
0.0
  0
LINE
  5
FC
330
1F
100
AcDbEntity
  8
0
 62
     7
100
AcDbLine
 10
-426.1054965
 20
210.938496
 30
0.0
 11
-426.1054965
 21
188.938496
 31
0.0
  0
LINE
  5
FD
330
1F
100
AcDbEntity
  8
0
 62
     7
100
AcDbLine
 10
-411.1054965
 20
210.938496
 30
0.0
 11
-411.1054965
 21
188.938496
 31
0.0
  0
LINE
  5
FE
330
1F
100
AcDbEntity
  8
0
 62
     7
100
AcDbLine
 10
-426.1054965
 20
210.938496
 30
0.0
 11
-411.1054965
 21
210.938496
 31
0.0
  0
LINE
  5
FF
330
1F
100
AcDbEntity
  8
0
 62
     7
100
AcDbLine
 10
-353.2055025
 20
200.893514
 30
0.0
 11
-336.2055025
 21
200.893514
 31
0.0
  0
LINE
  5
100
330
1F
100
AcDbEntity
  8
0
 62
     7
100
AcDbLine
 10
-353.2055025
 20
125.438496
 30
0.0
 11
-353.2055025
 21
200.893514
 31
0.0
  0
LINE
  5
101
330
1F
100
AcDbEntity
  8
0
 62
     7
100
AcDbLine
 10
-372.0054905
 20
200.893514
 30
0.0
 11
-389.0054905
 21
200.893514
 31
0.0
  0
LINE
  5
102
330
1F
100
AcDbEntity
  8
0
 62
     7
100
AcDbLine
 10
-372.0054905
 20
125.438496
 30
0.0
 11
-372.0054905
 21
200.893514
 31
0.0
  0
LINE
  5
103
330
1F
100
AcDbEntity
  8
0
 62
     7
100
AcDbLine
 10
-405.6054964999998
 20
188.9384639999999
 30
0.0
 11
-410.0054904999998
 21
188.9384959999999
 31
0.0
  0
LINE
  5
104
330
1F
100
AcDbEntity
  8
0
 62
     7
100
AcDbLine
 10
-405.6054965
 20
190.438496
 30
0.0
 11
-405.6054965
 21
188.938464
 31
0.0
  0
LINE
  5
105
330
1F
100
AcDbEntity
  8
0
 62
     7
100
AcDbLine
 10
-315.2055025
 20
188.938496
 30
0.0
 11
-319.6054965
 21
188.938496
 31
0.0
  0
LINE
  5
106
330
1F
100
AcDbEntity
  8
0
 62
     7
100
AcDbLine
 10
-278.2055105
 20
188.9385039999999
 30
0.0
 11
-303.2055025
 21
188.9384959999999
 31
0.0
  0
LINE
  5
107
330
1F
100
AcDbEntity
  8
0
 62
     7
100
AcDbLine
 10
-273.2055264999999
 20
183.9385199999999
 30
0.0
 11
-273.2055024999999
 21
125.438496
 31
0.0
  0
LINE
  5
108
330
1F
100
AcDbEntity
  8
0
 62
     7
100
AcDbLine
 10
-452.0054445
 20
183.938434
 30
0.0
 11
-452.0055205
 21
125.438496
 31
0.0
  0
LINE
  5
109
330
1F
100
AcDbEntity
  8
0
 62
     7
100
AcDbLine
 10
-422.0054584999999
 20
188.938496
 30
0.0
 11
-447.0054365000001
 21
188.938444
 31
0.0
  0
LINE
  5
10A
330
1F
100
AcDbEntity
  8
0
 62
     7
100
AcDbLine
 10
-303.2055025
 20
125.438496
 30
0.0
 11
-273.2055025
 21
125.438496
 31
0.0
  0
LINE
  5
10B
330
1F
100
AcDbEntity
  8
0
 62
     7
100
AcDbLine
 10
-422.0054584999999
 20
125.438496
 30
0.0
 11
-452.0055205
 21
125.438496
 31
0.0
  0
LINE
  5
10C
330
1F
100
AcDbEntity
  8
0
 62
     7
100
AcDbLine
 10
-389.0054905
 20
200.893514
 30
0.0
 11
-389.0054905
 21
190.438496
 31
0.0
  0
LINE
  5
10D
330
1F
100
AcDbEntity
  8
0
 62
     7
100
AcDbLine
 10
-389.0054905
 20
190.438496
 30
0.0
 11
-405.6054965
 21
190.438496
 31
0.0
  0
LINE
  5
10E
330
1F
100
AcDbEntity
  8
0
 62
     7
100
AcDbLine
 10
-452.0054445
 20
183.9384339999999
 30
0.0
 11
-447.0054365
 21
188.938444
 31
0.0
  0
LINE
  5
10F
330
1F
100
AcDbEntity
  8
0
 62
     7
100
AcDbLine
 10
-336.2055025
 20
200.893514
 30
0.0
 11
-336.2055025
 21
190.438496
 31
0.0
  0
LINE
  5
110
330
1F
100
AcDbEntity
  8
0
 62
     7
100
AcDbLine
 10
-336.2055025
 20
190.438496
 30
0.0
 11
-319.6054965
 21
190.438496
 31
0.0
  0
LINE
  5
111
330
1F
100
AcDbEntity
  8
0
 62
     7
100
AcDbLine
 10
-319.6054965
 20
190.438496
 30
0.0
 11
-319.6054965
 21
188.938496
 31
0.0
  0
LINE
  5
112
330
1F
100
AcDbEntity
  8
0
 62
     7
100
AcDbLine
 10
-273.2055264999999
 20
183.9385199999998
 30
0.0
 11
-278.2055024999999
 21
188.9385039999998
 31
0.0
  0
LINE
  5
113
330
1F
100
AcDbEntity
  8
0
 62
     7
100
AcDbLine
 10
-353.2055025
 20
125.438496
 30
0.0
 11
-315.2055025
 21
125.438496
 31
0.0
  0
LINE
  5
114
330
1F
100
AcDbEntity
  8
0
 62
     7
100
AcDbLine
 10
-372.0054905
 20
125.438496
 30
0.0
 11
-410.0054905
 21
125.438496
 31
0.0
  0
CIRCLE
  5
115
330
1F
100
AcDbEntity
  8
0
 62
     7
100
AcDbCircle
 10
-43.06430649999996
 20
108.938496
 30
0.0
 40
16.5
  0
CIRCLE
  5
116
330
1F
100
AcDbEntity
  8
0
 62
     7
100
AcDbCircle
 10
-43.06430649999996
 20
108.938496
 30
0.0
 40
80.0
  0
ARC
  5
117
330
1F
100
AcDbEntity
  8
0
 62
     7
100
AcDbCircle
 10
-43.06430649999996
 20
108.938496
 30
0.0
 40
82.5
100
AcDbArc
 50
0.0
 51
89.30548820000003
  0
ARC
  5
118
330
1F
100
AcDbEntity
  8
0
 62
     7
100
AcDbCircle
 10
-43.06430649999996
 20
108.938496
 30
0.0
 40
125.0
100
AcDbArc
 50
0.0
 51
89.54162880000003
  0
ARC
  5
119
330
1F
100
AcDbEntity
  8
0
 62
     7
100
AcDbCircle
 10
-125.1633565
 20
168.586916
 30
0.0
 40
13.0
100
AcDbArc
 50
112.13743
 51
224.99994
  0
ARC
  5
11A
330
1F
100
AcDbEntity
  8
0
 62
     7
100
AcDbCircle
 10
-140.5606165
 20
206.434836
 30
0.0
 40
27.859982
100
AcDbArc
 50
292.13741
 51
308.48382
  0
ARC
  5
11B
330
1F
100
AcDbEntity
  8
0
 62
     7
100
AcDbCircle
 10
-87.31546449999996
 20
153.189716
 30
0.0
 40
27.859982
100
AcDbArc
 50
134.99992
 51
157.8625300000001
  0
ARC
  5
11C
330
1F
100
AcDbEntity
  8
0
 62
     7
100
AcDbCircle
 10
-125.1633565
 20
168.586916
 30
0.0
 40
13.0
100
AcDbArc
 50
224.99997
 51
337.8625
  0
CIRCLE
  5
11D
330
1F
100
AcDbEntity
  8
0
 62
     7
100
AcDbCircle
 10
-125.1633565
 20
168.586916
 30
0.0
 40
4.77
  0
ARC
  5
11E
330
1F
100
AcDbEntity
  8
0
 62
     7
100
AcDbCircle
 10
-87.31546449999996
 20
153.189716
 30
0.0
 40
27.859982
100
AcDbArc
 50
128.40364
 51
135.0000300000001
  0
ARC
  5
11F
330
1F
100
AcDbEntity
  8
0
 62
     7
100
AcDbCircle
 10
-125.1633565
 20
168.586916
 30
0.0
 40
15.0500002
100
AcDbArc
 50
87.71775569999998
 51
182.8395499999999
  0
ARC
  5
120
330
1F
100
AcDbEntity
  8
0
 62
     7
100
AcDbCircle
 10
-157.0290565
 20
167.006416
 30
0.0
 40
16.8548774
100
AcDbArc
 50
332.99999
 51
362.8395282
  0
ARC
  5
121
330
1F
100
AcDbEntity
  8
0
 62
     7
100
AcDbCircle
 10
-107.7118565
 20
141.877996
 30
0.0
 40
16.8548774
100
AcDbArc
 50
123.16039
 51
152.9999300000001
  0
ARC
  5
122
330
1F
100
AcDbEntity
  8
0
 62
     7
100
AcDbCircle
 10
-125.1633565
 20
168.586916
 30
0.0
 40
15.0500002
100
AcDbArc
 50
303.1604300000001
 51
362.2822394000001
  0
ARC
  5
123
330
1F
100
AcDbEntity
  8
0
 62
     7
100
AcDbCircle
 10
-157.0290565
 20
167.006416
 30
0.0
 40
16.8548774
100
AcDbArc
 50
303.1604500000001
 51
332.99999
  0
ARC
  5
124
330
1F
100
AcDbEntity
  8
0
 62
     7
100
AcDbCircle
 10
-139.5775565
 20
140.2974959999999
 30
0.0
 40
15.0500002
100
AcDbArc
 50
123.16041
 51
218.2821999999999
  0
ARC
  5
125
330
1F
100
AcDbEntity
  8
0
 62
     7
100
AcDbCircle
 10
-139.5775565
 20
140.2974959999999
 30
0.0
 40
15.0500002
100
AcDbArc
 50
303.7177400000001
 51
362.8395555
  0
ARC
  5
126
330
1F
100
AcDbEntity
  8
0
 62
     7
100
AcDbCircle
 10
-107.7118565
 20
141.877996
 30
0.0
 40
16.8548774
100
AcDbArc
 50
153.00003
 51
182.83957
  0
ARC
  5
127
330
1F
100
AcDbEntity
  8
0
 62
     7
100
AcDbCircle
 10
-125.1633565
 20
49.29003599999996
 30
0.0
 40
15.0500002
100
AcDbArc
 50
15.160428
 51
74.28224090000005
  0
ARC
  5
128
330
1F
100
AcDbEntity
  8
0
 62
     7
100
AcDbCircle
 10
-133.5072365
 20
18.49555599999997
 30
0.0
 40
16.8548774
100
AcDbArc
 50
37.15405000000002
 51
44.999994
  0
ARC
  5
129
330
1F
100
AcDbEntity
  8
0
 62
     7
100
AcDbCircle
 10
-125.1633565
 20
49.29003599999996
 30
0.0
 40
13.0
100
AcDbArc
 50
184.13745
 51
296.99997
  0
ARC
  5
12A
330
1F
100
AcDbEntity
  8
0
 62
     7
100
AcDbCircle
 10
-165.9168364999999
 20
46.34201599999997
 30
0.0
 40
27.859982
100
AcDbArc
 50
4.137417800000001
 51
27.00001400000003
  0
ARC
  5
12B
330
1F
100
AcDbEntity
  8
0
 62
     7
100
AcDbCircle
 10
-98.82407049999995
 20
80.52751599999996
 30
0.0
 40
27.859982
100
AcDbArc
 50
206.99994
 51
229.86255
  0
ARC
  5
12C
330
1F
100
AcDbEntity
  8
0
 62
     7
100
AcDbCircle
 10
-125.1633565
 20
49.29003599999996
 30
0.0
 40
13.0
100
AcDbArc
 50
296.99998
 51
409.862502
  0
CIRCLE
  5
12D
330
1F
100
AcDbEntity
  8
0
 62
     7
100
AcDbCircle
 10
-125.1633565
 20
49.29003599999996
 30
0.0
 40
4.77
  0
ARC
  5
12E
330
1F
100
AcDbEntity
  8
0
 62
     7
100
AcDbCircle
 10
-165.9168364999999
 20
46.34201599999997
 30
0.0
 40
27.859982
100
AcDbArc
 50
26.99995999999998
 51
49.86255600000001
  0
ARC
  5
12F
330
1F
100
AcDbEntity
  8
0
 62
     7
100
AcDbCircle
 10
-139.5775565
 20
77.57947599999997
 30
0.0
 40
13.0
100
AcDbArc
 50
116.99999
 51
229.8625299999999
  0
ARC
  5
130
330
1F
100
AcDbEntity
  8
0
 62
     7
100
AcDbCircle
 10
-98.82407049999995
 20
80.52751599999996
 30
0.0
 40
27.859982
100
AcDbArc
 50
184.1374499999999
 51
207.0000499999999
  0
ARC
  5
131
330
1F
100
AcDbEntity
  8
0
 62
     7
100
AcDbCircle
 10
-139.5775565
 20
77.57947599999997
 30
0.0
 40
13.0
100
AcDbArc
 50
4.137458800000037
 51
116.99999
  0
CIRCLE
  5
132
330
1F
100
AcDbEntity
  8
0
 62
     7
100
AcDbCircle
 10
-139.5775565
 20
77.57947599999997
 30
0.0
 40
4.77
  0
ARC
  5
133
330
1F
100
AcDbEntity
  8
0
 62
     7
100
AcDbCircle
 10
-125.1633565
 20
49.29003599999996
 30
0.0
 40
15.0500002
100
AcDbArc
 50
159.71776
 51
254.8395500000001
  0
ARC
  5
134
330
1F
100
AcDbEntity
  8
0
 62
     7
100
AcDbCircle
 10
-133.5072365
 20
18.49555599999997
 30
0.0
 40
16.8548774
100
AcDbArc
 50
44.999994
 51
74.83953
  0
ARC
  5
135
330
1F
100
AcDbEntity
  8
0
 62
     7
100
AcDbCircle
 10
-94.36884049999995
 20
57.63387599999996
 30
0.0
 40
16.8548774
100
AcDbArc
 50
195.1604099999999
 51
218.6336599999999
  0
ARC
  5
136
330
1F
100
AcDbEntity
  8
0
 62
     7
100
AcDbCircle
 10
-144.5443165
 20
108.938496
 30
0.0
 40
15.0500002
100
AcDbArc
 50
339.1604300000001
 51
398.2822399999999
  0
ARC
  5
137
330
1F
100
AcDbEntity
  8
0
 62
     7
100
AcDbCircle
 10
-114.7266365
 20
97.58823599999997
 30
0.0
 40
16.8548774
100
AcDbArc
 50
189.0000499999999
 51
218.8395899999999
  0
ARC
  5
138
330
1F
100
AcDbEntity
  8
0
 62
     7
100
AcDbCircle
 10
-139.5775164999999
 20
77.57939599999995
 30
0.0
 40
15.0500002
100
AcDbArc
 50
339.71774
 51
398.8395570000001
  0
ARC
  5
139
330
1F
100
AcDbEntity
  8
0
 62
     7
100
AcDbCircle
 10
-169.3952165
 20
88.92963599999999
 30
0.0
 40
16.8548774
100
AcDbArc
 50
339.16045
 51
368.99999337
  0
ARC
  5
13A
330
1F
100
AcDbEntity
  8
0
 62
     7
100
AcDbCircle
 10
-139.5775164999999
 20
77.57939599999995
 30
0.0
 40
15.0500002
100
AcDbArc
 50
159.16041
 51
254.28221
  0
ARC
  5
13B
330
1F
100
AcDbEntity
  8
0
 62
     7
100
AcDbCircle
 10
-144.5443165
 20
108.938496
 30
0.0
 40
13.0
100
AcDbArc
 50
148.1374299999999
 51
260.99994
  0
ARC
  5
13C
330
1F
100
AcDbEntity
  8
0
 62
     7
100
AcDbCircle
 10
-179.2473765
 20
130.507796
 30
0.0
 40
27.859982
100
AcDbArc
 50
328.13742
 51
351.0000099999999
  0
ARC
  5
13D
330
1F
100
AcDbEntity
  8
0
 62
     7
100
AcDbCircle
 10
-104.8744565
 20
118.728276
 30
0.0
 40
27.859982
100
AcDbArc
 50
170.9999200000001
 51
193.8625300000001
  0
ARC
  5
13E
330
1F
100
AcDbEntity
  8
0
 62
     7
100
AcDbCircle
 10
-144.5443165
 20
108.938496
 30
0.0
 40
13.0
100
AcDbArc
 50
260.99998
 51
373.862501
  0
CIRCLE
  5
13F
330
1F
100
AcDbEntity
  8
0
 62
     7
100
AcDbCircle
 10
-144.5443165
 20
108.938496
 30
0.0
 40
4.77
  0
ARC
  5
140
330
1F
100
AcDbEntity
  8
0
 62
     7
100
AcDbCircle
 10
-179.2473765
 20
130.507796
 30
0.0
 40
27.859982
100
AcDbArc
 50
350.99996
 51
373.862555
  0
ARC
  5
141
330
1F
100
AcDbEntity
  8
0
 62
     7
100
AcDbCircle
 10
-139.5775164999999
 20
140.297596
 30
0.0
 40
13.0
100
AcDbArc
 50
80.99999170000001
 51
193.86253
  0
ARC
  5
142
330
1F
100
AcDbEntity
  8
0
 62
     7
100
AcDbCircle
 10
-104.8744565
 20
118.728276
 30
0.0
 40
27.859982
100
AcDbArc
 50
148.1374300000001
 51
171.0000300000001
  0
ARC
  5
143
330
1F
100
AcDbEntity
  8
0
 62
     7
100
AcDbCircle
 10
-139.5775164999999
 20
140.297596
 30
0.0
 40
13.0
100
AcDbArc
 50
328.1374599999999
 51
440.9999917
  0
CIRCLE
  5
144
330
1F
100
AcDbEntity
  8
0
 62
     7
100
AcDbCircle
 10
-139.5775164999999
 20
140.297596
 30
0.0
 40
4.77
  0
ARC
  5
145
330
1F
100
AcDbEntity
  8
0
 62
     7
100
AcDbCircle
 10
-144.5443165
 20
108.938496
 30
0.0
 40
15.0500002
100
AcDbArc
 50
123.7177600000001
 51
218.83955
  0
ARC
  5
146
330
1F
100
AcDbEntity
  8
0
 62
     7
100
AcDbCircle
 10
-169.3952165
 20
88.92963599999999
 30
0.0
 40
16.8548774
100
AcDbArc
 50
8.999993369999958
 51
38.83952899999995
  0
ARC
  5
147
330
1F
100
AcDbEntity
  8
0
 62
     7
100
AcDbCircle
 10
-114.7266365
 20
97.58823599999997
 30
0.0
 40
16.8548774
100
AcDbArc
 50
159.16039
 51
188.99993
  0
ARC
  5
148
330
1F
100
AcDbEntity
  8
0
 62
     7
100
AcDbCircle
 10
-43.06430649999996
 20
108.938496
 30
0.0
 40
125.0
100
AcDbArc
 50
225.1783599999999
 51
360.0
  0
ARC
  5
149
330
1F
100
AcDbEntity
  8
0
 62
     7
100
AcDbCircle
 10
-43.06430649999996
 20
108.938496
 30
0.0
 40
82.5
100
AcDbArc
 50
221.54883
 51
360.0
  0
CIRCLE
  5
14A
330
1F
100
AcDbEntity
  8
0
 62
     7
100
AcDbCircle
 10
-568.5619164999999
 20
108.938496
 30
0.0
 40
16.5
  0
ARC
  5
14B
330
1F
100
AcDbEntity
  8
0
 62
     7
100
AcDbCircle
 10
-43.06430649999996
 20
108.938496
 30
0.0
 40
82.5
100
AcDbArc
 50
90.69452990000002
 51
135.6982500000001
  0
ARC
  5
14C
330
1F
100
AcDbEntity
  8
0
 62
     7
100
AcDbCircle
 10
-43.06430649999996
 20
108.938496
 30
0.0
 40
125.0
100
AcDbArc
 50
90.45838990000001
 51
133.91785
  0
ARC
  5
14D
330
1F
100
AcDbEntity
  8
0
 62
     7
100
AcDbCircle
 10
-133.0308725
 20
190.7510479999999
 30
0.0
 40
8.852652300000001
100
AcDbArc
 50
50.33913100000004
 51
68.36590390000004
  0
ARC
  5
14E
330
1F
100
AcDbEntity
  8
0
 62
     7
100
AcDbCircle
 10
-132.2331505
 20
192.027866
 30
0.0
 40
7.36331146
100
AcDbArc
 50
27.12527220000014
 51
48.77643400000017
  0
ARC
  5
14F
330
1F
100
AcDbEntity
  8
0
 62
     7
100
AcDbCircle
 10
-136.2451165
 20
189.903188
 30
0.0
 40
11.9028896
100
AcDbArc
 50
14.02310970000011
 51
27.42266810000006
  0
ARC
  5
150
330
1F
100
AcDbEntity
  8
0
 62
     7
100
AcDbCircle
 10
-142.6441905
 20
188.315384
 30
0.0
 40
18.4960063
100
AcDbArc
 50
5.367215990000073
 51
13.99183519999997
  0
ARC
  5
151
330
1F
100
AcDbEntity
  8
0
 62
     7
100
AcDbCircle
 10
-51.37381749999994
 20
196.627426
 30
0.0
 40
73.1521702
100
AcDbArc
 50
185.1622339999999
 51
187.342972
  0
ARC
  5
152
330
1F
100
AcDbEntity
  8
0
 62
     7
100
AcDbCircle
 10
-113.6994405
 20
188.574892
 30
0.0
 40
10.308526
100
AcDbArc
 50
187.2276479999999
 51
202.7062259999998
  0
ARC
  5
153
330
1F
100
AcDbEntity
  8
0
 62
     7
100
AcDbCircle
 10
-116.7152025
 20
187.459322
 30
0.0
 40
7.09716448
100
AcDbArc
 50
203.7961059999999
 51
226.2702030000001
  0
ARC
  5
154
330
1F
100
AcDbEntity
  8
0
 62
     7
100
AcDbCircle
 10
-117.7352445
 20
186.2689259999999
 30
0.0
 40
5.5325282
100
AcDbArc
 50
225.3818090000001
 51
254.2134110000001
  0
ARC
  5
155
330
1F
100
AcDbEntity
  8
0
 62
     7
100
AcDbCircle
 10
-100.1549454999999
 20
294.087466
 30
0.0
 40
114.740817
100
AcDbArc
 50
260.4251849999999
 51
261.8152
  0
ARC
  5
156
330
1F
100
AcDbEntity
  8
0
 62
     7
100
AcDbCircle
 10
-119.1164004999999
 20
171.654252
 30
0.0
 40
9.2421273
100
AcDbArc
 50
56.23990730000006
 51
73.49147550000009
  0
ARC
  5
157
330
1F
100
AcDbEntity
  8
0
 62
     7
100
AcDbCircle
 10
-108.8328424999999
 20
187.182436
 30
0.0
 40
9.38265028
100
AcDbArc
 50
236.727288
 51
253.7275089999999
  0
ARC
  5
158
330
1F
100
AcDbEntity
  8
0
 62
     7
100
AcDbCircle
 10
-100.3855015
 20
225.126756
 30
0.0
 40
48.2399498
100
AcDbArc
 50
256.725839
 51
260.0320849999999
  0
ARC
  5
159
330
1F
100
AcDbEntity
  8
0
 62
     7
100
AcDbCircle
 10
-109.8402625
 20
171.126712
 30
0.0
 40
6.58163708
100
AcDbArc
 50
56.10975600000013
 51
80.33841800000013
  0
ARC
  5
15A
330
1F
100
AcDbEntity
  8
0
 62
     7
100
AcDbCircle
 10
-110.4491005
 20
170.798244
 30
0.0
 40
7.20100516
100
AcDbArc
 50
31.40670180000004
 51
53.54489600000004
  0
ARC
  5
15B
330
1F
100
AcDbEntity
  8
0
 62
     7
100
AcDbCircle
 10
-112.8439105
 20
169.23973
 30
0.0
 40
10.0574434
100
AcDbArc
 50
16.00663649999996
 51
31.87509649999998
  0
ARC
  5
15C
330
1F
100
AcDbEntity
  8
0
 62
     7
100
AcDbCircle
 10
-124.5125005
 20
166.00914
 30
0.0
 40
22.164754
100
AcDbArc
 50
8.517296430000053
 51
15.71644560000001
  0
ARC
  5
15D
330
1F
100
AcDbEntity
  8
0
 62
     7
100
AcDbCircle
 10
-49.71519649999996
 20
177.211744
 30
0.0
 40
53.4668196
100
AcDbArc
 50
188.5183429999999
 51
191.501814
  0
ARC
  5
15E
330
1F
100
AcDbEntity
  8
0
 62
     7
100
AcDbCircle
 10
-122.2810725
 20
16.14798199999996
 30
0.0
 40
9.805790419999999
100
AcDbArc
 50
139.296036
 51
155.1119460000001
  0
ARC
  5
15F
330
1F
100
AcDbEntity
  8
0
 62
     7
100
AcDbCircle
 10
-118.7812384999999
 20
13.04606799999996
 30
0.0
 40
14.4820566
100
AcDbArc
 50
128.319073
 51
139.0226240000001
  0
ARC
  5
160
330
1F
100
AcDbEntity
  8
0
 62
     7
100
AcDbCircle
 10
-112.7589545
 20
5.58682399999995
 30
0.0
 40
24.0686226
100
AcDbArc
 50
122.113014
 51
128.5568210000001
  0
ARC
  5
161
330
1F
100
AcDbEntity
  8
0
 62
     7
100
AcDbCircle
 10
-110.5135845
 20
2.028733999999957
 30
0.0
 40
28.2759492
100
AcDbArc
 50
116.649002
 51
122.134051
  0
ARC
  5
162
330
1F
100
AcDbEntity
  8
0
 62
     7
100
AcDbCircle
 10
-107.9785945
 20
-3.024943000000036
 30
0.0
 40
33.9297824
100
AcDbArc
 50
112.07528
 51
116.647326
  0
ARC
  5
163
330
1F
100
AcDbEntity
  8
0
 62
     7
100
AcDbCircle
 10
-93.89281949999995
 20
-38.80413200000004
 30
0.0
 40
72.3808786
100
AcDbArc
 50
109.621174
 51
111.76376
  0
ARC
  5
164
330
1F
100
AcDbEntity
  8
0
 62
     7
100
AcDbCircle
 10
-136.5206224999999
 20
80.74792199999999
 30
0.0
 40
54.5435998
100
AcDbArc
 50
289.6285369999999
 51
292.4719579999999
  0
ARC
  5
165
330
1F
100
AcDbEntity
  8
0
 62
     7
100
AcDbCircle
 10
-119.6685645
 20
40.34187599999996
 30
0.0
 40
10.765097
100
AcDbArc
 50
291.790817
 51
306.198427
  0
ARC
  5
166
330
1F
100
AcDbEntity
  8
0
 62
     7
100
AcDbCircle
 10
-117.2405045
 20
36.67843999999997
 30
0.0
 40
6.37808636
100
AcDbArc
 50
308.032913
 51
332.333868
  0
ARC
  5
167
330
1F
100
AcDbEntity
  8
0
 62
     7
100
AcDbCircle
 10
-124.3971285
 20
40.47601199999997
 30
0.0
 40
14.4798199
100
AcDbArc
 50
332.17387
 51
342.8833389999999
  0
ARC
  5
168
330
1F
100
AcDbEntity
  8
0
 62
     7
100
AcDbCircle
 10
-177.2765064999999
 20
57.36445799999996
 30
0.0
 40
69.9899944
100
AcDbArc
 50
342.410945
 51
344.627025
  0
ARC
  5
169
330
1F
100
AcDbEntity
  8
0
 62
     7
100
AcDbCircle
 10
-293.4154945
 20
89.46107599999996
 30
0.0
 40
190.482516
100
AcDbArc
 50
344.579014
 51
345.393773
  0
ARC
  5
16A
330
1F
100
AcDbEntity
  8
0
 62
     7
100
AcDbCircle
 10
238.7614015
 20
-49.33265900000004
 30
0.0
 40
359.495624
100
AcDbArc
 50
164.945813
 51
165.376766
  0
ARC
  5
16B
330
1F
100
AcDbEntity
  8
0
 62
     7
100
AcDbCircle
 10
62.64228030000005
 20
-2.030599000000024
 30
0.0
 40
177.134935
100
AcDbArc
 50
164.049206
 51
164.9247350000001
  0
ARC
  5
16C
330
1F
100
AcDbEntity
  8
0
 62
     7
100
AcDbCircle
 10
14.84236070000004
 20
11.62668599999995
 30
0.0
 40
127.422223
100
AcDbArc
 50
162.830719
 51
164.047171
  0
ARC
  5
16D
330
1F
100
AcDbEntity
  8
0
 62
     7
100
AcDbCircle
 10
-68.68498049999997
 20
37.82040799999996
 30
0.0
 40
39.8865644
100
AcDbArc
 50
159.473194
 51
163.3615330000001
  0
ARC
  5
16E
330
1F
100
AcDbEntity
  8
0
 62
     7
100
AcDbCircle
 10
-95.02514549999995
 20
47.70609199999996
 30
0.0
 40
11.7524329
100
AcDbArc
 50
146.383798
 51
159.580258
  0
CIRCLE
  5
16F
330
1F
100
AcDbEntity
  8
0
 62
     7
100
AcDbCircle
 10
-300.6054965
 20
-5.06151200000005
 30
0.0
 40
6.5
  0
CIRCLE
  5
170
330
1F
100
AcDbEntity
  8
0
 62
     7
100
AcDbCircle
 10
-300.6054965
 20
-5.06151200000005
 30
0.0
 40
5.6499996
  0
CIRCLE
  5
171
330
1F
100
AcDbEntity
  8
0
 62
     7
100
AcDbCircle
 10
-424.6054965
 20
-5.06151200000005
 30
0.0
 40
6.5
  0
CIRCLE
  5
172
330
1F
100
AcDbEntity
  8
0
 62
     7
100
AcDbCircle
 10
-424.6054965
 20
-5.06151200000005
 30
0.0
 40
5.6499996
  0
ARC
  5
173
330
1F
100
AcDbEntity
  8
0
 62
     7
100
AcDbCircle
 10
-424.6054965
 20
-5.06151200000005
 30
0.0
 40
9.0
100
AcDbArc
 50
359.9999500000001
 51
539.99996
  0
ARC
  5
174
330
1F
100
AcDbEntity
  8
0
 62
     7
100
AcDbCircle
 10
-430.6054965
 20
-6.57622200000003
 30
0.0
 40
6.0
100
AcDbArc
 50
179.9999799999999
 51
224.9998999999997
  0
ARC
  5
175
330
1F
100
AcDbEntity
  8
0
 62
     7
100
AcDbCircle
 10
-427.1202165
 20
-10.06151200000005
 30
0.0
 40
6.0
100
AcDbArc
 50
224.9998999999997
 51
269.9999600000003
  0
ARC
  5
176
330
1F
100
AcDbEntity
  8
0
 62
     7
100
AcDbCircle
 10
-300.6054965
 20
-5.06151200000005
 30
0.0
 40
9.0
100
AcDbArc
 50
359.9999500000001
 51
539.99996
  0
ARC
  5
177
330
1F
100
AcDbEntity
  8
0
 62
     7
100
AcDbCircle
 10
-294.6054965
 20
-6.57622200000003
 30
0.0
 40
6.0
100
AcDbArc
 50
314.9999999999998
 51
359.9999500000001
  0
ARC
  5
178
330
1F
100
AcDbEntity
  8
0
 62
     7
100
AcDbCircle
 10
-298.0907965
 20
-10.06151200000005
 30
0.0
 40
6.0
100
AcDbArc
 50
269.9999599999998
 51
314.9999999999998
  0
ARC
  5
179
330
1F
100
AcDbEntity
  8
0
 62
     7
100
AcDbCircle
 10
-430.6054965
 20
224.453196
 30
0.0
 40
6.0
100
AcDbArc
 50
135.0000400000003
 51
179.9999599999998
  0
ARC
  5
17A
330
1F
100
AcDbEntity
  8
0
 62
     7
100
AcDbCircle
 10
-427.1202165
 20
227.938496
 30
0.0
 40
6.0
100
AcDbArc
 50
89.99998179999966
 51
135.0000400000003
  0
CIRCLE
  5
17B
330
1F
100
AcDbEntity
  8
0
 62
     7
100
AcDbCircle
 10
-424.6054965
 20
222.938496
 30
0.0
 40
4.5
  0
ARC
  5
17C
330
1F
100
AcDbEntity
  8
0
 62
     7
100
AcDbCircle
 10
-424.6054965
 20
222.938496
 30
0.0
 40
9.0
100
AcDbArc
 50
179.9999800000002
 51
360.0000000000001
  0
ARC
  5
17D
330
1F
100
AcDbEntity
  8
0
 62
     7
100
AcDbCircle
 10
-403.6054965
 20
225.438496
 30
0.0
 40
2.0
100
AcDbArc
 50
89.9999818000002
 51
179.9999599999993
  0
ARC
  5
17E
330
1F
100
AcDbEntity
  8
0
 62
     7
100
AcDbCircle
 10
-314.6054965
 20
225.438496
 30
0.0
 40
2.0
100
AcDbArc
 50
0.0
 51
89.9999818000002
  0
ARC
  5
17F
330
1F
100
AcDbEntity
  8
0
 62
     7
100
AcDbCircle
 10
-300.6054965
 20
222.938496
 30
0.0
 40
12.0
100
AcDbArc
 50
179.9999799999999
 51
204.72391
  0
ARC
  5
180
330
1F
100
AcDbEntity
  8
0
 62
     7
100
AcDbCircle
 10
-294.6054965
 20
224.453196
 30
0.0
 40
6.0
100
AcDbArc
 50
0.0
 51
44.99994999999976
  0
ARC
  5
181
330
1F
100
AcDbEntity
  8
0
 62
     7
100
AcDbCircle
 10
-298.0907965
 20
227.938496
 30
0.0
 40
6.0
100
AcDbArc
 50
44.99994999999976
 51
89.9999818000002
  0
CIRCLE
  5
182
330
1F
100
AcDbEntity
  8
0
 62
     7
100
AcDbCircle
 10
-300.6054965
 20
222.938496
 30
0.0
 40
4.5
  0
ARC
  5
183
330
1F
100
AcDbEntity
  8
0
 62
     7
100
AcDbCircle
 10
-300.6054965
 20
222.938496
 30
0.0
 40
9.0
100
AcDbArc
 50
179.99996
 51
360.0000100179121
  0
LINE
  5
184
330
1F
100
AcDbEntity
  8
0
  6
CENTER
 62
     7
100
AcDbLine
 10
-309.2055164999999
 20
197.188496
 30
0.0
 11
-309.2055164999999
 21
117.188496
 31
0.0
  0
LINE
  5
185
330
1F
100
AcDbEntity
  8
0
  6
CENTER
 62
     7
100
AcDbLine
 10
-416.0054765
 20
197.188496
 30
0.0
 11
-416.0054765
 21
117.188496
 31
0.0
  0
LINE
  5
186
330
1F
100
AcDbEntity
  8
0
  6
CENTER
 62
     7
100
AcDbLine
 10
-462.6054965
 20
108.938496
 30
0.0
 11
-262.6054965
 21
108.938496
 31
0.0
  0
LINE
  5
187
330
1F
100
AcDbEntity
  8
0
  6
CENTER
 62
     7
100
AcDbLine
 10
-43.06430649999996
 20
243.938496
 30
0.0
 11
-43.06430649999996
 21
-26.06151200000005
 31
0.0
  0
LINE
  5
188
330
1F
100
AcDbEntity
  8
0
  6
CENTER
 62
     7
100
AcDbLine
 10
-178.0642965
 20
108.938496
 30
0.0
 11
91.93569450000004
 21
108.938496
 31
0.0
  0
LINE
  5
189
330
1F
100
AcDbEntity
  8
0
  6
CENTER
 62
     7
100
AcDbLine
 10
-568.5619164999999
 20
128.938496
 30
0.0
 11
-568.5619164999999
 21
88.93849599999996
 31
0.0
  0
LINE
  5
18A
330
1F
100
AcDbEntity
  8
0
  6
CENTER
 62
     7
100
AcDbLine
 10
-588.5619164999999
 20
108.938496
 30
0.0
 11
-548.5619164999999
 21
108.938496
 31
0.0
  0
CIRCLE
  5
18B
330
1F
100
AcDbEntity
  8
0
  6
CENTER
 62
     7
100
AcDbCircle
 10
-43.06430649999996
 20
108.938496
 30
0.0
 40
101.48001
  0
LINE
  5
18C
330
1F
100
AcDbEntity
  8
0
  6
DIVIDE
 62
     7
100
AcDbLine
 10
-303.9555164999999
 20
188.938496
 30
0.0
 11
-303.9555164999999
 21
125.438496
 31
0.0
  0
LINE
  5
18D
330
1F
100
AcDbEntity
  8
0
  6
DIVIDE
 62
     7
100
AcDbLine
 10
-314.4555164999999
 20
188.938496
 30
0.0
 11
-314.4555164999999
 21
125.438496
 31
0.0
  0
LINE
  5
18E
330
1F
100
AcDbEntity
  8
0
  6
DIVIDE
 62
     7
100
AcDbLine
 10
-421.2554765
 20
188.938496
 30
0.0
 11
-421.2554765
 21
125.438496
 31
0.0
  0
LINE
  5
18F
330
1F
100
AcDbEntity
  8
0
  6
DIVIDE
 62
     7
100
AcDbLine
 10
-410.7554964999999
 20
188.938496
 30
0.0
 11
-410.7554964999999
 21
125.438496
 31
0.0
  0
LINE
  5
190
330
1F
100
AcDbEntity
  8
0
  6
DIVIDE
 62
     7
100
AcDbLine
 10
-303.2055025
 20
188.938496
 30
0.0
 11
-303.2055025
 21
125.438496
 31
0.0
  0
LINE
  5
191
330
1F
100
AcDbEntity
  8
0
  6
DIVIDE
 62
     7
100
AcDbLine
 10
-315.2055025
 20
188.938496
 30
0.0
 11
-315.2055025
 21
125.438496
 31
0.0
  0
LINE
  5
192
330
1F
100
AcDbEntity
  8
0
  6
DIVIDE
 62
     7
100
AcDbLine
 10
-410.0054905
 20
188.938496
 30
0.0
 11
-410.0054905
 21
125.438496
 31
0.0
  0
LINE
  5
193
330
1F
100
AcDbEntity
  8
0
  6
DIVIDE
 62
     7
100
AcDbLine
 10
-422.0054584999999
 20
188.938496
 30
0.0
 11
-422.0054584999999
 21
125.438496
 31
0.0
  0
TEXT
  5
195
330
1F
100
AcDbEntity
  8
0
 62
     7
100
AcDbText
 10
-240.4701043208756
 20
-28.11156601250002
 30
0.0
 40
15.0
  1
ＴＳＵＢＡＫＩ
 41
0.6684682360819537
  7
FDASTYLE0
 72
     5
 11
-138.9094763835587
 21
-28.11156601250002
 31
0.0
100
AcDbText
  0
TEXT
  5
196
330
1F
100
AcDbEntity
  8
0
 62
     7
100
AcDbText
 10
-240.4701043208756
 20
-50.61156601250002
 30
0.0
 40
15.0
  1
CR10020
 41
0.7756842526391093
  7
FDASTYLE0
 72
     5
 11
-138.9094763835587
 21
-50.61156601250002
 31
0.0
100
AcDbText
  0
VIEWPORT
  5
2B
330
1B
100
AcDbEntity
 67
     1
  8
0
100
AcDbViewport
 10
-248.313111
 20
96.66346499374998
 30
0.0
 40
2041.492833
 41
883.6501860375
 68
     1
 69
     1
1001
ACAD
1000
MVIEW
1002
{
1070
    16
1010
0.0
1020
0.0
1030
0.0
1010
0.0
1020
0.0
1030
1.0
1040
0.0
1040
883.6501860375
1040
-248.313111
1040
96.66346499374998
1040
50.0
1040
0.0
1040
0.0
1070
     0
1070
   100
1070
     0
1070
     1
1070
     0
1070
     0
1070
     0
1070
     0
1040
0.0
1040
0.0
1040
0.0
1040
0.5
1040
0.5
1040
0.0
1040
0.0
1070
     0
1002
{
1002
}
1002
}
  0
ENDSEC
  0
SECTION
  2
OBJECTS
  0
DICTIONARY
  5
C
330
0
100
AcDbDictionary
  3
ACAD_GROUP
350
D
  3
ACAD_LAYOUT
350
1A
  3
ACAD_MLINESTYLE
350
17
  3
ACAD_PLOTSETTINGS
350
19
  3
ACDBHEADERROUNDTRIPXREC
350
197
  0
DICTIONARY
  5
D
102
{ACAD_REACTORS
330
C
102
}
330
C
100
AcDbDictionary
  0
DICTIONARY
  5
1A
102
{ACAD_REACTORS
330
C
102
}
330
C
100
AcDbDictionary
  0
DICTIONARY
  5
17
102
{ACAD_REACTORS
330
C
102
}
330
C
100
AcDbDictionary
  3
STANDARD
350
18
  0
DICTIONARY
  5
19
102
{ACAD_REACTORS
330
C
102
}
330
C
100
AcDbDictionary
  0
DICTIONARY
  5
197
102
{ACAD_REACTORS
330
C
102
}
330
C
100
AcDbDictionary
  3
CEPSNTYPE
350
1A0
  3
DIMSTYLEDATA
350
1B6
  3
FINGERPRINTGUID
350
1A1
  3
HYPERLINKBASE
350
19A
  3
INSUNITS
350
19F
  3
LAYOUTDICT
350
19C
  3
LWETCUNION
350
19E
  3
PLOTSETDICT
350
19D
  3
PSVPSCALE
350
1A3
  3
PUCSBASE
350
1A6
  3
PUCSORGBACK
350
1AC
  3
PUCSORGBOTTOM
350
1A8
  3
PUCSORGFRONT
350
1AB
  3
PUCSORGLEFT
350
1A9
  3
PUCSORGRIGHT
350
1AA
  3
PUCSORGTOP
350
1A7
  3
PUCSORTHOREF
350
1A4
  3
PUCSORTHOVIEW
350
1A5
  3
STYLESHEET
350
19B
  3
TSTACKALIGN
350
198
  3
TSTACKSIZE
350
199
  3
UCSBASE
350
1AF
  3
UCSORGBACK
350
1B5
  3
UCSORGBOTTOM
350
1B1
  3
UCSORGFRONT
350
1B4
  3
UCSORGLEFT
350
1B2
  3
UCSORGRIGHT
350
1B3
  3
UCSORGTOP
350
1B0
  3
UCSORTHOREF
350
1AD
  3
UCSORTHOVIEW
350
1AE
  3
VERSIONGUID
350
1A2
  0
MLINESTYLE
  5
18
102
{ACAD_REACTORS
330
17
102
}
330
17
100
AcDbMlineStyle
  2
Standard
 70
     0
  3

 62
   256
 51
90.0
 52
90.0
 71
     2
 49
0.5
 62
   256
  6
BYLAYER
 49
-0.5
 62
   256
  6
BYLAYER
  0
XRECORD
  5
1A0
102
{ACAD_REACTORS
330
197
102
}
330
197
100
AcDbXrecord
 90
        0
  0
XRECORD
  5
1B6
102
{ACAD_REACTORS
330
197
102
}
330
197
100
AcDbXrecord
1000
DSTYLE
1002
{
1070
   171
 70
     2
1070
   143
 40
25.4
1070
   274
 70
     2
1070
   141
 40
0.09
1070
   271
 70
     4
1070
    43
 40
0.38
1070
    44
 40
0.18
1070
   278
 70
    46
1070
    42
 40
0.0625
1070
   147
 40
0.09
1070
    77
 70
     3
1070
   272
 70
     4
1070
    73
 70
     1
1070
   172
 70
     0
1070
    74
 70
     1
1070
   283
 70
     1
1070
   340
340
11
1070
   140
 40
0.18
1070
   284
 70
     0
1070
    78
 70
     0
1002
}
  0
XRECORD
  5
1A1
102
{ACAD_REACTORS
330
197
102
}
330
197
100
AcDbXrecord
  1
{095C51F7-D368-41BA-B80F-1F3D4832E348}
  0
XRECORD
  5
19A
102
{ACAD_REACTORS
330
197
102
}
330
197
100
AcDbXrecord
  1

  0
XRECORD
  5
19F
102
{ACAD_REACTORS
330
197
102
}
330
197
100
AcDbXrecord
 90
        4
  0
XRECORD
  5
19C
102
{ACAD_REACTORS
330
197
102
}
330
197
100
AcDbXrecord
340
1A
  0
XRECORD
  5
19E
102
{ACAD_REACTORS
330
197
102
}
330
197
100
AcDbXrecord
 90
    10781
  0
XRECORD
  5
19D
102
{ACAD_REACTORS
330
197
102
}
330
197
100
AcDbXrecord
340
19
  0
XRECORD
  5
1A3
102
{ACAD_REACTORS
330
197
102
}
330
197
100
AcDbXrecord
 40
0.0
  0
XRECORD
  5
1A6
102
{ACAD_REACTORS
330
197
102
}
330
197
100
AcDbXrecord
340
0
  0
XRECORD
  5
1AC
102
{ACAD_REACTORS
330
197
102
}
330
197
100
AcDbXrecord
 10
0.0
 20
0.0
 30
0.0
  0
XRECORD
  5
1A8
102
{ACAD_REACTORS
330
197
102
}
330
197
100
AcDbXrecord
 10
0.0
 20
0.0
 30
0.0
  0
XRECORD
  5
1AB
102
{ACAD_REACTORS
330
197
102
}
330
197
100
AcDbXrecord
 10
0.0
 20
0.0
 30
0.0
  0
XRECORD
  5
1A9
102
{ACAD_REACTORS
330
197
102
}
330
197
100
AcDbXrecord
 10
0.0
 20
0.0
 30
0.0
  0
XRECORD
  5
1AA
102
{ACAD_REACTORS
330
197
102
}
330
197
100
AcDbXrecord
 10
0.0
 20
0.0
 30
0.0
  0
XRECORD
  5
1A7
102
{ACAD_REACTORS
330
197
102
}
330
197
100
AcDbXrecord
 10
0.0
 20
0.0
 30
0.0
  0
XRECORD
  5
1A4
102
{ACAD_REACTORS
330
197
102
}
330
197
100
AcDbXrecord
340
0
  0
XRECORD
  5
1A5
102
{ACAD_REACTORS
330
197
102
}
330
197
100
AcDbXrecord
 70
     0
  0
XRECORD
  5
19B
102
{ACAD_REACTORS
330
197
102
}
330
197
100
AcDbXrecord
  1

  0
XRECORD
  5
198
102
{ACAD_REACTORS
330
197
102
}
330
197
100
AcDbXrecord
 90
        1
  0
XRECORD
  5
199
102
{ACAD_REACTORS
330
197
102
}
330
197
100
AcDbXrecord
 90
       70
  0
XRECORD
  5
1AF
102
{ACAD_REACTORS
330
197
102
}
330
197
100
AcDbXrecord
340
0
  0
XRECORD
  5
1B5
102
{ACAD_REACTORS
330
197
102
}
330
197
100
AcDbXrecord
 10
0.0
 20
0.0
 30
0.0
  0
XRECORD
  5
1B1
102
{ACAD_REACTORS
330
197
102
}
330
197
100
AcDbXrecord
 10
0.0
 20
0.0
 30
0.0
  0
XRECORD
  5
1B4
102
{ACAD_REACTORS
330
197
102
}
330
197
100
AcDbXrecord
 10
0.0
 20
0.0
 30
0.0
  0
XRECORD
  5
1B2
102
{ACAD_REACTORS
330
197
102
}
330
197
100
AcDbXrecord
 10
0.0
 20
0.0
 30
0.0
  0
XRECORD
  5
1B3
102
{ACAD_REACTORS
330
197
102
}
330
197
100
AcDbXrecord
 10
0.0
 20
0.0
 30
0.0
  0
XRECORD
  5
1B0
102
{ACAD_REACTORS
330
197
102
}
330
197
100
AcDbXrecord
 10
0.0
 20
0.0
 30
0.0
  0
XRECORD
  5
1AD
102
{ACAD_REACTORS
330
197
102
}
330
197
100
AcDbXrecord
340
0
  0
XRECORD
  5
1AE
102
{ACAD_REACTORS
330
197
102
}
330
197
100
AcDbXrecord
 70
     0
  0
XRECORD
  5
1A2
102
{ACAD_REACTORS
330
197
102
}
330
197
100
AcDbXrecord
  1
{FAEB1C32-E019-11D5-929B-00C0DF256EC4}
  0
ENDSEC
  0
EOF
