  0
SECTION
  2
HEADER
  9
$ACADVER
  1
AC1014
  9
$ACADMAINTVER
 70
     9
  9
$DWGCODEPAGE
  3
ANSI_932
  9
$INSBASE
 10
0.0
 20
0.0
 30
0.0
  9
$EXTMIN
 10
-250.9787406921387
 20
-249.1144623756409
 30
0.0
  9
$EXTMAX
 10
365.4574813842773
 20
191.10386967659
 30
0.0
  9
$LIMMIN
 10
-200.0
 20
-141.0
  9
$LIMMAX
 10
200.0
 20
141.0
  9
$ORTHOMODE
 70
     0
  9
$REGENMODE
 70
     1
  9
$FILLMODE
 70
     1
  9
$QTEXTMODE
 70
     0
  9
$MIRRTEXT
 70
     1
  9
$DRAGMODE
 70
     2
  9
$LTSCALE
 40
1.0
  9
$OSMODE
 70
    37
  9
$ATTMODE
 70
     1
  9
$TEXTSIZE
 40
0.2
  9
$TRACEWID
 40
0.05
  9
$TEXTSTYLE
  7
STANDARD
  9
$CLAYER
  8
0
  9
$CELTYPE
  6
BYLAYER
  9
$CECOLOR
 62
   256
  9
$CELTSCALE
 40
1.0
  9
$DELOBJ
 70
     1
  9
$DISPSILH
 70
     0
  9
$DIMSCALE
 40
1.0
  9
$DIMASZ
 40
2.5
  9
$DIMEXO
 40
0.0625
  9
$DIMDLI
 40
0.38
  9
$DIMRND
 40
0.0
  9
$DIMDLE
 40
0.0
  9
$DIMEXE
 40
0.18
  9
$DIMTP
 40
0.0
  9
$DIMTM
 40
0.0
  9
$DIMTXT
 40
0.18
  9
$DIMCEN
 40
0.09
  9
$DIMTSZ
 40
0.0
  9
$DIMTOL
 70
     0
  9
$DIMLIM
 70
     0
  9
$DIMTIH
 70
     1
  9
$DIMTOH
 70
     1
  9
$DIMSE1
 70
     0
  9
$DIMSE2
 70
     0
  9
$DIMTAD
 70
     3
  9
$DIMZIN
 70
     0
  9
$DIMBLK
  1

  9
$DIMASO
 70
     1
  9
$DIMSHO
 70
     1
  9
$DIMPOST
  1

  9
$DIMAPOST
  1

  9
$DIMALT
 70
     0
  9
$DIMALTD
 70
     2
  9
$DIMALTF
 40
25.4
  9
$DIMLFAC
 40
1.0
  9
$DIMTOFL
 70
     0
  9
$DIMTVP
 40
0.0
  9
$DIMTIX
 70
     0
  9
$DIMSOXD
 70
     0
  9
$DIMSAH
 70
     0
  9
$DIMBLK1
  1

  9
$DIMBLK2
  1

  9
$DIMSTYLE
  2
STANDARD
  9
$DIMCLRD
 70
     0
  9
$DIMCLRE
 70
     0
  9
$DIMCLRT
 70
     0
  9
$DIMTFAC
 40
1.0
  9
$DIMGAP
 40
0.09
  9
$DIMJUST
 70
     0
  9
$DIMSD1
 70
     0
  9
$DIMSD2
 70
     0
  9
$DIMTOLJ
 70
     1
  9
$DIMTZIN
 70
     0
  9
$DIMALTZ
 70
     0
  9
$DIMALTTZ
 70
     0
  9
$DIMFIT
 70
     3
  9
$DIMUPT
 70
     0
  9
$DIMUNIT
 70
     2
  9
$DIMDEC
 70
     4
  9
$DIMTDEC
 70
     4
  9
$DIMALTU
 70
     2
  9
$DIMALTTD
 70
     2
  9
$DIMTXSTY
  7
STANDARD
  9
$DIMAUNIT
 70
     0
  9
$LUNITS
 70
     2
  9
$LUPREC
 70
     4
  9
$SKETCHINC
 40
0.1
  9
$FILLETRAD
 40
0.5
  9
$AUNITS
 70
     0
  9
$AUPREC
 70
     0
  9
$MENU
  1
.
  9
$ELEVATION
 40
0.0
  9
$PELEVATION
 40
0.0
  9
$THICKNESS
 40
0.0
  9
$LIMCHECK
 70
     0
  9
$CHAMFERA
 40
0.5
  9
$CHAMFERB
 40
0.5
  9
$CHAMFERC
 40
1.0
  9
$CHAMFERD
 40
0.0
  9
$SKPOLY
 70
     0
  9
$TDCREATE
 40
2454068.485983912
  9
$TDUPDATE
 40
2454068.485983924
  9
$TDINDWG
 40
0.0000000116
  9
$TDUSRTIMER
 40
0.0000000116
  9
$USRTIMER
 70
     1
  9
$ANGBASE
 50
0.0
  9
$ANGDIR
 70
     0
  9
$PDMODE
 70
     0
  9
$PDSIZE
 40
1.0
  9
$PLINEWID
 40
0.0
  9
$COORDS
 70
     1
  9
$SPLFRAME
 70
     0
  9
$SPLINETYPE
 70
     6
  9
$SPLINESEGS
 70
     8
  9
$ATTDIA
 70
     0
  9
$ATTREQ
 70
     1
  9
$HANDLING
 70
     1
  9
$HANDSEED
  5
19C
  9
$SURFTAB1
 70
     6
  9
$SURFTAB2
 70
     6
  9
$SURFTYPE
 70
     6
  9
$SURFU
 70
     6
  9
$SURFV
 70
     6
  9
$UCSNAME
  2

  9
$UCSORG
 10
0.0
 20
0.0
 30
0.0
  9
$UCSXDIR
 10
1.0
 20
0.0
 30
0.0
  9
$UCSYDIR
 10
0.0
 20
1.0
 30
0.0
  9
$PUCSNAME
  2

  9
$PUCSORG
 10
0.0
 20
0.0
 30
0.0
  9
$PUCSXDIR
 10
1.0
 20
0.0
 30
0.0
  9
$PUCSYDIR
 10
0.0
 20
1.0
 30
0.0
  9
$USERI1
 70
     0
  9
$USERI2
 70
     0
  9
$USERI3
 70
     0
  9
$USERI4
 70
     0
  9
$USERI5
 70
     0
  9
$USERR1
 40
0.0
  9
$USERR2
 40
0.0
  9
$USERR3
 40
0.0
  9
$USERR4
 40
0.0
  9
$USERR5
 40
0.0
  9
$WORLDVIEW
 70
     1
  9
$SHADEDGE
 70
     3
  9
$SHADEDIF
 70
    70
  9
$TILEMODE
 70
     1
  9
$MAXACTVP
 70
    64
  9
$PINSBASE
 10
0.0
 20
0.0
 30
0.0
  9
$PLIMCHECK
 70
     0
  9
$PEXTMIN
 10
1.000000000000000E+20
 20
1.000000000000000E+20
 30
1.000000000000000E+20
  9
$PEXTMAX
 10
-1.000000000000000E+20
 20
-1.000000000000000E+20
 30
-1.000000000000000E+20
  9
$PLIMMIN
 10
0.0
 20
0.0
  9
$PLIMMAX
 10
12.0
 20
9.0
  9
$UNITMODE
 70
     0
  9
$VISRETAIN
 70
     0
  9
$PLINEGEN
 70
     1
  9
$PSLTSCALE
 70
     0
  9
$TREEDEPTH
 70
  3020
  9
$PICKSTYLE
 70
     1
  9
$CMLSTYLE
  2
STANDARD
  9
$CMLJUST
 70
     0
  9
$CMLSCALE
 40
1.0
  9
$PROXYGRAPHICS
 70
     0
  9
$MEASUREMENT
 70
     1
  0
ENDSEC
  0
SECTION
  2
CLASSES
  0
CLASS
  1
ACDBDICTIONARYWDFLT
  2
AcDbDictionaryWithDefault
  3
ObjectDBX Classes
 90
        0
280
     0
281
     0
  0
CLASS
  1
XRECORD
  2
AcDbXrecord
  3
AutoCAD 2000
 90
        0
280
     0
281
     0
  0
CLASS
  1
LWPOLYLINE
  2
AcDbPolyline
  3
AutoCAD 2000
 90
        0
280
     0
281
     1
  0
CLASS
  1
HATCH
  2
AcDbHatch
  3
AutoCAD 2000
 90
        0
280
     0
281
     1
  0
CLASS
  1
ACDBPLACEHOLDER
  2
AcDbPlaceHolder
  3
ObjectDBX Classes
 90
        0
280
     0
281
     0
  0
CLASS
  1
LAYOUT
  2
AcDbLayout
  3
ObjectDBX Classes
 90
        0
280
     0
281
     0
  0
ENDSEC
  0
SECTION
  2
TABLES
  0
TABLE
  2
VPORT
  5
8
330
0
100
AcDbSymbolTable
 70
     1
  0
VPORT
  5
29
330
8
100
AcDbSymbolTableRecord
100
AcDbViewportTableRecord
  2
*ACTIVE
 70
     0
 10
0.0
 20
0.0
 11
1.0
 21
1.0
 12
0.0
 22
0.0
 13
0.0
 23
0.0
 14
0.5
 24
0.5
 15
0.5
 25
0.5
 16
0.0
 26
0.0
 36
1.0
 17
57.23937034606934
 27
-29.00529634952545
 37
0.0
 40
149.6742328977585
 41
1.400296573753947
 42
50.0
 43
0.0
 44
0.0
 50
0.0
 51
0.0
 71
     0
 72
  1000
 73
     1
 74
     1
 75
     0
 76
     0
 77
     0
 78
     0
  0
ENDTAB
  0
TABLE
  2
LTYPE
  5
5
330
0
100
AcDbSymbolTable
 70
    28
  0
LTYPE
  5
14
330
5
100
AcDbSymbolTableRecord
100
AcDbLinetypeTableRecord
  2
BYBLOCK
 70
     0
  3

 72
    65
 73
     0
 40
0.0
  0
LTYPE
  5
15
330
5
100
AcDbSymbolTableRecord
100
AcDbLinetypeTableRecord
  2
BYLAYER
 70
     0
  3

 72
    65
 73
     0
 40
0.0
  0
LTYPE
  5
16
330
5
100
AcDbSymbolTableRecord
100
AcDbLinetypeTableRecord
  2
CONTINUOUS
 70
     0
  3
Solid line
 72
    65
 73
     0
 40
0.0
  0
LTYPE
  5
2C
330
5
100
AcDbSymbolTableRecord
100
AcDbLinetypeTableRecord
  2
HIDDENX2
 70
     0
  3
CADPAC LINETYPE
 72
    65
 73
     2
 40
7.346189164370969
 49
5.509641873278227
 74
     0
 49
-1.836547291092742
 74
     0
  0
LTYPE
  5
2D
330
5
100
AcDbSymbolTableRecord
100
AcDbLinetypeTableRecord
  2
HIDDEN
 70
     0
  3
CADPAC LINETYPE
 72
    65
 73
     2
 40
5.509641873278227
 49
3.673094582185485
 74
     0
 49
-1.836547291092742
 74
     0
  0
LTYPE
  5
2E
330
5
100
AcDbSymbolTableRecord
100
AcDbLinetypeTableRecord
  2
HIDDEN2
 70
     0
  3
CADPAC LINETYPE
 72
    65
 73
     2
 40
4.591368227731856
 49
2.754820936639113
 74
     0
 49
-1.836547291092742
 74
     0
  0
LTYPE
  5
2F
330
5
100
AcDbSymbolTableRecord
100
AcDbLinetypeTableRecord
  2
DASHED
 70
     0
  3
CADPAC LINETYPE
 72
    65
 73
     2
 40
4.407713498622627
 49
2.203856749311314
 74
     0
 49
-2.203856749311314
 74
     0
  0
LTYPE
  5
30
330
5
100
AcDbSymbolTableRecord
100
AcDbLinetypeTableRecord
  2
DASHED2
 70
     0
  3
CADPAC LINETYPE
 72
    65
 73
     2
 40
2.571166207529871
 49
2.203856749311314
 74
     0
 49
-0.367309458218557
 74
     0
  0
LTYPE
  5
31
330
5
100
AcDbSymbolTableRecord
100
AcDbLinetypeTableRecord
  2
DASHEDX2
 70
     0
  3
CADPAC LINETYPE
 72
    65
 73
     2
 40
2.571166207529871
 49
2.203856749311314
 74
     0
 49
-0.367309458218557
 74
     0
  0
LTYPE
  5
32
330
5
100
AcDbSymbolTableRecord
100
AcDbLinetypeTableRecord
  2
DOTX2
 70
     0
  3
CADPAC LINETYPE
 72
    65
 73
     2
 40
0.4591368227731962
 49
0.0
 74
     0
 49
-0.4591368227731962
 74
     0
  0
LTYPE
  5
33
330
5
100
AcDbSymbolTableRecord
100
AcDbLinetypeTableRecord
  2
DOT
 70
     0
  3
CADPAC LINETYPE
 72
    65
 73
     2
 40
0.367309458218557
 49
0.0
 74
     0
 49
-0.367309458218557
 74
     0
  0
LTYPE
  5
34
330
5
100
AcDbSymbolTableRecord
100
AcDbLinetypeTableRecord
  2
DOT2
 70
     0
  3
CADPAC LINETYPE
 72
    65
 73
     2
 40
0.2754820936639177
 49
0.0
 74
     0
 49
-0.2754820936639177
 74
     0
  0
LTYPE
  5
35
330
5
100
AcDbSymbolTableRecord
100
AcDbLinetypeTableRecord
  2
CENTERX2
 70
     0
  3
CADPAC LINETYPE
 72
    65
 73
     4
 40
11.01928374655645
 49
4.591368227731856
 74
     0
 49
-2.295684113865928
 74
     0
 49
1.836547291092742
 74
     0
 49
-2.295684113865928
 74
     0
  0
LTYPE
  5
36
330
5
100
AcDbSymbolTableRecord
100
AcDbLinetypeTableRecord
  2
CENTER
 70
     0
  3
CADPAC LINETYPE
 72
    65
 73
     4
 40
8.448117539026615
 49
3.673094582185485
 74
     0
 49
-1.836547291092742
 74
     0
 49
1.101928374655645
 74
     0
 49
-1.836547291092742
 74
     0
  0
LTYPE
  5
37
330
5
100
AcDbSymbolTableRecord
100
AcDbLinetypeTableRecord
  2
CENTER2
 70
     0
  3
CADPAC LINETYPE
 72
    65
 73
     4
 40
5.876951331496775
 49
2.754820936639113
 74
     0
 49
-1.377410468319557
 74
     0
 49
0.3673094582185485
 74
     0
 49
-1.377410468319557
 74
     0
  0
LTYPE
  5
38
330
5
100
AcDbSymbolTableRecord
100
AcDbLinetypeTableRecord
  2
DASHDOTX2
 70
     0
  3
CADPAC LINETYPE
 72
    65
 73
     4
 40
5.142332415059713
 49
4.407713498622599
 74
     0
 49
-0.367309458218557
 74
     0
 49
0.0
 74
     0
 49
-0.367309458218557
 74
     0
  0
LTYPE
  5
39
330
5
100
AcDbSymbolTableRecord
100
AcDbLinetypeTableRecord
  2
DASHDOT
 70
     0
  3
CADPAC LINETYPE
 72
    65
 73
     4
 40
6.244260789715384
 49
4.407713498622599
 74
     0
 49
-0.367309458218557
 74
     0
 49
1.101928374655671
 74
     0
 49
-0.367309458218557
 74
     0
  0
LTYPE
  5
3A
330
5
100
AcDbSymbolTableRecord
100
AcDbLinetypeTableRecord
  2
DASHDOT2
 70
     0
  3
CADPAC LINETYPE
 72
    65
 73
     4
 40
3.966942148760352
 49
3.305785123966949
 74
     0
 49
-0.2754820936639177
 74
     0
 49
0.1101928374655671
 74
     0
 49
-0.2754820936639177
 74
     0
  0
LTYPE
  5
3B
330
5
100
AcDbSymbolTableRecord
100
AcDbLinetypeTableRecord
  2
DIVIDEX2
 70
     0
  3
CADPAC LINETYPE
 72
    65
 73
     6
 40
5.50964187327827
 49
4.407713498622599
 74
     0
 49
-0.367309458218557
 74
     0
 49
0.0
 74
     0
 49
-0.367309458218557
 74
     0
 49
0.0
 74
     0
 49
-0.367309458218557
 74
     0
  0
LTYPE
  5
3C
330
5
100
AcDbSymbolTableRecord
100
AcDbLinetypeTableRecord
  2
DIVIDE
 70
     0
  3
CADPAC LINETYPE
 72
    65
 73
     6
 40
7.713498622589611
 49
4.407713498622599
 74
     0
 49
-0.367309458218557
 74
     0
 49
1.101928374655671
 74
     0
 49
-0.367309458218557
 74
     0
 49
1.101928374655671
 74
     0
 49
-0.367309458218557
 74
     0
  0
LTYPE
  5
3D
330
5
100
AcDbSymbolTableRecord
100
AcDbLinetypeTableRecord
  2
DIVIDE2
 70
     0
  3
CADPAC LINETYPE
 72
    65
 73
     6
 40
5.785123966942209
 49
3.305785123966949
 74
     0
 49
-0.2754820936639177
 74
     0
 49
0.8264462809917532
 74
     0
 49
-0.2754820936639177
 74
     0
 49
0.8264462809917532
 74
     0
 49
-0.2754820936639177
 74
     0
  0
LTYPE
  5
3E
330
5
100
AcDbSymbolTableRecord
100
AcDbLinetypeTableRecord
  2
BORDERX2
 70
     0
  3
CADPAC LINETYPE
 72
    65
 73
     6
 40
16.0697887970615
 49
4.591368227731856
 74
     0
 49
-2.295684113865928
 74
     0
 49
4.591368227731856
 74
     0
 49
-2.295684113865928
 74
     0
 49
0.0
 74
     0
 49
-2.295684113865928
 74
     0
  0
LTYPE
  5
3F
330
5
100
AcDbSymbolTableRecord
100
AcDbLinetypeTableRecord
  2
BORDER
 70
     0
  3
CADPAC LINETYPE
 72
    65
 73
     6
 40
12.8558310376492
 49
3.673094582185485
 74
     0
 49
-1.836547291092742
 74
     0
 49
3.673094582185485
 74
     0
 49
-1.836547291092742
 74
     0
 49
0.0
 74
     0
 49
-1.836547291092742
 74
     0
  0
LTYPE
  5
40
330
5
100
AcDbSymbolTableRecord
100
AcDbLinetypeTableRecord
  2
BORDER2
 70
     0
  3
CADPAC LINETYPE
 72
    65
 73
     6
 40
4.77502295684117
 49
2.203856749311314
 74
     0
 49
-0.367309458218557
 74
     0
 49
0.0
 74
     0
 49
-0.367309458218557
 74
     0
 49
0.0
 74
     0
 49
-1.836547291092742
 74
     0
  0
LTYPE
  5
41
330
5
100
AcDbSymbolTableRecord
100
AcDbLinetypeTableRecord
  2
PHANTOMX2
 70
     0
  3
CADPAC LINETYPE
 72
    65
 73
     6
 40
13.77410468319557
 49
4.591368227731856
 74
     0
 49
-1.836547291092742
 74
     0
 49
1.836547291092742
 74
     0
 49
-1.836547291092742
 74
     0
 49
1.836547291092742
 74
     0
 49
-1.836547291092742
 74
     0
  0
LTYPE
  5
42
330
5
100
AcDbSymbolTableRecord
100
AcDbLinetypeTableRecord
  2
PHANTOM
 70
     0
  3
CADPAC LINETYPE
 72
    65
 73
     6
 40
11.386593204775
 49
3.673094582185485
 74
     0
 49
-1.836547291092742
 74
     0
 49
1.101928374655645
 74
     0
 49
-1.836547291092742
 74
     0
 49
1.101928374655645
 74
     0
 49
-1.836547291092742
 74
     0
  0
LTYPE
  5
43
330
5
100
AcDbSymbolTableRecord
100
AcDbLinetypeTableRecord
  2
PHANTOM2
 70
     0
  3
CADPAC LINETYPE
 72
    65
 73
     6
 40
9.733700642791535
 49
2.754820936639113
 74
     0
 49
-1.836547291092742
 74
     0
 49
0.734618916437097
 74
     0
 49
-1.836547291092742
 74
     0
 49
0.734618916437097
 74
     0
 49
-1.836547291092742
 74
     0
  0
LTYPE
  5
44
330
5
100
AcDbSymbolTableRecord
100
AcDbLinetypeTableRecord
  2
ACAD_ISO06W100
 70
     0
  3
CADPAC LINETYPE
 72
    65
 73
     8
 40
5.876951331496827
 49
4.407713498622599
 74
     0
 49
-0.367309458218557
 74
     0
 49
0.0
 74
     0
 49
-0.367309458218557
 74
     0
 49
0.0
 74
     0
 49
-0.367309458218557
 74
     0
 49
0.0
 74
     0
 49
-0.367309458218557
 74
     0
  0
LTYPE
  5
45
330
5
100
AcDbSymbolTableRecord
100
AcDbLinetypeTableRecord
  2
ACAD_ISO13W100
 70
     0
  3
CADPAC LINETYPE
 72
    65
 73
     8
 40
14.69237832874194
 49
3.673094582185485
 74
     0
 49
-1.836547291092742
 74
     0
 49
3.673094582185485
 74
     0
 49
-1.836547291092742
 74
     0
 49
0.0
 74
     0
 49
-1.836547291092742
 74
     0
 49
0.0
 74
     0
 49
-1.836547291092742
 74
     0
  0
LTYPE
  5
46
330
5
100
AcDbSymbolTableRecord
100
AcDbLinetypeTableRecord
  2
ACAD_ISO14W100
 70
     0
  3
CADPAC LINETYPE
 72
    65
 73
     8
 40
11.01928374655645
 49
3.673094582185485
 74
     0
 49
-1.836547291092742
 74
     0
 49
0.0
 74
     0
 49
-1.836547291092742
 74
     0
 49
0.0
 74
     0
 49
-1.836547291092742
 74
     0
 49
0.0
 74
     0
 49
-1.836547291092742
 74
     0
  0
ENDTAB
  0
TABLE
  2
LAYER
  5
2
330
0
100
AcDbSymbolTable
 70
     1
  0
LAYER
  5
10
330
2
100
AcDbSymbolTableRecord
100
AcDbLayerTableRecord
  2
0
 70
     0
 62
     7
  6
CONTINUOUS
  0
ENDTAB
  0
TABLE
  2
STYLE
  5
3
330
0
100
AcDbSymbolTable
 70
     2
  0
STYLE
  5
11
330
3
100
AcDbSymbolTableRecord
100
AcDbTextStyleTableRecord
  2
STANDARD
 70
     0
 40
0.0
 41
1.0
 50
0.0
 71
     0
 42
0.2
  3
txt
  4

  0
STYLE
  5
17A
330
3
100
AcDbSymbolTableRecord
100
AcDbTextStyleTableRecord
  2
FDASTYLE0
 70
     0
 40
4.150000095367432
 41
0.6600000138340222
 50
0.0
 71
     0
 42
0.2
  3
txt.shx
  4
bigfont
  0
ENDTAB
  0
TABLE
  2
VIEW
  5
6
330
0
100
AcDbSymbolTable
 70
     0
  0
ENDTAB
  0
TABLE
  2
UCS
  5
7
330
0
100
AcDbSymbolTable
 70
     0
  0
ENDTAB
  0
TABLE
  2
APPID
  5
9
330
0
100
AcDbSymbolTable
 70
     2
  0
APPID
  5
12
330
9
100
AcDbSymbolTableRecord
100
AcDbRegAppTableRecord
  2
ACAD
 70
     0
  0
APPID
  5
2A
330
9
100
AcDbSymbolTableRecord
100
AcDbRegAppTableRecord
  2
DAFUSIONOUT
 70
     0
  0
ENDTAB
  0
TABLE
  2
DIMSTYLE
  5
A
330
0
100
AcDbSymbolTable
 70
     1
  0
DIMSTYLE
105
27
330
A
100
AcDbSymbolTableRecord
100
AcDbDimStyleTableRecord
  2
STANDARD
 70
     0
  3

  4

  5

  6

  7

 40
1.0
 41
0.18
 42
0.0625
 43
0.38
 44
0.18
 45
0.0
 46
0.0
 47
0.0
 48
0.0
140
0.18
141
0.09
142
0.0
143
25.4
144
1.0
145
0.0
146
1.0
147
0.09
 71
     0
 72
     0
 73
     1
 74
     1
 75
     0
 76
     0
 77
     0
 78
     0
170
     0
171
     2
172
     0
173
     0
174
     0
175
     0
176
     0
177
     0
178
     0
270
     2
271
     4
272
     4
273
     2
274
     2
340
11
275
     0
280
     0
281
     0
282
     0
283
     1
284
     0
285
     0
286
     0
287
     3
288
     0
  0
ENDTAB
  0
TABLE
  2
BLOCK_RECORD
  5
1
330
0
100
AcDbSymbolTable
 70
     1
  0
BLOCK_RECORD
  5
1F
330
1
100
AcDbSymbolTableRecord
100
AcDbBlockTableRecord
  2
*MODEL_SPACE
  0
BLOCK_RECORD
  5
1B
330
1
100
AcDbSymbolTableRecord
100
AcDbBlockTableRecord
  2
*PAPER_SPACE
  0
ENDTAB
  0
ENDSEC
  0
SECTION
  2
BLOCKS
  0
BLOCK
  5
20
330
1F
100
AcDbEntity
  8
0
100
AcDbBlockBegin
  2
*MODEL_SPACE
 70
     0
 71
     0
 10
0.0
 20
0.0
 30
0.0
  3
*MODEL_SPACE
  1

  0
ENDBLK
  5
21
330
1F
100
AcDbEntity
  8
0
100
AcDbBlockEnd
  0
BLOCK
  5
1C
330
1B
100
AcDbEntity
 67
     1
  8
0
100
AcDbBlockBegin
  2
*PAPER_SPACE
 70
     0
 71
     0
 10
0.0
 20
0.0
 30
0.0
  3
*PAPER_SPACE
  1

  0
ENDBLK
  5
1D
330
1B
100
AcDbEntity
 67
     1
  8
0
100
AcDbBlockEnd
  0
ENDSEC
  0
SECTION
  2
ENTITIES
  0
LINE
  5
47
330
1F
100
AcDbEntity
  8
0
  6
DASHED
 62
     7
100
AcDbLine
 10
-11.8999938964844
 20
27.7799987792969
 30
0.0
 11
-11.8999938964844
 21
27.28999328613281
 31
0.0
  0
LINE
  5
48
330
1F
100
AcDbEntity
  8
0
  6
DASHED
 62
     7
100
AcDbLine
 10
-10.28654479980469
 20
34.17999267578131
 30
0.0
 11
-6.313461303710909
 21
34.17999267578131
 31
0.0
  0
LINE
  5
49
330
1F
100
AcDbEntity
  8
0
  6
DASHED
 62
     7
100
AcDbLine
 10
-4.700012207031307
 20
27.7799987792969
 30
0.0
 11
-4.700012207031307
 21
27.28999328613281
 31
0.0
  0
LINE
  5
4A
330
1F
100
AcDbEntity
  8
0
  6
DASHED
 62
     7
100
AcDbLine
 10
-19.1000061035156
 20
27.7799987792969
 30
0.0
 11
-19.1000061035156
 21
27.28999328613281
 31
0.0
  0
LINE
  5
4B
330
1F
100
AcDbEntity
  8
0
  6
DASHED
 62
     7
100
AcDbLine
 10
-26.29998779296881
 20
29.78999328613281
 30
0.0
 11
-26.29998779296881
 21
29.29998779296881
 31
0.0
  0
LINE
  5
4C
330
1F
100
AcDbEntity
  8
0
  6
DASHED
 62
     7
100
AcDbLine
 10
-20.71345520019531
 20
34.17999267578131
 30
0.0
 11
-24.68653869628909
 21
34.17999267578131
 31
0.0
  0
LINE
  5
4D
330
1F
100
AcDbEntity
  8
0
  6
DASHED
 62
     7
100
AcDbLine
 10
-26.72999572753906
 20
33.99998474121094
 30
0.0
 11
-26.72999572753906
 21
27.27998352050781
 31
0.0
  0
LINE
  5
4E
330
1F
100
AcDbEntity
  8
0
  6
DASHED
 62
     7
100
AcDbLine
 10
-24.93000793457031
 20
35.79998779296875
 30
0.0
 11
-20.44999694824219
 21
35.79998779296875
 31
0.0
  0
LINE
  5
4F
330
1F
100
AcDbEntity
  8
0
  6
DASHED
 62
     7
100
AcDbLine
 10
-18.65000152587891
 20
33.99998474121094
 30
0.0
 11
-18.65000152587891
 21
27.27998352050781
 31
0.0
  0
LINE
  5
50
330
1F
100
AcDbEntity
  8
0
  6
DASHED
 62
     7
100
AcDbLine
 10
-12.34999847412109
 20
33.99998474121094
 30
0.0
 11
-12.34999847412109
 21
27.27998352050781
 31
0.0
  0
LINE
  5
51
330
1F
100
AcDbEntity
  8
0
  6
DASHED
 62
     7
100
AcDbLine
 10
-4.269996643066406
 20
33.99998474121094
 30
0.0
 11
-4.269996643066406
 21
27.27998352050781
 31
0.0
  0
LINE
  5
52
330
1F
100
AcDbEntity
  8
0
  6
DASHED
 62
     7
100
AcDbLine
 10
-6.069999694824219
 20
35.79998779296875
 30
0.0
 11
-10.55000305175781
 21
35.79998779296875
 31
0.0
  0
ARC
  5
53
330
1F
100
AcDbEntity
  8
0
  6
DASHED
 62
     7
100
AcDbCircle
 10
1.600006103515597
 20
27.7799987792969
 30
0.0
 40
13.5
100
AcDbArc
 50
151.7009739944628
 51
179.9999640278214
  0
ARC
  5
54
330
1F
100
AcDbEntity
  8
0
  6
DASHED
 62
     7
100
AcDbCircle
 10
-18.20001220703131
 20
27.7799987792969
 30
0.0
 40
13.5
100
AcDbArc
 50
0.0
 51
28.29899003335859
  0
ARC
  5
55
330
1F
100
AcDbEntity
  8
0
  6
DASHED
 62
     7
100
AcDbCircle
 10
-32.6000061035156
 20
27.7799987792969
 30
0.0
 40
13.5
100
AcDbArc
 50
0.0
 51
28.29899003335859
  0
ARC
  5
56
330
1F
100
AcDbEntity
  8
0
  6
DASHED
 62
     7
100
AcDbCircle
 10
-12.79998779296881
 20
27.7799987792969
 30
0.0
 40
13.5
100
AcDbArc
 50
151.7009739944628
 51
179.9999640278214
  0
ARC
  5
57
330
1F
100
AcDbEntity
  8
0
  6
DASHED
 62
     7
100
AcDbCircle
 10
-24.93000793457031
 20
33.99998474121094
 30
0.0
 40
1.799999952316284
100
AcDbArc
 50
89.99998201391068
 51
179.9999640278213
  0
ARC
  5
58
330
1F
100
AcDbEntity
  8
0
  6
DASHED
 62
     7
100
AcDbCircle
 10
-20.44999694824219
 20
33.99998474121094
 30
0.0
 40
1.799999952316284
100
AcDbArc
 50
0.0
 51
89.99998201391068
  0
ARC
  5
59
330
1F
100
AcDbEntity
  8
0
  6
DASHED
 62
     7
100
AcDbCircle
 10
-10.55000305175781
 20
33.99998474121094
 30
0.0
 40
1.799999952316284
100
AcDbArc
 50
89.99998201391068
 51
179.9999640278213
  0
ARC
  5
5A
330
1F
100
AcDbEntity
  8
0
  6
DASHED
 62
     7
100
AcDbCircle
 10
-6.069999694824219
 20
33.99998474121094
 30
0.0
 40
1.799999952316284
100
AcDbArc
 50
0.0
 51
89.99998201391068
  0
LINE
  5
5B
330
1F
100
AcDbEntity
  8
0
 62
     7
100
AcDbLine
 10
-31.5
 20
25.77998352050781
 30
0.0
 11
-31.5
 21
23.69999694824219
 31
0.0
  0
LINE
  5
5C
330
1F
100
AcDbEntity
  8
0
 62
     7
100
AcDbLine
 10
0.5
 20
25.77998352050781
 30
0.0
 11
0.5
 21
23.69999694824219
 31
0.0
  0
LINE
  5
5D
330
1F
100
AcDbEntity
  8
0
 62
     7
100
AcDbLine
 10
-41.10000989085944
 20
7.05000429963863
 30
0.0
 11
-41.09999774074015
 21
-20.70001858854222
 31
0.0
  0
LINE
  5
5E
330
1F
100
AcDbEntity
  8
0
 62
     7
100
AcDbLine
 10
10.10000989082064
 20
7.050009903975763
 30
0.0
 11
10.09999774070127
 21
-20.70001298420512
 31
0.0
  0
LINE
  5
5F
330
1F
100
AcDbEntity
  8
0
 62
     7
100
AcDbLine
 10
-31.5
 20
-34.16998291015619
 30
0.0
 11
-31.5
 21
0.6999969482421875
 31
0.0
  0
LINE
  5
60
330
1F
100
AcDbEntity
  8
0
 62
     7
100
AcDbLine
 10
0.5
 20
-34.16998291015619
 30
0.0
 11
0.5
 21
0.6999969482421875
 31
0.0
  0
LINE
  5
61
330
1F
100
AcDbEntity
  8
0
 62
     7
100
AcDbLine
 10
-19.1000061035156
 20
7.050003051757813
 30
0.0
 11
-19.1000061035156
 21
0.6999969482421875
 31
0.0
  0
LINE
  5
62
330
1F
100
AcDbEntity
  8
0
 62
     7
100
AcDbLine
 10
-11.8999938964844
 20
7.050003051757813
 30
0.0
 11
-11.8999938964844
 21
0.6999969482421875
 31
0.0
  0
LINE
  5
63
330
1F
100
AcDbEntity
  8
0
 62
     7
100
AcDbLine
 10
-38.59999084472659
 20
-22.3000030517578
 30
0.0
 11
-38.59999084472659
 21
0.6999969482421875
 31
0.0
  0
LINE
  5
64
330
1F
100
AcDbEntity
  8
0
 62
     7
100
AcDbLine
 10
7.599990844726591
 20
-22.3000030517578
 30
0.0
 11
7.599990844726591
 21
0.6999969482421875
 31
0.0
  0
LINE
  5
65
330
1F
100
AcDbEntity
  8
0
 62
     7
100
AcDbLine
 10
-28.19999694824219
 20
-18.8280487060547
 30
0.0
 11
-28.19999694824219
 21
-15.4923400878906
 31
0.0
  0
LINE
  5
66
330
1F
100
AcDbEntity
  8
0
 62
     7
100
AcDbLine
 10
-17.19999694824219
 20
-18.8280487060547
 30
0.0
 11
-17.19999694824219
 21
-15.4923400878906
 31
0.0
  0
LINE
  5
67
330
1F
100
AcDbEntity
  8
0
 62
     7
100
AcDbLine
 10
-13.80000305175781
 20
-18.8280487060547
 30
0.0
 11
-13.80000305175781
 21
-15.4923400878906
 31
0.0
  0
LINE
  5
68
330
1F
100
AcDbEntity
  8
0
 62
     7
100
AcDbLine
 10
-2.800003051757813
 20
-18.8280487060547
 30
0.0
 11
-2.800003051757813
 21
-15.4923400878906
 31
0.0
  0
LINE
  5
69
330
1F
100
AcDbEntity
  8
0
 62
     7
100
AcDbLine
 10
-28.19999694824219
 20
-29.43475341796869
 30
0.0
 11
-28.19999694824219
 21
-27.1737365722656
 31
0.0
  0
LINE
  5
6A
330
1F
100
AcDbEntity
  8
0
 62
     7
100
AcDbLine
 10
-17.19999694824219
 20
-29.43475341796869
 30
0.0
 11
-17.19999694824219
 21
-27.1737365722656
 31
0.0
  0
LINE
  5
6B
330
1F
100
AcDbEntity
  8
0
 62
     7
100
AcDbLine
 10
-13.80000305175781
 20
-29.43475341796869
 30
0.0
 11
-13.80000305175781
 21
-27.1737365722656
 31
0.0
  0
LINE
  5
6C
330
1F
100
AcDbEntity
  8
0
 62
     7
100
AcDbLine
 10
-2.800003051757813
 20
-29.43475341796869
 30
0.0
 11
-2.800003051757813
 21
-27.1737365722656
 31
0.0
  0
LINE
  5
6D
330
1F
100
AcDbEntity
  8
0
 62
     7
100
AcDbLine
 10
-28.19999694824219
 20
-34.8308868408203
 30
0.0
 11
-28.19999694824219
 21
-34.0355072021484
 31
0.0
  0
LINE
  5
6E
330
1F
100
AcDbEntity
  8
0
 62
     7
100
AcDbLine
 10
-17.19999694824219
 20
-34.0355072021484
 30
0.0
 11
-17.19999694824219
 21
-34.8308868408203
 31
0.0
  0
LINE
  5
6F
330
1F
100
AcDbEntity
  8
0
 62
     7
100
AcDbLine
 10
-13.80000305175781
 20
-34.0355072021484
 30
0.0
 11
-13.80000305175781
 21
-34.8308868408203
 31
0.0
  0
LINE
  5
70
330
1F
100
AcDbEntity
  8
0
 62
     7
100
AcDbLine
 10
-2.800003051757813
 20
-34.8308868408203
 30
0.0
 11
-2.800003051757813
 21
-34.0355072021484
 31
0.0
  0
LINE
  5
71
330
1F
100
AcDbEntity
  8
0
 62
     7
100
AcDbLine
 10
-1.699996948242188
 20
-36.3699798583984
 30
0.0
 11
-29.29998779296881
 21
-36.3699798583984
 31
0.0
  0
LINE
  5
72
330
1F
100
AcDbEntity
  8
0
 62
     7
100
AcDbLine
 10
-28.19999694824219
 20
-4.844772338867188
 30
0.0
 11
-28.19999694824219
 21
-1.011138916015597
 31
0.0
  0
LINE
  5
73
330
1F
100
AcDbEntity
  8
0
 62
     7
100
AcDbLine
 10
-17.19999694824219
 20
-4.844772338867188
 30
0.0
 11
-17.19999694824219
 21
-1.011138916015597
 31
0.0
  0
LINE
  5
74
330
1F
100
AcDbEntity
  8
0
 62
     7
100
AcDbLine
 10
-13.80000305175781
 20
-4.844772338867188
 30
0.0
 11
-13.80000305175781
 21
-1.011138916015597
 31
0.0
  0
LINE
  5
75
330
1F
100
AcDbEntity
  8
0
 62
     7
100
AcDbLine
 10
-2.800003051757813
 20
-4.844772338867188
 30
0.0
 11
-2.800003051757813
 21
-1.011138916015597
 31
0.0
  0
LINE
  5
76
330
1F
100
AcDbEntity
  8
0
 62
     7
100
AcDbLine
 10
-41.09999466682626
 20
-20.70001613878719
 30
0.0
 11
-39.49998747868835
 21
-22.30000808662788
 31
0.0
  0
LINE
  5
77
330
1F
100
AcDbEntity
  8
0
 62
     7
100
AcDbLine
 10
10.10001148549424
 20
-20.70000348341026
 30
0.0
 11
8.500006522690228
 21
-22.30000844621426
 31
0.0
  0
LINE
  5
78
330
1F
100
AcDbEntity
  8
0
 62
     7
100
AcDbLine
 10
-39.5
 20
-22.3000030517578
 30
0.0
 11
-31.5
 21
-22.3000030517578
 31
0.0
  0
LINE
  5
79
330
1F
100
AcDbEntity
  8
0
 62
     7
100
AcDbLine
 10
0.5
 20
-22.3000030517578
 30
0.0
 11
8.5
 21
-22.3000030517578
 31
0.0
  0
LINE
  5
7A
330
1F
100
AcDbEntity
  8
0
 62
     7
100
AcDbLine
 10
100.1299166813678
 20
23.95391755358008
 30
0.0
 11
96.93190439205864
 21
27.50561318659985
 31
0.0
  0
LINE
  5
7B
330
1F
100
AcDbEntity
  8
0
 62
     7
100
AcDbLine
 10
109.1391681136237
 20
30.10044743600378
 30
0.0
 11
110.2658167332507
 21
24.80019701289817
 31
0.0
  0
LINE
  5
7C
330
1F
100
AcDbEntity
  8
0
 62
     7
100
AcDbLine
 10
-28.19999694824219
 20
-1.011138916015597
 30
0.0
 11
-17.19999694824219
 21
-1.011138916015597
 31
0.0
  0
LINE
  5
7D
330
1F
100
AcDbEntity
  8
0
 62
     7
100
AcDbLine
 10
-29.29998779296881
 20
-4.844772338867188
 30
0.0
 11
-28.19999694824219
 21
-4.844772338867188
 31
0.0
  0
LINE
  5
7E
330
1F
100
AcDbEntity
  8
0
 62
     7
100
AcDbLine
 10
-28.19999694824219
 20
-15.4923400878906
 30
0.0
 11
-17.19999694824219
 21
-15.4923400878906
 31
0.0
  0
LINE
  5
7F
330
1F
100
AcDbEntity
  8
0
 62
     7
100
AcDbLine
 10
-29.29998779296881
 20
-18.8280487060547
 30
0.0
 11
-28.19999694824219
 21
-18.8280487060547
 31
0.0
  0
LINE
  5
80
330
1F
100
AcDbEntity
  8
0
 62
     7
100
AcDbLine
 10
-28.19999694824219
 20
-27.1737365722656
 30
0.0
 11
-17.19999694824219
 21
-27.1737365722656
 31
0.0
  0
LINE
  5
81
330
1F
100
AcDbEntity
  8
0
 62
     7
100
AcDbLine
 10
-29.29998779296881
 20
-29.43475341796869
 30
0.0
 11
-28.19999694824219
 21
-29.43475341796869
 31
0.0
  0
LINE
  5
82
330
1F
100
AcDbEntity
  8
0
 62
     7
100
AcDbLine
 10
-28.19999694824219
 20
-34.0355072021484
 30
0.0
 11
-17.19999694824219
 21
-34.0355072021484
 31
0.0
  0
LINE
  5
83
330
1F
100
AcDbEntity
  8
0
 62
     7
100
AcDbLine
 10
-29.29998779296881
 20
-34.8308868408203
 30
0.0
 11
-28.19999694824219
 21
-34.8308868408203
 31
0.0
  0
LINE
  5
84
330
1F
100
AcDbEntity
  8
0
 62
     7
100
AcDbLine
 10
-13.80000305175781
 20
-1.011138916015597
 30
0.0
 11
-2.800003051757813
 21
-1.011138916015597
 31
0.0
  0
LINE
  5
85
330
1F
100
AcDbEntity
  8
0
 62
     7
100
AcDbLine
 10
-17.19999694824219
 20
-4.844772338867188
 30
0.0
 11
-13.80000305175781
 21
-4.844772338867188
 31
0.0
  0
LINE
  5
86
330
1F
100
AcDbEntity
  8
0
 62
     7
100
AcDbLine
 10
-2.800003051757813
 20
-4.844772338867188
 30
0.0
 11
-1.699996948242188
 21
-4.844772338867188
 31
0.0
  0
LINE
  5
87
330
1F
100
AcDbEntity
  8
0
 62
     7
100
AcDbLine
 10
-13.80000305175781
 20
-15.4923400878906
 30
0.0
 11
-2.800003051757813
 21
-15.4923400878906
 31
0.0
  0
LINE
  5
88
330
1F
100
AcDbEntity
  8
0
 62
     7
100
AcDbLine
 10
-17.19999694824219
 20
-18.8280487060547
 30
0.0
 11
-13.80000305175781
 21
-18.8280487060547
 31
0.0
  0
LINE
  5
89
330
1F
100
AcDbEntity
  8
0
 62
     7
100
AcDbLine
 10
-2.800003051757813
 20
-18.8280487060547
 30
0.0
 11
-1.699996948242188
 21
-18.8280487060547
 31
0.0
  0
LINE
  5
8A
330
1F
100
AcDbEntity
  8
0
 62
     7
100
AcDbLine
 10
-13.80000305175781
 20
-27.1737365722656
 30
0.0
 11
-2.800003051757813
 21
-27.1737365722656
 31
0.0
  0
LINE
  5
8B
330
1F
100
AcDbEntity
  8
0
 62
     7
100
AcDbLine
 10
-17.19999694824219
 20
-29.43475341796869
 30
0.0
 11
-13.80000305175781
 21
-29.43475341796869
 31
0.0
  0
LINE
  5
8C
330
1F
100
AcDbEntity
  8
0
 62
     7
100
AcDbLine
 10
-2.800003051757813
 20
-29.43475341796869
 30
0.0
 11
-1.699996948242188
 21
-29.43475341796869
 31
0.0
  0
LINE
  5
8D
330
1F
100
AcDbEntity
  8
0
 62
     7
100
AcDbLine
 10
-13.80000305175781
 20
-34.0355072021484
 30
0.0
 11
-2.800003051757813
 21
-34.0355072021484
 31
0.0
  0
LINE
  5
8E
330
1F
100
AcDbEntity
  8
0
 62
     7
100
AcDbLine
 10
-17.19999694824219
 20
-34.8308868408203
 30
0.0
 11
-13.80000305175781
 21
-34.8308868408203
 31
0.0
  0
LINE
  5
8F
330
1F
100
AcDbEntity
  8
0
 62
     7
100
AcDbLine
 10
-2.800003051757813
 20
-34.8308868408203
 30
0.0
 11
-1.699996948242188
 21
-34.8308868408203
 31
0.0
  0
LINE
  5
90
330
1F
100
AcDbEntity
  8
0
 62
     7
100
AcDbLine
 10
-38.1000061035156
 20
23.69999694824219
 30
0.0
 11
-32.1000061035156
 21
23.69999694824219
 31
0.0
  0
LINE
  5
91
330
1F
100
AcDbEntity
  8
0
 62
     7
100
AcDbLine
 10
-38.1000061035156
 20
7.050003051757813
 30
0.0
 11
-32.1000061035156
 21
7.050003051757813
 31
0.0
  0
LINE
  5
92
330
1F
100
AcDbEntity
  8
0
 62
     7
100
AcDbLine
 10
1.100006103515597
 20
23.69999694824219
 30
0.0
 11
7.100006103515597
 21
23.69999694824219
 31
0.0
  0
LINE
  5
93
330
1F
100
AcDbEntity
  8
0
 62
     7
100
AcDbLine
 10
1.100006103515597
 20
7.050003051757813
 30
0.0
 11
7.100006103515597
 21
7.050003051757813
 31
0.0
  0
LINE
  5
94
330
1F
100
AcDbEntity
  8
0
 62
     7
100
AcDbLine
 10
-26.72999572753909
 20
25.77998352050781
 30
0.0
 11
-26.72999572753909
 21
23.69999694824219
 31
0.0
  0
LINE
  5
95
330
1F
100
AcDbEntity
  8
0
 62
     7
100
AcDbLine
 10
-4.269989013671903
 20
25.77998352050781
 30
0.0
 11
-4.269989013671903
 21
23.69999694824219
 31
0.0
  0
LINE
  5
96
330
1F
100
AcDbEntity
  8
0
 62
     7
100
AcDbLine
 10
-11.90000009536743
 20
7.049996852874756
 30
0.0
 11
-11.90000009536743
 21
27.26999664306641
 31
0.0
  0
LINE
  5
97
330
1F
100
AcDbEntity
  8
0
 62
     7
100
AcDbLine
 10
-11.90000009536743
 20
27.26999664306641
 30
0.0
 11
-4.700000762939453
 21
27.26999664306641
 31
0.0
  0
LINE
  5
98
330
1F
100
AcDbEntity
  8
0
 62
     7
100
AcDbLine
 10
-4.700000762939453
 20
27.26999664306641
 30
0.0
 11
-4.700000762939453
 21
24.19999694824219
 31
0.0
  0
LINE
  5
99
330
1F
100
AcDbEntity
  8
0
 62
     7
100
AcDbLine
 10
-4.200000762939453
 20
23.69999694824219
 30
0.0
 11
1.100000381469727
 21
23.69999694824219
 31
0.0
  0
LINE
  5
9A
330
1F
100
AcDbEntity
  8
0
 62
     7
100
AcDbLine
 10
10.10000038146973
 20
22.0999927520752
 30
0.0
 11
10.10000038146973
 21
7.049996852874756
 31
0.0
  0
LINE
  5
9B
330
1F
100
AcDbEntity
  8
0
 62
     7
100
AcDbLine
 10
10.10000038146973
 20
7.049996852874756
 30
0.0
 11
7.100000381469727
 21
7.049996852874756
 31
0.0
  0
LINE
  5
9C
330
1F
100
AcDbEntity
  8
0
 62
     7
100
AcDbLine
 10
7.100000381469727
 20
23.69999694824219
 30
0.0
 11
8.5
 21
23.69999694824219
 31
0.0
  0
LINE
  5
9D
330
1F
100
AcDbEntity
  8
0
 62
     7
100
AcDbLine
 10
1.100000381469727
 20
7.049996852874756
 30
0.0
 11
-11.90000009536743
 21
7.049996852874756
 31
0.0
  0
LINE
  5
9E
330
1F
100
AcDbEntity
  8
0
 62
     7
100
AcDbLine
 10
-19.09999990463257
 20
7.049996852874756
 30
0.0
 11
-19.09999990463257
 21
27.26999664306641
 31
0.0
  0
LINE
  5
9F
330
1F
100
AcDbEntity
  8
0
 62
     7
100
AcDbLine
 10
-19.09999990463257
 20
27.26999664306641
 30
0.0
 11
-26.29999923706055
 21
27.26999664306641
 31
0.0
  0
LINE
  5
A0
330
1F
100
AcDbEntity
  8
0
 62
     7
100
AcDbLine
 10
-26.29999923706055
 20
27.26999664306641
 30
0.0
 11
-26.29999923706055
 21
24.19999694824219
 31
0.0
  0
LINE
  5
A1
330
1F
100
AcDbEntity
  8
0
 62
     7
100
AcDbLine
 10
-26.79999923706055
 20
23.69999694824219
 30
0.0
 11
-32.10000038146973
 21
23.69999694824219
 31
0.0
  0
LINE
  5
A2
330
1F
100
AcDbEntity
  8
0
 62
     7
100
AcDbLine
 10
-41.10000038146973
 20
22.09999656677246
 30
0.0
 11
-41.10000038146973
 21
7.049996852874756
 31
0.0
  0
LINE
  5
A3
330
1F
100
AcDbEntity
  8
0
 62
     7
100
AcDbLine
 10
-41.10000038146973
 20
7.049996852874756
 30
0.0
 11
-38.10000038146973
 21
7.049996852874756
 31
0.0
  0
LINE
  5
A4
330
1F
100
AcDbEntity
  8
0
 62
     7
100
AcDbLine
 10
-38.10000038146973
 20
23.69999694824219
 30
0.0
 11
-39.49999809265137
 21
23.69999694824219
 31
0.0
  0
LINE
  5
A5
330
1F
100
AcDbEntity
  8
0
 62
     7
100
AcDbLine
 10
-32.10000038146973
 20
7.049996852874756
 30
0.0
 11
-19.09999990463257
 21
7.049996852874756
 31
0.0
  0
LINE
  5
A6
330
1F
100
AcDbEntity
  8
0
 62
     7
100
AcDbLine
 10
-41.10000288305056
 20
22.09999868934361
 30
0.0
 11
-39.50000043219816
 21
23.69999925201554
 31
0.0
  0
LINE
  5
A7
330
1F
100
AcDbEntity
  8
0
 62
     7
100
AcDbLine
 10
8.500000474359098
 20
23.69999739756824
 30
0.0
 11
10.10000086844073
 21
22.09999309225341
 31
0.0
  0
LINE
  5
A8
330
1F
100
AcDbEntity
  8
0
 62
     7
100
AcDbLine
 10
-28.34998321533203
 20
37.57998657226563
 30
0.0
 11
-28.34998321533203
 21
33.239990234375
 31
0.0
  0
LINE
  5
A9
330
1F
100
AcDbEntity
  8
0
 62
     7
100
AcDbLine
 10
-31.50000762939453
 20
35.37998962402344
 30
0.0
 11
-31.50000762939453
 21
33.239990234375
 31
0.0
  0
LINE
  5
AA
330
1F
100
AcDbEntity
  8
0
 62
     7
100
AcDbLine
 10
-31.69998931884766
 20
33.239990234375
 30
0.0
 11
-27.50001525878906
 21
33.239990234375
 31
0.0
  0
LINE
  5
AB
330
1F
100
AcDbEntity
  8
0
 62
     7
100
AcDbLine
 10
-31.69998931884766
 20
33.239990234375
 30
0.0
 11
-31.69998931884766
 21
29.239990234375
 31
0.0
  0
LINE
  5
AC
330
1F
100
AcDbEntity
  8
0
 62
     7
100
AcDbLine
 10
-31.69998931884766
 20
29.239990234375
 30
0.0
 11
-27.50001525878906
 21
29.239990234375
 31
0.0
  0
LINE
  5
AD
330
1F
100
AcDbEntity
  8
0
 62
     7
100
AcDbLine
 10
-31.50000762939453
 20
29.239990234375
 30
0.0
 11
-31.50000762939453
 21
25.77998352050781
 31
0.0
  0
LINE
  5
AE
330
1F
100
AcDbEntity
  8
0
 62
     7
100
AcDbLine
 10
-28.34998321533203
 20
29.239990234375
 30
0.0
 11
-28.34998321533203
 21
25.77998352050781
 31
0.0
  0
LINE
  5
AF
330
1F
100
AcDbEntity
  8
0
 62
     7
100
AcDbLine
 10
-31.50000762939453
 20
25.77998352050781
 30
0.0
 11
-26.72999572753906
 21
25.77998352050781
 31
0.0
  0
LINE
  5
B0
330
1F
100
AcDbEntity
  8
0
 62
     7
100
AcDbLine
 10
-26.72999572753906
 20
27.27998352050781
 30
0.0
 11
-26.72999572753906
 21
25.77998352050781
 31
0.0
  0
LINE
  5
B1
330
1F
100
AcDbEntity
  8
0
 62
     7
100
AcDbLine
 10
-27.50001525878906
 20
28.93998718261719
 30
0.0
 11
-17.5
 21
28.93998718261719
 31
0.0
  0
LINE
  5
B2
330
1F
100
AcDbEntity
  8
0
 62
     7
100
AcDbLine
 10
-27.50001525878906
 20
28.93998718261719
 30
0.0
 11
-27.50001525878906
 21
29.239990234375
 31
0.0
  0
LINE
  5
B3
330
1F
100
AcDbEntity
  8
0
 62
     7
100
AcDbLine
 10
-27.50001525878906
 20
33.53999328613281
 30
0.0
 11
-17.5
 21
33.53999328613281
 31
0.0
  0
LINE
  5
B4
330
1F
100
AcDbEntity
  8
0
 62
     7
100
AcDbLine
 10
-27.50001525878906
 20
33.53999328613281
 30
0.0
 11
-27.50001525878906
 21
33.239990234375
 31
0.0
  0
LINE
  5
B5
330
1F
100
AcDbEntity
  8
0
 62
     7
100
AcDbLine
 10
-26.20097351074219
 20
31.989990234375
 30
0.0
 11
-18.79904174804688
 21
31.989990234375
 31
0.0
  0
LINE
  5
B6
330
1F
100
AcDbEntity
  8
0
 62
     7
100
AcDbLine
 10
-26.20097351074219
 20
30.489990234375
 30
0.0
 11
-18.79904174804688
 21
30.489990234375
 31
0.0
  0
LINE
  5
B7
330
1F
100
AcDbEntity
  8
0
 62
     7
100
AcDbLine
 10
-27.50002835286699
 20
31.24003885960295
 30
0.0
 11
-26.20099021131028
 21
31.99003879745686
 31
0.0
  0
LINE
  5
B8
330
1F
100
AcDbEntity
  8
0
 62
     7
100
AcDbLine
 10
-27.50000282375231
 20
31.24003949676273
 30
0.0
 11
-26.20096446028305
 21
30.49003994327279
 31
0.0
  0
LINE
  5
B9
330
1F
100
AcDbEntity
  8
0
 62
     7
100
AcDbLine
 10
-18.79901572186037
 20
31.99000810401356
 30
0.0
 11
-17.49997758030366
 21
31.24000816615964
 31
0.0
  0
LINE
  5
BA
330
1F
100
AcDbEntity
  8
0
 62
     7
100
AcDbLine
 10
-18.79905819398573
 20
30.49002685513565
 30
0.0
 11
-17.50002005242902
 21
31.24002679298957
 31
0.0
  0
LINE
  5
BB
330
1F
100
AcDbEntity
  8
0
 62
     7
100
AcDbLine
 10
-17.5
 20
28.93998718261719
 30
0.0
 11
-17.5
 21
29.239990234375
 31
0.0
  0
LINE
  5
BC
330
1F
100
AcDbEntity
  8
0
 62
     7
100
AcDbLine
 10
-17.5
 20
33.53999328613281
 30
0.0
 11
-17.5
 21
33.239990234375
 31
0.0
  0
LINE
  5
BD
330
1F
100
AcDbEntity
  8
0
 62
     7
100
AcDbLine
 10
-13.5
 20
33.239990234375
 30
0.0
 11
-17.5
 21
33.239990234375
 31
0.0
  0
LINE
  5
BE
330
1F
100
AcDbEntity
  8
0
 62
     7
100
AcDbLine
 10
-3.5
 20
33.53999328613281
 30
0.0
 11
-13.5
 21
33.53999328613281
 31
0.0
  0
LINE
  5
BF
330
1F
100
AcDbEntity
  8
0
 62
     7
100
AcDbLine
 10
-13.5
 20
33.53999328613281
 30
0.0
 11
-13.5
 21
33.239990234375
 31
0.0
  0
LINE
  5
C0
330
1F
100
AcDbEntity
  8
0
 62
     7
100
AcDbLine
 10
-13.5
 20
29.239990234375
 30
0.0
 11
-17.5
 21
29.239990234375
 31
0.0
  0
LINE
  5
C1
330
1F
100
AcDbEntity
  8
0
 62
     7
100
AcDbLine
 10
-13.5
 20
28.93998718261719
 30
0.0
 11
-13.5
 21
29.239990234375
 31
0.0
  0
LINE
  5
C2
330
1F
100
AcDbEntity
  8
0
 62
     7
100
AcDbLine
 10
-3.5
 20
28.93998718261719
 30
0.0
 11
-13.5
 21
28.93998718261719
 31
0.0
  0
LINE
  5
C3
330
1F
100
AcDbEntity
  8
0
 62
     7
100
AcDbLine
 10
-1.699996948242188
 20
37.57998657226563
 30
0.0
 11
-29.29999542236328
 21
37.57998657226563
 31
0.0
  0
LINE
  5
C4
330
1F
100
AcDbEntity
  8
0
 62
     7
100
AcDbLine
 10
-2.650001525878906
 20
37.57998657226563
 30
0.0
 11
-2.650001525878906
 21
33.239990234375
 31
0.0
  0
LINE
  5
C5
330
1F
100
AcDbEntity
  8
0
 62
     7
100
AcDbLine
 10
-13.95999908447266
 20
37.57998657226563
 30
0.0
 11
-13.95999908447266
 21
33.239990234375
 31
0.0
  0
LINE
  5
C6
330
1F
100
AcDbEntity
  8
0
 62
     7
100
AcDbLine
 10
-17.04000091552734
 20
37.57998657226563
 30
0.0
 11
-17.04000091552734
 21
33.239990234375
 31
0.0
  0
LINE
  5
C7
330
1F
100
AcDbEntity
  8
0
 62
     7
100
AcDbLine
 10
-26.72999572753906
 20
27.27998352050781
 30
0.0
 11
-18.65000152587891
 21
27.27998352050781
 31
0.0
  0
LINE
  5
C8
330
1F
100
AcDbEntity
  8
0
 62
     7
100
AcDbLine
 10
-18.65000152587891
 20
27.27998352050781
 30
0.0
 11
-18.65000152587891
 21
25.77998352050781
 31
0.0
  0
LINE
  5
C9
330
1F
100
AcDbEntity
  8
0
 62
     7
100
AcDbLine
 10
-17.04000091552734
 20
29.239990234375
 30
0.0
 11
-17.04000091552734
 21
25.77998352050781
 31
0.0
  0
LINE
  5
CA
330
1F
100
AcDbEntity
  8
0
 62
     7
100
AcDbLine
 10
-13.95999908447266
 20
29.239990234375
 30
0.0
 11
-13.95999908447266
 21
25.77998352050781
 31
0.0
  0
LINE
  5
CB
330
1F
100
AcDbEntity
  8
0
 62
     7
100
AcDbLine
 10
-12.34999847412109
 20
25.77998352050781
 30
0.0
 11
-18.65000152587891
 21
25.77998352050781
 31
0.0
  0
LINE
  5
CC
330
1F
100
AcDbEntity
  8
0
 62
     7
100
AcDbLine
 10
-12.34999847412109
 20
27.27998352050781
 30
0.0
 11
-12.34999847412109
 21
25.77998352050781
 31
0.0
  0
LINE
  5
CD
330
1F
100
AcDbEntity
  8
0
 62
     7
100
AcDbLine
 10
-4.269996643066406
 20
27.27998352050781
 30
0.0
 11
-12.34999847412109
 21
27.27998352050781
 31
0.0
  0
LINE
  5
CE
330
1F
100
AcDbEntity
  8
0
 62
     7
100
AcDbLine
 10
-4.799034118652344
 20
31.989990234375
 30
0.0
 11
-12.20095825195313
 21
31.989990234375
 31
0.0
  0
LINE
  5
CF
330
1F
100
AcDbEntity
  8
0
 62
     7
100
AcDbLine
 10
-12.20098147962776
 20
31.99003711228934
 30
0.0
 11
-13.50001962118446
 21
31.24003717443543
 31
0.0
  0
LINE
  5
D0
330
1F
100
AcDbEntity
  8
0
 62
     7
100
AcDbLine
 10
-12.20092506658898
 20
30.49001388700043
 30
0.0
 11
-13.49996320814574
 21
31.24001382485432
 31
0.0
  0
LINE
  5
D1
330
1F
100
AcDbEntity
  8
0
 62
     7
100
AcDbLine
 10
-4.799034118652344
 20
30.489990234375
 30
0.0
 11
-12.20095825195313
 21
30.489990234375
 31
0.0
  0
LINE
  5
D2
330
1F
100
AcDbEntity
  8
0
 62
     7
100
AcDbLine
 10
-3.499985559788428
 20
31.24005264508972
 30
0.0
 11
-4.799023923257693
 21
31.99005219857966
 31
0.0
  0
LINE
  5
D3
330
1F
100
AcDbEntity
  8
0
 62
     7
100
AcDbLine
 10
-3.499966802356568
 20
31.23994022883463
 30
0.0
 11
-4.799005927671544
 21
30.48994008755145
 31
0.0
  0
LINE
  5
D4
330
1F
100
AcDbEntity
  8
0
 62
     7
100
AcDbLine
 10
-3.5
 20
33.53999328613281
 30
0.0
 11
-3.5
 21
33.239990234375
 31
0.0
  0
LINE
  5
D5
330
1F
100
AcDbEntity
  8
0
 62
     7
100
AcDbLine
 10
0.7000045776367188
 20
33.239990234375
 30
0.0
 11
-3.5
 21
33.239990234375
 31
0.0
  0
LINE
  5
D6
330
1F
100
AcDbEntity
  8
0
 62
     7
100
AcDbLine
 10
0.5
 20
35.37998962402344
 30
0.0
 11
0.5
 21
33.239990234375
 31
0.0
  0
LINE
  5
D7
330
1F
100
AcDbEntity
  8
0
 62
     7
100
AcDbLine
 10
0.7000045776367188
 20
33.239990234375
 30
0.0
 11
0.7000045776367188
 21
29.239990234375
 31
0.0
  0
LINE
  5
D8
330
1F
100
AcDbEntity
  8
0
 62
     7
100
AcDbLine
 10
0.7000045776367188
 20
29.239990234375
 30
0.0
 11
-3.5
 21
29.239990234375
 31
0.0
  0
LINE
  5
D9
330
1F
100
AcDbEntity
  8
0
 62
     7
100
AcDbLine
 10
0.5
 20
29.239990234375
 30
0.0
 11
0.5
 21
25.77998352050781
 31
0.0
  0
LINE
  5
DA
330
1F
100
AcDbEntity
  8
0
 62
     7
100
AcDbLine
 10
-2.650001525878906
 20
29.239990234375
 30
0.0
 11
-2.650001525878906
 21
25.77998352050781
 31
0.0
  0
LINE
  5
DB
330
1F
100
AcDbEntity
  8
0
 62
     7
100
AcDbLine
 10
-3.5
 20
28.93998718261719
 30
0.0
 11
-3.5
 21
29.239990234375
 31
0.0
  0
LINE
  5
DC
330
1F
100
AcDbEntity
  8
0
 62
     7
100
AcDbLine
 10
-4.269996643066406
 20
27.27998352050781
 30
0.0
 11
-4.269996643066406
 21
25.77998352050781
 31
0.0
  0
LINE
  5
DD
330
1F
100
AcDbEntity
  8
0
 62
     7
100
AcDbLine
 10
0.5
 20
25.77998352050781
 30
0.0
 11
-4.269996643066406
 21
25.77998352050781
 31
0.0
  0
LINE
  5
DE
330
1F
100
AcDbEntity
  8
0
 62
     7
100
AcDbLine
 10
91.91392947575929
 20
16.09878636754354
 30
0.0
 11
87.54779853840088
 21
18.04271819847008
 31
0.0
  0
LINE
  5
DF
330
1F
100
AcDbEntity
  8
0
 62
     7
100
AcDbLine
 10
97.6443514754999
 20
25.37823358083782
 30
0.0
 11
100.8293588293691
 21
20.99444099726605
 31
0.0
  0
LINE
  5
E0
330
1F
100
AcDbEntity
  8
0
 62
     7
100
AcDbLine
 10
87.6033462072638
 20
5.580906387538192
 30
0.0
 11
82.82401881468816
 21
5.580911265755248
 31
0.0
  0
LINE
  5
E1
330
1F
100
AcDbEntity
  8
0
 62
     7
100
AcDbLine
 10
89.06405649472541
 20
16.38887577755457
 30
0.0
 11
93.75675444735873
 21
13.6795409541466
 31
0.0
  0
LINE
  5
E2
330
1F
100
AcDbEntity
  8
0
 62
     7
100
AcDbLine
 10
87.94344209583655
 20
-5.780920828012313
 30
0.0
 11
83.57730719956703
 21
-7.724843767077886
 31
0.0
  0
LINE
  5
E3
330
1F
100
AcDbEntity
  8
0
 62
     7
100
AcDbLine
 10
84.88187059751888
 20
4.686775042622941
 30
0.0
 11
90.27084922337122
 21
4.120366506240288
 31
0.0
  0
LINE
  5
E4
330
1F
100
AcDbEntity
  8
0
 62
     7
100
AcDbLine
 10
92.87539801173401
 20
-16.02213602205538
 30
0.0
 11
89.67739986969538
 21
-19.57386492626031
 31
0.0
  0
LINE
  5
E5
330
1F
100
AcDbEntity
  8
0
 62
     7
100
AcDbLine
 10
85.82091810318251
 20
-7.704673061556491
 30
0.0
 11
90.97437421649325
 21
-6.030218120938429
 31
0.0
  0
LINE
  5
E6
330
1F
100
AcDbEntity
  8
0
 62
     7
100
AcDbLine
 10
101.5464458851088
 20
-23.37194764375496
 30
0.0
 11
100.0695473316575
 21
-27.91735642496059
 31
0.0
  0
LINE
  5
E7
330
1F
100
AcDbEntity
  8
0
 62
     7
100
AcDbLine
 10
91.71884102083637
 20
-18.6428822486522
 30
0.0
 11
95.74569539747496
 21
-15.01709225344746
 31
0.0
  0
LINE
  5
E8
330
1F
100
AcDbEntity
  8
0
 62
     7
100
AcDbLine
 10
112.457275589808
 20
-26.5595014092941
 30
0.0
 11
112.9568458217002
 21
-31.31264772608833
 31
0.0
  0
LINE
  5
E9
330
1F
100
AcDbEntity
  8
0
 62
     7
100
AcDbLine
 10
101.5558276304849
 20
-26.23653195315985
 30
0.0
 11
103.7598006206369
 21
-21.28633879342752
 31
0.0
  0
LINE
  5
EA
330
1F
100
AcDbEntity
  8
0
 62
     7
100
AcDbLine
 10
123.7213111315055
 20
-25.03364539894884
 30
0.0
 11
126.110966197971
 21
-29.17266931634333
 31
0.0
  0
LINE
  5
EB
330
1F
100
AcDbEntity
  8
0
 62
     7
100
AcDbLine
 10
113.6309823990082
 20
-29.17261419763597
 30
0.0
 11
113.6309919742047
 21
-23.75395114667141
 31
0.0
  0
LINE
  5
EC
330
1F
100
AcDbEntity
  8
0
 62
     7
100
AcDbLine
 10
133.3909021051829
 20
-19.05820746487129
 30
0.0
 11
137.2574557223344
 21
-21.86743039143673
 31
0.0
  0
LINE
  5
ED
330
1F
100
AcDbEntity
  8
0
 62
     7
100
AcDbLine
 10
125.8563959661713
 20
-26.94345280795503
 30
0.0
 11
123.652431679106
 21
-21.99325577335922
 31
0.0
  0
LINE
  5
EE
330
1F
100
AcDbEntity
  8
0
 62
     7
100
AcDbLine
 10
139.7940846060533
 20
-9.66640144430184
 30
0.0
 11
144.4689710003769
 21
-10.66008526001804
 31
0.0
  0
LINE
  5
EF
330
1F
100
AcDbEntity
  8
0
 62
     7
100
AcDbLine
 10
136.1181889455389
 20
-19.93449123610047
 30
0.0
 11
132.0913408657484
 21
-16.30869424753816
 31
0.0
  0
LINE
  5
F0
330
1F
100
AcDbEntity
  8
0
 62
     7
100
AcDbLine
 10
141.823689781248
 20
1.517849750181142
 30
0.0
 11
146.4985786576627
 21
2.511521888575629
 31
0.0
  0
LINE
  5
F1
330
1F
100
AcDbEntity
  8
0
 62
     7
100
AcDbLine
 10
142.6420000815696
 20
-9.357638520780142
 30
0.0
 11
137.4885468585489
 21
-7.683174684766584
 31
0.0
  0
LINE
  5
F2
330
1F
100
AcDbEntity
  8
0
 62
     7
100
AcDbLine
 10
139.1287842011844
 20
12.56068956450343
 30
0.0
 11
142.9953449522124
 21
15.36990267212943
 31
0.0
  0
LINE
  5
F3
330
1F
100
AcDbEntity
  8
0
 62
     7
100
AcDbLine
 10
144.2998070300862
 20
2.958273213271554
 30
0.0
 11
138.9108274226338
 21
2.391874016200006
 31
0.0
  0
LINE
  5
F4
330
1F
100
AcDbEntity
  8
0
 62
     7
100
AcDbLine
 10
132.1753387546717
 20
21.55271206730714
 30
0.0
 11
134.5650109020429
 21
25.69172612303657
 31
0.0
  0
LINE
  5
F5
330
1F
100
AcDbEntity
  8
0
 62
     7
100
AcDbLine
 10
140.8049549868309
 20
14.88371388710365
 30
0.0
 11
136.1122523641736
 21
12.17438715241755
 31
0.0
  0
LINE
  5
F6
330
1F
100
AcDbEntity
  8
0
 62
     7
100
AcDbLine
 10
122.1656593147171
 20
26.93911400525283
 30
0.0
 11
122.6652415808564
 21
31.69225905719549
 31
0.0
  0
LINE
  5
F7
330
1F
100
AcDbEntity
  8
0
 62
     7
100
AcDbLine
 10
132.7617348103097
 20
24.35666149433783
 30
0.0
 11
129.5767199636594
 21
19.97287435459236
 31
0.0
  0
LINE
  5
F8
330
1F
100
AcDbEntity
  8
0
 62
     7
100
AcDbLine
 10
110.8305190762758
 20
27.78852475418512
 30
0.0
 11
109.3536321212872
 21
32.33393730395792
 31
0.0
  0
LINE
  5
F9
330
1F
100
AcDbEntity
  8
0
 62
     7
100
AcDbLine
 10
121.5608938640775
 20
29.73914870378115
 30
0.0
 11
120.4342846532294
 21
24.43889767708322
 31
0.0
  0
ARC
  5
FA
330
1F
100
AcDbEntity
  8
0
 62
     7
100
AcDbCircle
 10
-29.29998779296881
 20
-34.16998291015619
 30
0.0
 40
2.200000047683716
100
AcDbArc
 50
179.9999813306654
 51
269.999963344577
  0
ARC
  5
FB
330
1F
100
AcDbEntity
  8
0
 62
     7
100
AcDbCircle
 10
-1.699996948242188
 20
-34.16998291015619
 30
0.0
 40
2.200000047683716
100
AcDbArc
 50
269.9999633445769
 51
359.9999453584874
  0
CIRCLE
  5
FC
330
1F
100
AcDbEntity
  8
0
 62
     7
100
AcDbCircle
 10
114.5
 20
0.6999969482421875
 30
0.0
 40
6.349999904632568
  0
CIRCLE
  5
FD
330
1F
100
AcDbEntity
  8
0
 62
     7
100
AcDbCircle
 10
114.5
 20
0.6999969482421875
 30
0.0
 40
23.0
  0
ARC
  5
FE
330
1F
100
AcDbEntity
  8
0
 62
     7
100
AcDbCircle
 10
112.0224151611328
 20
12.35205078125
 30
0.0
 40
24.29999923706055
100
AcDbArc
 50
86.97692662688469
 51
120.6301565921296
  0
ARC
  5
FF
330
1F
100
AcDbEntity
  8
0
 62
     7
100
AcDbCircle
 10
102.0769500732422
 20
28.5992431640625
 30
0.0
 40
5.260000228881836
100
AcDbArc
 50
117.5790291276151
 51
192.0005107768859
  0
ARC
  5
100
330
1F
100
AcDbEntity
  8
0
 62
     7
100
AcDbCircle
 10
102.8423767089844
 20
26.39625549316409
 30
0.0
 40
3.650000095367432
100
AcDbArc
 50
222.0005220843667
 51
282.0882507037186
  0
ARC
  5
101
330
1F
100
AcDbEntity
  8
0
 62
     7
100
AcDbCircle
 10
117.9745407104492
 20
-4.423736572265597
 30
0.0
 40
30.66000175476074
100
AcDbArc
 50
116.0376466772398
 51
124.0005134380725
  0
CIRCLE
  5
102
330
1F
100
AcDbEntity
  8
0
 62
     7
100
AcDbCircle
 10
102.0769500732422
 20
28.5992431640625
 30
0.0
 40
2.0
  0
ARC
  5
103
330
1F
100
AcDbEntity
  8
0
 62
     7
100
AcDbCircle
 10
114.5287322998047
 20
31.24607849121091
 30
0.0
 40
5.510000228881836
100
AcDbArc
 50
102.8431145593659
 51
192.0005107768861
  0
ARC
  5
104
330
1F
100
AcDbEntity
  8
0
 62
     7
100
AcDbCircle
 10
115.5901412963867
 20
-5.393981933593693
 30
0.0
 40
30.66000175476074
100
AcDbArc
 50
100.0005196004007
 51
113.0072215160993
  0
ARC
  5
105
330
1F
100
AcDbEntity
  8
0
 62
     7
100
AcDbCircle
 10
119.7581634521484
 20
-2.567550659179688
 30
0.0
 40
30.66000175476074
100
AcDbArc
 50
140.0376473451006
 51
148.0005141059333
  0
ARC
  5
106
330
1F
100
AcDbEntity
  8
0
 62
     7
100
AcDbCircle
 10
120.6325988769531
 20
-0.1463623046875
 30
0.0
 40
30.66000175476074
100
AcDbArc
 50
164.0376480129615
 51
172.0005147737941
  0
ARC
  5
107
330
1F
100
AcDbEntity
  8
0
 62
     7
100
AcDbCircle
 10
120.4466552734375
 20
2.421157836914091
 30
0.0
 40
30.66000175476074
100
AcDbArc
 50
188.037665983667
 51
196.0005327444996
  0
ARC
  5
108
330
1F
100
AcDbEntity
  8
0
 62
     7
100
AcDbCircle
 10
119.2324829101563
 20
4.691070556640597
 30
0.0
 40
30.66000175476074
100
AcDbArc
 50
212.0376666515277
 51
220.0005334123605
  0
ARC
  5
109
330
1F
100
AcDbEntity
  8
0
 62
     7
100
AcDbCircle
 10
117.2000198364258
 20
6.270904541015597
 30
0.0
 40
30.66000175476074
100
AcDbArc
 50
236.0376673193887
 51
244.0005340802213
  0
ARC
  5
10A
330
1F
100
AcDbEntity
  8
0
 62
     7
100
AcDbCircle
 10
114.7006988525391
 20
6.887466430664091
 30
0.0
 40
30.66000175476074
100
AcDbArc
 50
260.0376679872496
 51
268.0005347480822
  0
ARC
  5
10B
330
1F
100
AcDbEntity
  8
0
 62
     7
100
AcDbCircle
 10
112.1666793823242
 20
6.434158325195313
 30
0.0
 40
30.66000175476074
100
AcDbArc
 50
284.0376686551103
 51
292.000535415943
  0
ARC
  5
10C
330
1F
100
AcDbEntity
  8
0
 62
     7
100
AcDbCircle
 10
110.0361099243164
 20
4.989364624023409
 30
0.0
 40
30.66000175476074
100
AcDbArc
 50
308.0376659078767
 51
316.0005326687093
  0
ARC
  5
10D
330
1F
100
AcDbEntity
  8
0
 62
     7
100
AcDbCircle
 10
108.6773910522461
 20
2.802902221679688
 30
0.0
 40
30.66000175476074
100
AcDbArc
 50
332.0376631606429
 51
340.0005299214757
  0
ARC
  5
10E
330
1F
100
AcDbEntity
  8
0
 62
     7
100
AcDbCircle
 10
108.3254547119141
 20
0.2528228759765909
 30
0.0
 40
30.66000175476074
100
AcDbArc
 50
356.0376604134092
 51
364.0005271742411
  0
ARC
  5
10F
330
1F
100
AcDbEntity
  8
0
 62
     7
100
AcDbCircle
 10
109.0411529541016
 20
-2.219924926757813
 30
0.0
 40
30.66000175476074
100
AcDbArc
 50
20.0376576661747
 51
28.00052442700735
  0
ARC
  5
110
330
1F
100
AcDbEntity
  8
0
 62
     7
100
AcDbCircle
 10
110.7007369995117
 20
-4.187805175781193
 30
0.0
 40
30.66000175476074
100
AcDbArc
 50
44.03765491894101
 51
52.00052167977363
  0
ARC
  5
111
330
1F
100
AcDbEntity
  8
0
 62
     7
100
AcDbCircle
 10
113.0172500610352
 20
-5.310531616210909
 30
0.0
 40
30.66000175476074
100
AcDbArc
 50
68.03765217170727
 51
76.00051893253993
  0
ARC
  5
112
330
1F
100
AcDbEntity
  8
0
 62
     7
100
AcDbCircle
 10
115.5901412963867
 20
-5.393981933593693
 30
0.0
 40
30.66000175476074
100
AcDbArc
 50
92.03764600937893
 51
100.0005127702115
  0
ARC
  5
113
330
1F
100
AcDbEntity
  8
0
 62
     7
100
AcDbCircle
 10
-4.200000762939453
 20
24.19999694824219
 30
0.0
 40
0.5
100
AcDbArc
 50
179.9999813306656
 51
270.0000179860901
  0
ARC
  5
114
330
1F
100
AcDbEntity
  8
0
 62
     7
100
AcDbCircle
 10
-26.79999923706055
 20
24.19999694824219
 30
0.0
 40
0.5
100
AcDbArc
 50
269.9999633445769
 51
360.0
  0
ARC
  5
115
330
1F
100
AcDbEntity
  8
0
 62
     7
100
AcDbCircle
 10
-29.29999542236328
 20
35.37998962402344
 30
0.0
 40
2.200000047683716
100
AcDbArc
 50
89.99998201391067
 51
179.9999640278213
  0
ARC
  5
116
330
1F
100
AcDbEntity
  8
0
 62
     7
100
AcDbCircle
 10
-1.699996948242188
 20
35.37998962402344
 30
0.0
 40
2.200000047683716
100
AcDbArc
 50
0.0
 51
89.99998201391067
  0
ARC
  5
117
330
1F
100
AcDbEntity
  8
0
 62
     7
100
AcDbCircle
 10
107.497101686538
 20
10.3369154165886
 30
0.0
 40
24.29999923706055
100
AcDbArc
 50
110.9763577882012
 51
144.629580923257
  0
ARC
  5
118
330
1F
100
AcDbEntity
  8
0
 62
     7
100
AcDbCircle
 10
91.80323484101179
 20
21.13443629507759
 30
0.0
 40
5.260000228881836
100
AcDbArc
 50
141.5784671191206
 51
215.9999436457493
  0
ARC
  5
119
330
1F
100
AcDbEntity
  8
0
 62
     7
100
AcDbCircle
 10
93.39851832371957
 20
19.43320966785467
 30
0.0
 40
3.650000095367432
100
AcDbArc
 50
245.9999461881219
 51
306.0876782225682
  0
ARC
  5
11A
330
1F
100
AcDbEntity
  8
0
 62
     7
100
AcDbCircle
 10
117.9742042956566
 20
-4.423859384991744
 30
0.0
 40
30.66000175476074
100
AcDbArc
 50
123.9999575919065
 51
137.0066526774159
  0
CIRCLE
  5
11B
330
1F
100
AcDbEntity
  8
0
 62
     7
100
AcDbCircle
 10
91.80323484101179
 20
21.13443629507759
 30
0.0
 40
2.0
  0
ARC
  5
11C
330
1F
100
AcDbEntity
  8
0
 62
     7
100
AcDbCircle
 10
102.1020245776398
 20
28.6169374080807
 30
0.0
 40
5.510000228881836
100
AcDbArc
 50
126.8425525508716
 51
215.9999436457493
  0
ARC
  5
11D
330
1F
100
AcDbEntity
  8
0
 62
     7
100
AcDbCircle
 10
104.1828464950509
 20
6.655421726430376
 30
0.0
 40
24.29999923706055
100
AcDbArc
 50
134.9763550932683
 51
168.6295782283241
  0
ARC
  5
11E
330
1F
100
AcDbEntity
  8
0
 62
     7
100
AcDbCircle
 10
85.45403849353411
 20
10.13617804206524
 30
0.0
 40
5.260000228881836
100
AcDbArc
 50
165.5784644241876
 51
239.9999409508163
  0
ARC
  5
11F
330
1F
100
AcDbEntity
  8
0
 62
     7
100
AcDbCircle
 10
87.60335363770128
 20
9.230890331761884
 30
0.0
 40
3.650000095367432
100
AcDbArc
 50
269.9999434931889
 51
330.0876755276352
  0
ARC
  5
120
330
1F
100
AcDbEntity
  8
0
 62
     7
100
AcDbCircle
 10
119.7579035510411
 20
-2.567796233024978
 30
0.0
 40
30.66000175476074
100
AcDbArc
 50
147.9999548969735
 51
161.0066499824829
  0
CIRCLE
  5
121
330
1F
100
AcDbEntity
  8
0
 62
     7
100
AcDbCircle
 10
85.45403849353411
 20
10.13617804206524
 30
0.0
 40
2.0
  0
ARC
  5
122
330
1F
100
AcDbEntity
  8
0
 62
     7
100
AcDbCircle
 10
91.8190442106754
 20
21.1606778114936
 30
0.0
 40
5.510000228881836
100
AcDbArc
 50
150.8425498559386
 51
239.9999409508163
  0
ARC
  5
123
330
1F
100
AcDbEntity
  8
0
 62
     7
100
AcDbCircle
 10
102.6525248379013
 20
1.944187449114679
 30
0.0
 40
24.29999923706055
100
AcDbArc
 50
158.9763526750332
 51
192.629575810089
  0
ARC
  5
124
330
1F
100
AcDbEntity
  8
0
 62
     7
100
AcDbCircle
 10
84.12715603456385
 20
-2.493675143039724
 30
0.0
 40
5.260000228881836
100
AcDbArc
 50
189.5784620059526
 51
263.9999385325813
  0
ARC
  5
125
330
1F
100
AcDbEntity
  8
0
 62
     7
100
AcDbCircle
 10
86.45886680785822
 20
-2.446491490409017
 30
0.0
 40
3.650000095367432
100
AcDbArc
 50
293.9999410749539
 51
354.0876731094002
  0
ARC
  5
126
330
1F
100
AcDbEntity
  8
0
 62
     7
100
AcDbCircle
 10
120.6324680868626
 20
-0.1466957587903153
 30
0.0
 40
30.66000175476074
100
AcDbArc
 50
171.9999524787385
 51
185.0066475642479
  0
CIRCLE
  5
127
330
1F
100
AcDbEntity
  8
0
 62
     7
100
AcDbCircle
 10
84.12715603456385
 20
-2.493675143039724
 30
0.0
 40
2.0
  0
ARC
  5
128
330
1F
100
AcDbEntity
  8
0
 62
     7
100
AcDbCircle
 10
85.45781060186137
 20
10.16658754649001
 30
0.0
 40
5.510000228881836
100
AcDbArc
 50
174.8425474377036
 51
263.9999385325813
  0
ARC
  5
129
330
1F
100
AcDbEntity
  8
0
 62
     7
100
AcDbCircle
 10
103.1707296087695
 20
-2.982175887402804
 30
0.0
 40
24.29999923706055
100
AcDbArc
 50
182.9763505661171
 51
216.6295737011728
  0
ARC
  5
12A
330
1F
100
AcDbEntity
  8
0
 62
     7
100
AcDbCircle
 10
88.05200399392371
 20
-14.57131086243513
 30
0.0
 40
5.260000228881836
100
AcDbArc
 50
213.5784598970364
 51
287.999936423665
  0
ARC
  5
12B
330
1F
100
AcDbEntity
  8
0
 62
     7
100
AcDbCircle
 10
90.16293649541856
 20
-13.57981431604418
 30
0.0
 40
3.650000095367432
100
AcDbArc
 50
317.9999389660377
 51
378.0876710004839
  0
ARC
  5
12C
330
1F
100
AcDbEntity
  8
0
 62
     7
100
AcDbCircle
 10
120.4466641084472
 20
2.420808379445788
 30
0.0
 40
30.66000175476074
100
AcDbArc
 50
195.9999503698223
 51
209.0066454553317
  0
CIRCLE
  5
12D
330
1F
100
AcDbEntity
  8
0
 62
     7
100
AcDbCircle
 10
88.05200399392371
 20
-14.57131086243513
 30
0.0
 40
2.0
  0
ARC
  5
12E
330
1F
100
AcDbEntity
  8
0
 62
     7
100
AcDbCircle
 10
84.11822512839959
 20
-2.464359273264449
 30
0.0
 40
5.510000228881836
100
AcDbArc
 50
198.8425453287873
 51
287.999936423665
  0
ARC
  5
12F
330
1F
100
AcDbEntity
  8
0
 62
     7
100
AcDbCircle
 10
105.647870287584
 20
-7.271862834132861
 30
0.0
 40
24.29999923706055
100
AcDbArc
 50
206.9763484376792
 51
240.629571572735
  0
ARC
  5
130
330
1F
100
AcDbEntity
  8
0
 62
     7
100
AcDbCircle
 10
96.54995241096059
 20
-24.00840381477543
 30
0.0
 40
5.260000228881836
100
AcDbArc
 50
237.5784577685986
 51
311.9999342952273
  0
ARC
  5
131
330
1F
100
AcDbEntity
  8
0
 62
     7
100
AcDbCircle
 10
98.07510729773432
 20
-22.24403310579085
 30
0.0
 40
3.650000095367432
100
AcDbArc
 50
341.9999368375999
 51
402.0876688720462
  0
ARC
  5
132
330
1F
100
AcDbEntity
  8
0
 62
     7
100
AcDbCircle
 10
119.2326305373969
 20
4.690764000307439
 30
0.0
 40
30.66000175476074
100
AcDbArc
 50
219.9999482413845
 51
233.0066433268939
  0
CIRCLE
  5
133
330
1F
100
AcDbEntity
  8
0
 62
     7
100
AcDbCircle
 10
96.54995241096059
 20
-24.00840381477543
 30
0.0
 40
2.0
  0
ARC
  5
134
330
1F
100
AcDbEntity
  8
0
 62
     7
100
AcDbCircle
 10
88.03192610116135
 20
-14.5481648785257
 30
0.0
 40
5.510000228881836
100
AcDbArc
 50
222.8425432003495
 51
311.9999342952273
  0
ARC
  5
135
330
1F
100
AcDbEntity
  8
0
 62
     7
100
AcDbCircle
 10
109.655619160693
 20
-10.18314240433074
 30
0.0
 40
24.29999923706055
100
AcDbArc
 50
230.9763470842441
 51
264.6295702192999
  0
ARC
  5
136
330
1F
100
AcDbEntity
  8
0
 62
     7
100
AcDbCircle
 10
108.1516216570845
 20
-29.17318993443584
 30
0.0
 40
5.260000228881836
100
AcDbArc
 50
261.5784564151635
 51
335.9999329417921
  0
ARC
  5
137
330
1F
100
AcDbEntity
  8
0
 62
     7
100
AcDbCircle
 10
108.8272858095124
 20
-26.94102072478877
 30
0.0
 40
3.650000095367432
100
AcDbArc
 50
5.999935484164752
 51
66.08766751861099
  0
ARC
  5
138
330
1F
100
AcDbEntity
  8
0
 62
     7
100
AcDbCircle
 10
117.2002768877352
 20
6.27068060452504
 30
0.0
 40
30.66000175476074
100
AcDbArc
 50
243.9999468879493
 51
257.0066419734587
  0
CIRCLE
  5
139
330
1F
100
AcDbEntity
  8
0
 62
     7
100
AcDbCircle
 10
108.1516216570845
 20
-29.17318993443584
 30
0.0
 40
2.0
  0
ARC
  5
13A
330
1F
100
AcDbEntity
  8
0
 62
     7
100
AcDbCircle
 10
96.52219170837063
 20
-23.99542477818109
 30
0.0
 40
5.510000228881836
100
AcDbArc
 50
246.8425418469144
 51
335.9999329417921
  0
ARC
  5
13B
330
1F
100
AcDbEntity
  8
0
 62
     7
100
AcDbCircle
 10
114.5010091201496
 20
-11.21263111457694
 30
0.0
 40
24.29999923706055
100
AcDbArc
 50
254.9762941133608
 51
288.6295172484166
  0
ARC
  5
13C
330
1F
100
AcDbEntity
  8
0
 62
     7
100
AcDbCircle
 10
120.8509864807079
 20
-29.17263393214095
 30
0.0
 40
5.260000228881836
100
AcDbArc
 50
285.5784034442802
 51
359.9998799709088
  0
ARC
  5
13D
330
1F
100
AcDbEntity
  8
0
 62
     7
100
AcDbCircle
 10
120.560331481764
 20
-26.85862850886264
 30
0.0
 40
3.650000095367432
100
AcDbArc
 50
29.99988251328144
 51
90.08761454772767
  0
ARC
  5
13E
330
1F
100
AcDbEntity
  8
0
 62
     7
100
AcDbCircle
 10
114.7010249214677
 20
6.887372904875463
 30
0.0
 40
30.66000175476074
100
AcDbArc
 50
267.9998939170661
 51
281.0065890025755
  0
CIRCLE
  5
13F
330
1F
100
AcDbEntity
  8
0
 62
     7
100
AcDbCircle
 10
120.8509864807079
 20
-29.17263393214095
 30
0.0
 40
2.0
  0
ARC
  5
140
330
1F
100
AcDbEntity
  8
0
 62
     7
100
AcDbCircle
 10
108.1209867577981
 20
-29.17262486948361
 30
0.0
 40
5.510000228881836
100
AcDbArc
 50
270.8424888760312
 51
359.9998799709088
  0
ARC
  5
141
330
1F
100
AcDbEntity
  8
0
 62
     7
100
AcDbCircle
 10
119.3462222332731
 20
-10.18231988661671
 30
0.0
 40
24.29999923706055
100
AcDbArc
 50
278.9763429011881
 51
312.6295660362439
  0
ARC
  5
142
330
1F
100
AcDbEntity
  8
0
 62
     7
100
AcDbCircle
 10
132.4522060199874
 20
-24.00683082440014
 30
0.0
 40
5.260000228881836
100
AcDbArc
 50
309.5784522321075
 51
383.9999287587361
  0
ARC
  5
143
330
1F
100
AcDbEntity
  8
0
 62
     7
100
AcDbCircle
 10
131.2454887319617
 20
-22.01110168091586
 30
0.0
 40
3.650000095367432
100
AcDbArc
 50
53.99993130110877
 51
114.087663335555
  0
ARC
  5
144
330
1F
100
AcDbEntity
  8
0
 62
     7
100
AcDbCircle
 10
112.1670114177282
 20
6.434210554210324
 30
0.0
 40
30.66000175476074
100
AcDbArc
 50
291.9999427048933
 51
305.0066377904028
  0
CIRCLE
  5
145
330
1F
100
AcDbEntity
  8
0
 62
     7
100
AcDbCircle
 10
132.4522060199874
 20
-24.00683082440014
 30
0.0
 40
2.0
  0
ARC
  5
146
330
1F
100
AcDbEntity
  8
0
 62
     7
100
AcDbCircle
 10
120.8227687453712
 20
-29.18457952640702
 30
0.0
 40
5.510000228881836
100
AcDbArc
 50
294.8425376638584
 51
383.9999287587361
  0
ARC
  5
147
330
1F
100
AcDbEntity
  8
0
 62
     7
100
AcDbCircle
 10
123.3534823923354
 20
-7.270360573086492
 30
0.0
 40
24.29999923706055
100
AcDbArc
 50
302.9763427766704
 51
336.6295659117262
  0
ARC
  5
148
330
1F
100
AcDbEntity
  8
0
 62
     7
100
AcDbCircle
 10
140.9493295037628
 20
-14.56899593305499
 30
0.0
 40
5.260000228881836
100
AcDbArc
 50
333.5784521075898
 51
407.9999286342184
  0
ARC
  5
149
330
1F
100
AcDbEntity
  8
0
 62
     7
100
AcDbCircle
 10
139.0352022372144
 20
-13.23662277405325
 30
0.0
 40
3.650000095367432
100
AcDbArc
 50
77.99993117659111
 51
138.0876632110374
  0
ARC
  5
14A
330
1F
100
AcDbEntity
  8
0
 62
     7
100
AcDbCircle
 10
110.0363951779106
 20
4.989547254804108
 30
0.0
 40
30.66000175476074
100
AcDbArc
 50
315.9999425803757
 51
329.0066376658851
  0
CIRCLE
  5
14B
330
1F
100
AcDbEntity
  8
0
 62
     7
100
AcDbCircle
 10
140.9493295037628
 20
-14.56899593305499
 30
0.0
 40
2.0
  0
ARC
  5
14C
330
1F
100
AcDbEntity
  8
0
 62
     7
100
AcDbCircle
 10
132.4312900117826
 20
-24.0292230000145
 30
0.0
 40
5.510000228881836
100
AcDbArc
 50
318.8425375393407
 51
407.9999286342184
  0
ARC
  5
14D
330
1F
100
AcDbEntity
  8
0
 62
     7
100
AcDbCircle
 10
125.8298945678508
 20
-2.980252925187301
 30
0.0
 40
24.29999923706055
100
AcDbArc
 50
326.9763412543082
 51
360.629564389364
  0
ARC
  5
14E
330
1F
100
AcDbEntity
  8
0
 62
     7
100
AcDbCircle
 10
144.8731232282162
 20
-2.491012825082237
 30
0.0
 40
5.260000228881836
100
AcDbArc
 50
357.5784505852276
 51
431.9999271118562
  0
ARC
  5
14F
330
1F
100
AcDbEntity
  8
0
 62
     7
100
AcDbCircle
 10
142.582555984149
 20
-2.052375015746122
 30
0.0
 40
3.650000095367432
100
AcDbArc
 50
101.9999296542289
 51
162.0876616886751
  0
ARC
  5
150
330
1F
100
AcDbEntity
  8
0
 62
     7
100
AcDbCircle
 10
108.677576433415
 20
2.803183288697369
 30
0.0
 40
30.66000175476074
100
AcDbArc
 50
339.9999410580135
 51
353.0066361435229
  0
CIRCLE
  5
151
330
1F
100
AcDbEntity
  8
0
 62
     7
100
AcDbCircle
 10
144.8731232282162
 20
-2.491012825082237
 30
0.0
 40
2.0
  0
ARC
  5
152
330
1F
100
AcDbEntity
  8
0
 62
     7
100
AcDbCircle
 10
140.9393276205629
 20
-14.59795897440391
 30
0.0
 40
5.510000228881836
100
AcDbArc
 50
342.8425360169786
 51
431.9999271118562
  0
ARC
  5
153
330
1F
100
AcDbEntity
  8
0
 62
     7
100
AcDbCircle
 10
126.3472679515978
 20
1.946206281375595
 30
0.0
 40
24.29999923706055
100
AcDbArc
 50
350.9763387480089
 51
384.6295618830647
  0
ARC
  5
154
330
1F
100
AcDbEntity
  8
0
 62
     7
100
AcDbCircle
 10
143.5451314755161
 20
10.13872749887594
 30
0.0
 40
5.260000228881836
100
AcDbArc
 50
21.57844807892829
 51
95.99992460555693
  0
ARC
  5
155
330
1F
100
AcDbEntity
  8
0
 62
     7
100
AcDbCircle
 10
141.274184080953
 20
9.607785544892437
 30
0.0
 40
3.650000095367432
100
AcDbArc
 50
125.9999271479296
 51
186.0876591823758
  0
ARC
  5
156
330
1F
100
AcDbEntity
  8
0
 62
     7
100
AcDbCircle
 10
108.3255101267056
 20
0.2531626534959344
 30
0.0
 40
30.66000175476074
100
AcDbArc
 50
3.999938551714144
 51
17.00663363722355
  0
CIRCLE
  5
157
330
1F
100
AcDbEntity
  8
0
 62
     7
100
AcDbCircle
 10
143.5451314755161
 20
10.13872749887594
 30
0.0
 40
2.0
  0
ARC
  5
158
330
1F
100
AcDbEntity
  8
0
 62
     7
100
AcDbCircle
 10
144.8757684477245
 20
-2.521537039970013
 30
0.0
 40
5.510000228881836
100
AcDbArc
 50
6.842533510679221
 51
95.99992460555693
  0
ARC
  5
159
330
1F
100
AcDbEntity
  8
0
 62
     7
100
AcDbCircle
 10
124.8161388947417
 20
6.65718978438349
 30
0.0
 40
24.29999923706055
100
AcDbArc
 50
14.97633686590573
 51
48.62956000096149
  0
ARC
  5
15A
330
1F
100
AcDbEntity
  8
0
 62
     7
100
AcDbCircle
 10
137.1949708954684
 20
21.13643120043486
 30
0.0
 40
5.260000228881836
100
AcDbArc
 50
45.57844619682507
 51
119.9999227234537
  0
ARC
  5
15B
330
1F
100
AcDbEntity
  8
0
 62
     7
100
AcDbCircle
 10
135.3363107203765
 20
19.72771413128996
 30
0.0
 40
3.650000095367432
100
AcDbArc
 50
149.9999252658264
 51
210.0876573002726
  0
ARC
  5
15C
330
1F
100
AcDbEntity
  8
0
 62
     7
100
AcDbCircle
 10
109.0410664852685
 20
-2.219591293284623
 30
0.0
 40
30.66000175476074
100
AcDbArc
 50
27.99993666961095
 51
41.00663175512037
  0
CIRCLE
  5
15D
330
1F
100
AcDbEntity
  8
0
 62
     7
100
AcDbCircle
 10
137.1949708954684
 20
21.13643120043486
 30
0.0
 40
2.0
  0
ARC
  5
15E
330
1F
100
AcDbEntity
  8
0
 62
     7
100
AcDbCircle
 10
143.5599613940395
 20
10.11192264456409
 30
0.0
 40
5.510000228881836
100
AcDbArc
 50
30.842531628576
 51
119.9999227234537
  0
ARC
  5
15F
330
1F
100
AcDbEntity
  8
0
 62
     7
100
AcDbCircle
 10
121.5012528376422
 20
10.33812075064708
 30
0.0
 40
24.29999923706055
100
AcDbArc
 50
38.97633500061911
 51
72.62955813567488
  0
ARC
  5
160
330
1F
100
AcDbEntity
  8
0
 62
     7
100
AcDbCircle
 10
126.9206411295167
 20
28.60049037313598
 30
0.0
 40
5.260000228881836
100
AcDbArc
 50
69.57844433153848
 51
143.9999208581671
  0
ARC
  5
161
330
1F
100
AcDbEntity
  8
0
 62
     7
100
AcDbCircle
 10
125.7956473545001
 20
26.55757812990413
 30
0.0
 40
3.650000095367432
100
AcDbArc
 50
173.9999234005398
 51
234.087655434986
  0
ARC
  5
162
330
1F
100
AcDbEntity
  8
0
 62
     7
100
AcDbCircle
 10
110.7005187579463
 20
-4.187521925829117
 30
0.0
 40
30.66000175476074
100
AcDbArc
 50
51.99993480432437
 51
65.00662988983378
  0
CIRCLE
  5
163
330
1F
100
AcDbEntity
  8
0
 62
     7
100
AcDbCircle
 10
126.9206411295167
 20
28.60049037313598
 30
0.0
 40
2.0
  0
ARC
  5
164
330
1F
100
AcDbEntity
  8
0
 62
     7
100
AcDbCircle
 10
137.2194206454037
 20
21.11797519249564
 30
0.0
 40
5.510000228881836
100
AcDbArc
 50
54.84252976328941
 51
143.9999208581671
  0
ARC
  5
165
330
1F
100
AcDbEntity
  8
0
 62
     7
100
AcDbCircle
 10
116.9757851543798
 20
12.35252404689214
 30
0.0
 40
24.29999923706055
100
AcDbArc
 50
62.97633251058278
 51
96.62955564563859
  0
ARC
  5
166
330
1F
100
AcDbEntity
  8
0
 62
     7
100
AcDbCircle
 10
114.4986686176124
 20
31.24029277032227
 30
0.0
 40
5.260000228881836
100
AcDbArc
 50
93.5784418415022
 51
167.9999183681308
  0
ARC
  5
167
330
1F
100
AcDbEntity
  8
0
 62
     7
100
AcDbCircle
 10
114.3018628314866
 20
28.91642338717699
 30
0.0
 40
3.650000095367432
100
AcDbArc
 50
197.9999209105035
 51
258.0876529449497
  0
ARC
  5
168
330
1F
100
AcDbEntity
  8
0
 62
     7
100
AcDbCircle
 10
113.0169339697992
 20
-5.310364989823029
 30
0.0
 40
30.66000175476074
100
AcDbArc
 50
75.99993231428805
 51
89.00662739979747
  0
CIRCLE
  5
169
330
1F
100
AcDbEntity
  8
0
 62
     7
100
AcDbCircle
 10
114.4986686176124
 20
31.24029277032227
 30
0.0
 40
2.0
  0
ARC
  5
16A
330
1F
100
AcDbEntity
  8
0
 62
     7
100
AcDbCircle
 10
126.9504848549261
 20
28.59356548222854
 30
0.0
 40
5.510000228881836
100
AcDbArc
 50
78.84252727325313
 51
167.9999183681308
  0
LINE
  5
16B
330
1F
100
AcDbEntity
  8
0
  6
CENTER
 62
     7
100
AcDbLine
 10
4.100006103515597
 20
27.78999328613281
 30
0.0
 11
4.100006103515597
 21
4.375
 31
0.0
  0
LINE
  5
16C
330
1F
100
AcDbEntity
  8
0
  6
CENTER
 62
     7
100
AcDbLine
 10
-35.1000061035156
 20
27.78999328613281
 30
0.0
 11
-35.1000061035156
 21
4.375
 31
0.0
  0
LINE
  5
16D
330
1F
100
AcDbEntity
  8
0
  6
CENTER
 62
     7
100
AcDbLine
 10
-45.5
 20
0.6999969482421875
 30
0.0
 11
14.5
 21
0.6999969482421875
 31
0.0
  0
LINE
  5
16E
330
1F
100
AcDbEntity
  8
0
  6
CENTER
 62
     7
100
AcDbLine
 10
114.5
 20
44.36442565917969
 30
0.0
 11
114.5
 21
-43.83556365966797
 31
0.0
  0
LINE
  5
16F
330
1F
100
AcDbEntity
  8
0
  6
CENTER
 62
     7
100
AcDbLine
 10
70.02874755859369
 20
0.6999969482421875
 30
0.0
 11
159.9787406921387
 21
0.6999969482421875
 31
0.0
  0
LINE
  5
170
330
1F
100
AcDbEntity
  8
0
  6
CENTER
 62
     7
100
AcDbLine
 10
-34.50000762939453
 20
31.239990234375
 30
0.0
 11
3.5
 21
31.239990234375
 31
0.0
  0
CIRCLE
  5
171
330
1F
100
AcDbEntity
  8
0
  6
CENTER
 62
     7
100
AcDbCircle
 10
114.5
 20
0.6999969482421875
 30
0.0
 40
30.54000091552734
  0
LINE
  5
172
330
1F
100
AcDbEntity
  8
0
  6
DIVIDE
 62
     9
100
AcDbLine
 10
-37.30000305175781
 20
23.69999694824219
 30
0.0
 11
-37.30000305175781
 21
7.050003051757813
 31
0.0
  0
LINE
  5
173
330
1F
100
AcDbEntity
  8
0
  6
DIVIDE
 62
     9
100
AcDbLine
 10
-32.8999938964844
 20
23.69999694824219
 30
0.0
 11
-32.8999938964844
 21
7.050003051757813
 31
0.0
  0
LINE
  5
174
330
1F
100
AcDbEntity
  8
0
  6
DIVIDE
 62
     9
100
AcDbLine
 10
1.899993896484403
 20
23.69999694824219
 30
0.0
 11
1.899993896484403
 21
7.050003051757813
 31
0.0
  0
LINE
  5
175
330
1F
100
AcDbEntity
  8
0
  6
DIVIDE
 62
     9
100
AcDbLine
 10
6.300003051757813
 20
23.69999694824219
 30
0.0
 11
6.300003051757813
 21
7.050003051757813
 31
0.0
  0
LINE
  5
176
330
1F
100
AcDbEntity
  8
0
  6
DIVIDE
 62
     9
100
AcDbLine
 10
1.100000381469727
 20
23.69999694824219
 30
0.0
 11
1.100000381469727
 21
7.049996852874756
 31
0.0
  0
LINE
  5
177
330
1F
100
AcDbEntity
  8
0
  6
DIVIDE
 62
     9
100
AcDbLine
 10
7.100000381469727
 20
23.69999694824219
 30
0.0
 11
7.100000381469727
 21
7.049996852874756
 31
0.0
  0
LINE
  5
178
330
1F
100
AcDbEntity
  8
0
  6
DIVIDE
 62
     9
100
AcDbLine
 10
-32.10000038146973
 20
23.69999694824219
 30
0.0
 11
-32.10000038146973
 21
7.049996852874756
 31
0.0
  0
LINE
  5
179
330
1F
100
AcDbEntity
  8
0
  6
DIVIDE
 62
     9
100
AcDbLine
 10
-38.10000038146973
 20
23.69999694824219
 30
0.0
 11
-38.10000038146973
 21
7.049996852874756
 31
0.0
  0
TEXT
  5
17B
330
1F
100
AcDbEntity
  8
0
 62
     7
100
AcDbText
 10
143.5321421659354
 20
-102.3750183582306
 30
0.0
 40
4.150000095367432
  1
ＣＮ４１５
 41
0.6600000138340222
  7
FDASTYLE0
 72
     5
 11
163.0964288747672
 21
-102.3750183582306
 31
0.0
100
AcDbText
  0
VIEWPORT
  5
2B
330
1B
100
AcDbEntity
 67
     1
  8
0
100
AcDbViewport
 10
57.23937034606934
 20
-29.00529634952545
 30
0.0
 40
616.436222076416
 41
440.2183320522308
 68
     1
 69
     1
1001
ACAD
1000
MVIEW
1002
{
1070
    16
1010
0.0
1020
0.0
1030
0.0
1010
0.0
1020
0.0
1030
1.0
1040
0.0
1040
440.2183320522308
1040
57.23937034606934
1040
-29.00529634952545
1040
50.0
1040
0.0
1040
0.0
1070
     0
1070
   100
1070
     0
1070
     1
1070
     0
1070
     0
1070
     0
1070
     0
1040
0.0
1040
0.0
1040
0.0
1040
0.5
1040
0.5
1040
0.0
1040
0.0
1070
     0
1002
{
1002
}
1002
}
  0
ENDSEC
  0
SECTION
  2
OBJECTS
  0
DICTIONARY
  5
C
330
0
100
AcDbDictionary
  3
ACAD_GROUP
350
D
  3
ACAD_LAYOUT
350
1A
  3
ACAD_MLINESTYLE
350
17
  3
ACAD_PLOTSETTINGS
350
19
  3
ACDBHEADERROUNDTRIPXREC
350
17C
  0
DICTIONARY
  5
D
102
{ACAD_REACTORS
330
C
102
}
330
C
100
AcDbDictionary
  0
DICTIONARY
  5
1A
102
{ACAD_REACTORS
330
C
102
}
330
C
100
AcDbDictionary
  0
DICTIONARY
  5
17
102
{ACAD_REACTORS
330
C
102
}
330
C
100
AcDbDictionary
  3
STANDARD
350
18
  0
DICTIONARY
  5
19
102
{ACAD_REACTORS
330
C
102
}
330
C
100
AcDbDictionary
  0
DICTIONARY
  5
17C
102
{ACAD_REACTORS
330
C
102
}
330
C
100
AcDbDictionary
  3
CEPSNTYPE
350
185
  3
DIMSTYLEDATA
350
19B
  3
FINGERPRINTGUID
350
186
  3
HYPERLINKBASE
350
17F
  3
INSUNITS
350
184
  3
LAYOUTDICT
350
181
  3
LWETCUNION
350
183
  3
PLOTSETDICT
350
182
  3
PSVPSCALE
350
188
  3
PUCSBASE
350
18B
  3
PUCSORGBACK
350
191
  3
PUCSORGBOTTOM
350
18D
  3
PUCSORGFRONT
350
190
  3
PUCSORGLEFT
350
18E
  3
PUCSORGRIGHT
350
18F
  3
PUCSORGTOP
350
18C
  3
PUCSORTHOREF
350
189
  3
PUCSORTHOVIEW
350
18A
  3
STYLESHEET
350
180
  3
TSTACKALIGN
350
17D
  3
TSTACKSIZE
350
17E
  3
UCSBASE
350
194
  3
UCSORGBACK
350
19A
  3
UCSORGBOTTOM
350
196
  3
UCSORGFRONT
350
199
  3
UCSORGLEFT
350
197
  3
UCSORGRIGHT
350
198
  3
UCSORGTOP
350
195
  3
UCSORTHOREF
350
192
  3
UCSORTHOVIEW
350
193
  3
VERSIONGUID
350
187
  0
MLINESTYLE
  5
18
102
{ACAD_REACTORS
330
17
102
}
330
17
100
AcDbMlineStyle
  2
Standard
 70
     0
  3

 62
   256
 51
90.0
 52
90.0
 71
     2
 49
0.5
 62
   256
  6
BYLAYER
 49
-0.5
 62
   256
  6
BYLAYER
  0
XRECORD
  5
185
102
{ACAD_REACTORS
330
17C
102
}
330
17C
100
AcDbXrecord
 90
        0
  0
XRECORD
  5
19B
102
{ACAD_REACTORS
330
17C
102
}
330
17C
100
AcDbXrecord
1000
DSTYLE
1002
{
1070
   171
 70
     2
1070
   143
 40
25.4
1070
   274
 70
     2
1070
   141
 40
0.09
1070
   271
 70
     4
1070
    43
 40
0.38
1070
    44
 40
0.18
1070
   278
 70
    46
1070
    42
 40
0.0625
1070
   147
 40
0.09
1070
    77
 70
     3
1070
   272
 70
     4
1070
    73
 70
     1
1070
   172
 70
     0
1070
    74
 70
     1
1070
   283
 70
     1
1070
   340
340
11
1070
   140
 40
0.18
1070
   284
 70
     0
1070
    78
 70
     0
1002
}
  0
XRECORD
  5
186
102
{ACAD_REACTORS
330
17C
102
}
330
17C
100
AcDbXrecord
  1
{3EDF3CFD-6D33-4800-BBB6-ADB5B81E5092}
  0
XRECORD
  5
17F
102
{ACAD_REACTORS
330
17C
102
}
330
17C
100
AcDbXrecord
  1

  0
XRECORD
  5
184
102
{ACAD_REACTORS
330
17C
102
}
330
17C
100
AcDbXrecord
 90
        4
  0
XRECORD
  5
181
102
{ACAD_REACTORS
330
17C
102
}
330
17C
100
AcDbXrecord
340
1A
  0
XRECORD
  5
183
102
{ACAD_REACTORS
330
17C
102
}
330
17C
100
AcDbXrecord
 90
    10781
  0
XRECORD
  5
182
102
{ACAD_REACTORS
330
17C
102
}
330
17C
100
AcDbXrecord
340
19
  0
XRECORD
  5
188
102
{ACAD_REACTORS
330
17C
102
}
330
17C
100
AcDbXrecord
 40
0.0
  0
XRECORD
  5
18B
102
{ACAD_REACTORS
330
17C
102
}
330
17C
100
AcDbXrecord
340
0
  0
XRECORD
  5
191
102
{ACAD_REACTORS
330
17C
102
}
330
17C
100
AcDbXrecord
 10
0.0
 20
0.0
 30
0.0
  0
XRECORD
  5
18D
102
{ACAD_REACTORS
330
17C
102
}
330
17C
100
AcDbXrecord
 10
0.0
 20
0.0
 30
0.0
  0
XRECORD
  5
190
102
{ACAD_REACTORS
330
17C
102
}
330
17C
100
AcDbXrecord
 10
0.0
 20
0.0
 30
0.0
  0
XRECORD
  5
18E
102
{ACAD_REACTORS
330
17C
102
}
330
17C
100
AcDbXrecord
 10
0.0
 20
0.0
 30
0.0
  0
XRECORD
  5
18F
102
{ACAD_REACTORS
330
17C
102
}
330
17C
100
AcDbXrecord
 10
0.0
 20
0.0
 30
0.0
  0
XRECORD
  5
18C
102
{ACAD_REACTORS
330
17C
102
}
330
17C
100
AcDbXrecord
 10
0.0
 20
0.0
 30
0.0
  0
XRECORD
  5
189
102
{ACAD_REACTORS
330
17C
102
}
330
17C
100
AcDbXrecord
340
0
  0
XRECORD
  5
18A
102
{ACAD_REACTORS
330
17C
102
}
330
17C
100
AcDbXrecord
 70
     0
  0
XRECORD
  5
180
102
{ACAD_REACTORS
330
17C
102
}
330
17C
100
AcDbXrecord
  1

  0
XRECORD
  5
17D
102
{ACAD_REACTORS
330
17C
102
}
330
17C
100
AcDbXrecord
 90
        1
  0
XRECORD
  5
17E
102
{ACAD_REACTORS
330
17C
102
}
330
17C
100
AcDbXrecord
 90
       70
  0
XRECORD
  5
194
102
{ACAD_REACTORS
330
17C
102
}
330
17C
100
AcDbXrecord
340
0
  0
XRECORD
  5
19A
102
{ACAD_REACTORS
330
17C
102
}
330
17C
100
AcDbXrecord
 10
0.0
 20
0.0
 30
0.0
  0
XRECORD
  5
196
102
{ACAD_REACTORS
330
17C
102
}
330
17C
100
AcDbXrecord
 10
0.0
 20
0.0
 30
0.0
  0
XRECORD
  5
199
102
{ACAD_REACTORS
330
17C
102
}
330
17C
100
AcDbXrecord
 10
0.0
 20
0.0
 30
0.0
  0
XRECORD
  5
197
102
{ACAD_REACTORS
330
17C
102
}
330
17C
100
AcDbXrecord
 10
0.0
 20
0.0
 30
0.0
  0
XRECORD
  5
198
102
{ACAD_REACTORS
330
17C
102
}
330
17C
100
AcDbXrecord
 10
0.0
 20
0.0
 30
0.0
  0
XRECORD
  5
195
102
{ACAD_REACTORS
330
17C
102
}
330
17C
100
AcDbXrecord
 10
0.0
 20
0.0
 30
0.0
  0
XRECORD
  5
192
102
{ACAD_REACTORS
330
17C
102
}
330
17C
100
AcDbXrecord
340
0
  0
XRECORD
  5
193
102
{ACAD_REACTORS
330
17C
102
}
330
17C
100
AcDbXrecord
 70
     0
  0
XRECORD
  5
187
102
{ACAD_REACTORS
330
17C
102
}
330
17C
100
AcDbXrecord
  1
{FAEB1C32-E019-11D5-929B-00C0DF256EC4}
  0
ENDSEC
  0
EOF
