  0
SECTION
  2
HEADER
  9
$ACADVER
  1
AC1014
  9
$ACADMAINTVER
 70
     9
  9
$DWGCODEPAGE
  3
ANSI_932
  9
$INSBASE
 10
0.0
 20
0.0
 30
0.0
  9
$EXTMIN
 10
-245.8749997604829
 20
-244.134253025055
 30
0.0
  9
$EXTMAX
 10
355.2499995209658
 20
181.1434509754182
 30
0.0
  9
$LIMMIN
 10
-200.0
 20
-141.0
  9
$LIMMAX
 10
200.0
 20
141.0
  9
$ORTHOMODE
 70
     0
  9
$REGENMODE
 70
     1
  9
$FILLMODE
 70
     1
  9
$QTEXTMODE
 70
     0
  9
$MIRRTEXT
 70
     1
  9
$DRAGMODE
 70
     2
  9
$LTSCALE
 40
1.0
  9
$OSMODE
 70
    37
  9
$ATTMODE
 70
     1
  9
$TEXTSIZE
 40
0.2
  9
$TRACEWID
 40
0.05
  9
$TEXTSTYLE
  7
STANDARD
  9
$CLAYER
  8
0
  9
$CELTYPE
  6
BYLAYER
  9
$CECOLOR
 62
   256
  9
$CELTSCALE
 40
1.0
  9
$DELOBJ
 70
     1
  9
$DISPSILH
 70
     0
  9
$DIMSCALE
 40
1.0
  9
$DIMASZ
 40
2.5
  9
$DIMEXO
 40
0.0625
  9
$DIMDLI
 40
0.38
  9
$DIMRND
 40
0.0
  9
$DIMDLE
 40
0.0
  9
$DIMEXE
 40
0.18
  9
$DIMTP
 40
0.0
  9
$DIMTM
 40
0.0
  9
$DIMTXT
 40
0.18
  9
$DIMCEN
 40
0.09
  9
$DIMTSZ
 40
0.0
  9
$DIMTOL
 70
     0
  9
$DIMLIM
 70
     0
  9
$DIMTIH
 70
     1
  9
$DIMTOH
 70
     1
  9
$DIMSE1
 70
     0
  9
$DIMSE2
 70
     0
  9
$DIMTAD
 70
     3
  9
$DIMZIN
 70
     0
  9
$DIMBLK
  1

  9
$DIMASO
 70
     1
  9
$DIMSHO
 70
     1
  9
$DIMPOST
  1

  9
$DIMAPOST
  1

  9
$DIMALT
 70
     0
  9
$DIMALTD
 70
     2
  9
$DIMALTF
 40
25.4
  9
$DIMLFAC
 40
1.0
  9
$DIMTOFL
 70
     0
  9
$DIMTVP
 40
0.0
  9
$DIMTIX
 70
     0
  9
$DIMSOXD
 70
     0
  9
$DIMSAH
 70
     0
  9
$DIMBLK1
  1

  9
$DIMBLK2
  1

  9
$DIMSTYLE
  2
STANDARD
  9
$DIMCLRD
 70
     0
  9
$DIMCLRE
 70
     0
  9
$DIMCLRT
 70
     0
  9
$DIMTFAC
 40
1.0
  9
$DIMGAP
 40
0.09
  9
$DIMJUST
 70
     0
  9
$DIMSD1
 70
     0
  9
$DIMSD2
 70
     0
  9
$DIMTOLJ
 70
     1
  9
$DIMTZIN
 70
     0
  9
$DIMALTZ
 70
     0
  9
$DIMALTTZ
 70
     0
  9
$DIMFIT
 70
     3
  9
$DIMUPT
 70
     0
  9
$DIMUNIT
 70
     2
  9
$DIMDEC
 70
     4
  9
$DIMTDEC
 70
     4
  9
$DIMALTU
 70
     2
  9
$DIMALTTD
 70
     2
  9
$DIMTXSTY
  7
STANDARD
  9
$DIMAUNIT
 70
     0
  9
$LUNITS
 70
     2
  9
$LUPREC
 70
     4
  9
$SKETCHINC
 40
0.1
  9
$FILLETRAD
 40
0.5
  9
$AUNITS
 70
     0
  9
$AUPREC
 70
     0
  9
$MENU
  1
.
  9
$ELEVATION
 40
0.0
  9
$PELEVATION
 40
0.0
  9
$THICKNESS
 40
0.0
  9
$LIMCHECK
 70
     0
  9
$CHAMFERA
 40
0.5
  9
$CHAMFERB
 40
0.5
  9
$CHAMFERC
 40
1.0
  9
$CHAMFERD
 40
0.0
  9
$SKPOLY
 70
     0
  9
$TDCREATE
 40
2454068.48599331
  9
$TDUPDATE
 40
2454068.485993322
  9
$TDINDWG
 40
0.0000000116
  9
$TDUSRTIMER
 40
0.0000000116
  9
$USRTIMER
 70
     1
  9
$ANGBASE
 50
0.0
  9
$ANGDIR
 70
     0
  9
$PDMODE
 70
     0
  9
$PDSIZE
 40
1.0
  9
$PLINEWID
 40
0.0
  9
$COORDS
 70
     1
  9
$SPLFRAME
 70
     0
  9
$SPLINETYPE
 70
     6
  9
$SPLINESEGS
 70
     8
  9
$ATTDIA
 70
     0
  9
$ATTREQ
 70
     1
  9
$HANDLING
 70
     1
  9
$HANDSEED
  5
18F
  9
$SURFTAB1
 70
     6
  9
$SURFTAB2
 70
     6
  9
$SURFTYPE
 70
     6
  9
$SURFU
 70
     6
  9
$SURFV
 70
     6
  9
$UCSNAME
  2

  9
$UCSORG
 10
0.0
 20
0.0
 30
0.0
  9
$UCSXDIR
 10
1.0
 20
0.0
 30
0.0
  9
$UCSYDIR
 10
0.0
 20
1.0
 30
0.0
  9
$PUCSNAME
  2

  9
$PUCSORG
 10
0.0
 20
0.0
 30
0.0
  9
$PUCSXDIR
 10
1.0
 20
0.0
 30
0.0
  9
$PUCSYDIR
 10
0.0
 20
1.0
 30
0.0
  9
$USERI1
 70
     0
  9
$USERI2
 70
     0
  9
$USERI3
 70
     0
  9
$USERI4
 70
     0
  9
$USERI5
 70
     0
  9
$USERR1
 40
0.0
  9
$USERR2
 40
0.0
  9
$USERR3
 40
0.0
  9
$USERR4
 40
0.0
  9
$USERR5
 40
0.0
  9
$WORLDVIEW
 70
     1
  9
$SHADEDGE
 70
     3
  9
$SHADEDIF
 70
    70
  9
$TILEMODE
 70
     1
  9
$MAXACTVP
 70
    64
  9
$PINSBASE
 10
0.0
 20
0.0
 30
0.0
  9
$PLIMCHECK
 70
     0
  9
$PEXTMIN
 10
1.000000000000000E+20
 20
1.000000000000000E+20
 30
1.000000000000000E+20
  9
$PEXTMAX
 10
-1.000000000000000E+20
 20
-1.000000000000000E+20
 30
-1.000000000000000E+20
  9
$PLIMMIN
 10
0.0
 20
0.0
  9
$PLIMMAX
 10
12.0
 20
9.0
  9
$UNITMODE
 70
     0
  9
$VISRETAIN
 70
     0
  9
$PLINEGEN
 70
     1
  9
$PSLTSCALE
 70
     0
  9
$TREEDEPTH
 70
  3020
  9
$PICKSTYLE
 70
     1
  9
$CMLSTYLE
  2
STANDARD
  9
$CMLJUST
 70
     0
  9
$CMLSCALE
 40
1.0
  9
$PROXYGRAPHICS
 70
     0
  9
$MEASUREMENT
 70
     1
  0
ENDSEC
  0
SECTION
  2
CLASSES
  0
CLASS
  1
ACDBDICTIONARYWDFLT
  2
AcDbDictionaryWithDefault
  3
ObjectDBX Classes
 90
        0
280
     0
281
     0
  0
CLASS
  1
XRECORD
  2
AcDbXrecord
  3
AutoCAD 2000
 90
        0
280
     0
281
     0
  0
CLASS
  1
LWPOLYLINE
  2
AcDbPolyline
  3
AutoCAD 2000
 90
        0
280
     0
281
     1
  0
CLASS
  1
HATCH
  2
AcDbHatch
  3
AutoCAD 2000
 90
        0
280
     0
281
     1
  0
CLASS
  1
ACDBPLACEHOLDER
  2
AcDbPlaceHolder
  3
ObjectDBX Classes
 90
        0
280
     0
281
     0
  0
CLASS
  1
LAYOUT
  2
AcDbLayout
  3
ObjectDBX Classes
 90
        0
280
     0
281
     0
  0
ENDSEC
  0
SECTION
  2
TABLES
  0
TABLE
  2
VPORT
  5
8
330
0
100
AcDbSymbolTable
 70
     1
  0
VPORT
  5
29
330
8
100
AcDbSymbolTableRecord
100
AcDbViewportTableRecord
  2
*ACTIVE
 70
     0
 10
0.0
 20
0.0
 11
1.0
 21
1.0
 12
0.0
 22
0.0
 13
0.0
 23
0.0
 14
0.5
 24
0.5
 15
0.5
 25
0.5
 16
0.0
 26
0.0
 36
1.0
 17
54.68971418941464
 27
-31.49540102481839
 37
0.0
 40
144.5944193601609
 41
1.413519400339452
 42
50.0
 43
0.0
 44
0.0
 50
0.0
 51
0.0
 71
     0
 72
  1000
 73
     1
 74
     1
 75
     0
 76
     0
 77
     0
 78
     0
  0
ENDTAB
  0
TABLE
  2
LTYPE
  5
5
330
0
100
AcDbSymbolTable
 70
    28
  0
LTYPE
  5
14
330
5
100
AcDbSymbolTableRecord
100
AcDbLinetypeTableRecord
  2
BYBLOCK
 70
     0
  3

 72
    65
 73
     0
 40
0.0
  0
LTYPE
  5
15
330
5
100
AcDbSymbolTableRecord
100
AcDbLinetypeTableRecord
  2
BYLAYER
 70
     0
  3

 72
    65
 73
     0
 40
0.0
  0
LTYPE
  5
16
330
5
100
AcDbSymbolTableRecord
100
AcDbLinetypeTableRecord
  2
CONTINUOUS
 70
     0
  3
Solid line
 72
    65
 73
     0
 40
0.0
  0
LTYPE
  5
2C
330
5
100
AcDbSymbolTableRecord
100
AcDbLinetypeTableRecord
  2
HIDDENX2
 70
     0
  3
CADPAC LINETYPE
 72
    65
 73
     2
 40
7.346189164370969
 49
5.509641873278227
 74
     0
 49
-1.836547291092742
 74
     0
  0
LTYPE
  5
2D
330
5
100
AcDbSymbolTableRecord
100
AcDbLinetypeTableRecord
  2
HIDDEN
 70
     0
  3
CADPAC LINETYPE
 72
    65
 73
     2
 40
5.509641873278227
 49
3.673094582185485
 74
     0
 49
-1.836547291092742
 74
     0
  0
LTYPE
  5
2E
330
5
100
AcDbSymbolTableRecord
100
AcDbLinetypeTableRecord
  2
HIDDEN2
 70
     0
  3
CADPAC LINETYPE
 72
    65
 73
     2
 40
4.591368227731856
 49
2.754820936639113
 74
     0
 49
-1.836547291092742
 74
     0
  0
LTYPE
  5
2F
330
5
100
AcDbSymbolTableRecord
100
AcDbLinetypeTableRecord
  2
DASHED
 70
     0
  3
CADPAC LINETYPE
 72
    65
 73
     2
 40
4.407713498622627
 49
2.203856749311314
 74
     0
 49
-2.203856749311314
 74
     0
  0
LTYPE
  5
30
330
5
100
AcDbSymbolTableRecord
100
AcDbLinetypeTableRecord
  2
DASHED2
 70
     0
  3
CADPAC LINETYPE
 72
    65
 73
     2
 40
2.571166207529871
 49
2.203856749311314
 74
     0
 49
-0.367309458218557
 74
     0
  0
LTYPE
  5
31
330
5
100
AcDbSymbolTableRecord
100
AcDbLinetypeTableRecord
  2
DASHEDX2
 70
     0
  3
CADPAC LINETYPE
 72
    65
 73
     2
 40
2.571166207529871
 49
2.203856749311314
 74
     0
 49
-0.367309458218557
 74
     0
  0
LTYPE
  5
32
330
5
100
AcDbSymbolTableRecord
100
AcDbLinetypeTableRecord
  2
DOTX2
 70
     0
  3
CADPAC LINETYPE
 72
    65
 73
     2
 40
0.4591368227731962
 49
0.0
 74
     0
 49
-0.4591368227731962
 74
     0
  0
LTYPE
  5
33
330
5
100
AcDbSymbolTableRecord
100
AcDbLinetypeTableRecord
  2
DOT
 70
     0
  3
CADPAC LINETYPE
 72
    65
 73
     2
 40
0.367309458218557
 49
0.0
 74
     0
 49
-0.367309458218557
 74
     0
  0
LTYPE
  5
34
330
5
100
AcDbSymbolTableRecord
100
AcDbLinetypeTableRecord
  2
DOT2
 70
     0
  3
CADPAC LINETYPE
 72
    65
 73
     2
 40
0.2754820936639177
 49
0.0
 74
     0
 49
-0.2754820936639177
 74
     0
  0
LTYPE
  5
35
330
5
100
AcDbSymbolTableRecord
100
AcDbLinetypeTableRecord
  2
CENTERX2
 70
     0
  3
CADPAC LINETYPE
 72
    65
 73
     4
 40
11.01928374655645
 49
4.591368227731856
 74
     0
 49
-2.295684113865928
 74
     0
 49
1.836547291092742
 74
     0
 49
-2.295684113865928
 74
     0
  0
LTYPE
  5
36
330
5
100
AcDbSymbolTableRecord
100
AcDbLinetypeTableRecord
  2
CENTER
 70
     0
  3
CADPAC LINETYPE
 72
    65
 73
     4
 40
8.448117539026615
 49
3.673094582185485
 74
     0
 49
-1.836547291092742
 74
     0
 49
1.101928374655645
 74
     0
 49
-1.836547291092742
 74
     0
  0
LTYPE
  5
37
330
5
100
AcDbSymbolTableRecord
100
AcDbLinetypeTableRecord
  2
CENTER2
 70
     0
  3
CADPAC LINETYPE
 72
    65
 73
     4
 40
5.876951331496775
 49
2.754820936639113
 74
     0
 49
-1.377410468319557
 74
     0
 49
0.3673094582185485
 74
     0
 49
-1.377410468319557
 74
     0
  0
LTYPE
  5
38
330
5
100
AcDbSymbolTableRecord
100
AcDbLinetypeTableRecord
  2
DASHDOTX2
 70
     0
  3
CADPAC LINETYPE
 72
    65
 73
     4
 40
5.142332415059713
 49
4.407713498622599
 74
     0
 49
-0.367309458218557
 74
     0
 49
0.0
 74
     0
 49
-0.367309458218557
 74
     0
  0
LTYPE
  5
39
330
5
100
AcDbSymbolTableRecord
100
AcDbLinetypeTableRecord
  2
DASHDOT
 70
     0
  3
CADPAC LINETYPE
 72
    65
 73
     4
 40
6.244260789715384
 49
4.407713498622599
 74
     0
 49
-0.367309458218557
 74
     0
 49
1.101928374655671
 74
     0
 49
-0.367309458218557
 74
     0
  0
LTYPE
  5
3A
330
5
100
AcDbSymbolTableRecord
100
AcDbLinetypeTableRecord
  2
DASHDOT2
 70
     0
  3
CADPAC LINETYPE
 72
    65
 73
     4
 40
3.966942148760352
 49
3.305785123966949
 74
     0
 49
-0.2754820936639177
 74
     0
 49
0.1101928374655671
 74
     0
 49
-0.2754820936639177
 74
     0
  0
LTYPE
  5
3B
330
5
100
AcDbSymbolTableRecord
100
AcDbLinetypeTableRecord
  2
DIVIDEX2
 70
     0
  3
CADPAC LINETYPE
 72
    65
 73
     6
 40
5.50964187327827
 49
4.407713498622599
 74
     0
 49
-0.367309458218557
 74
     0
 49
0.0
 74
     0
 49
-0.367309458218557
 74
     0
 49
0.0
 74
     0
 49
-0.367309458218557
 74
     0
  0
LTYPE
  5
3C
330
5
100
AcDbSymbolTableRecord
100
AcDbLinetypeTableRecord
  2
DIVIDE
 70
     0
  3
CADPAC LINETYPE
 72
    65
 73
     6
 40
7.713498622589611
 49
4.407713498622599
 74
     0
 49
-0.367309458218557
 74
     0
 49
1.101928374655671
 74
     0
 49
-0.367309458218557
 74
     0
 49
1.101928374655671
 74
     0
 49
-0.367309458218557
 74
     0
  0
LTYPE
  5
3D
330
5
100
AcDbSymbolTableRecord
100
AcDbLinetypeTableRecord
  2
DIVIDE2
 70
     0
  3
CADPAC LINETYPE
 72
    65
 73
     6
 40
5.785123966942209
 49
3.305785123966949
 74
     0
 49
-0.2754820936639177
 74
     0
 49
0.8264462809917532
 74
     0
 49
-0.2754820936639177
 74
     0
 49
0.8264462809917532
 74
     0
 49
-0.2754820936639177
 74
     0
  0
LTYPE
  5
3E
330
5
100
AcDbSymbolTableRecord
100
AcDbLinetypeTableRecord
  2
BORDERX2
 70
     0
  3
CADPAC LINETYPE
 72
    65
 73
     6
 40
16.0697887970615
 49
4.591368227731856
 74
     0
 49
-2.295684113865928
 74
     0
 49
4.591368227731856
 74
     0
 49
-2.295684113865928
 74
     0
 49
0.0
 74
     0
 49
-2.295684113865928
 74
     0
  0
LTYPE
  5
3F
330
5
100
AcDbSymbolTableRecord
100
AcDbLinetypeTableRecord
  2
BORDER
 70
     0
  3
CADPAC LINETYPE
 72
    65
 73
     6
 40
12.8558310376492
 49
3.673094582185485
 74
     0
 49
-1.836547291092742
 74
     0
 49
3.673094582185485
 74
     0
 49
-1.836547291092742
 74
     0
 49
0.0
 74
     0
 49
-1.836547291092742
 74
     0
  0
LTYPE
  5
40
330
5
100
AcDbSymbolTableRecord
100
AcDbLinetypeTableRecord
  2
BORDER2
 70
     0
  3
CADPAC LINETYPE
 72
    65
 73
     6
 40
4.77502295684117
 49
2.203856749311314
 74
     0
 49
-0.367309458218557
 74
     0
 49
0.0
 74
     0
 49
-0.367309458218557
 74
     0
 49
0.0
 74
     0
 49
-1.836547291092742
 74
     0
  0
LTYPE
  5
41
330
5
100
AcDbSymbolTableRecord
100
AcDbLinetypeTableRecord
  2
PHANTOMX2
 70
     0
  3
CADPAC LINETYPE
 72
    65
 73
     6
 40
13.77410468319557
 49
4.591368227731856
 74
     0
 49
-1.836547291092742
 74
     0
 49
1.836547291092742
 74
     0
 49
-1.836547291092742
 74
     0
 49
1.836547291092742
 74
     0
 49
-1.836547291092742
 74
     0
  0
LTYPE
  5
42
330
5
100
AcDbSymbolTableRecord
100
AcDbLinetypeTableRecord
  2
PHANTOM
 70
     0
  3
CADPAC LINETYPE
 72
    65
 73
     6
 40
11.386593204775
 49
3.673094582185485
 74
     0
 49
-1.836547291092742
 74
     0
 49
1.101928374655645
 74
     0
 49
-1.836547291092742
 74
     0
 49
1.101928374655645
 74
     0
 49
-1.836547291092742
 74
     0
  0
LTYPE
  5
43
330
5
100
AcDbSymbolTableRecord
100
AcDbLinetypeTableRecord
  2
PHANTOM2
 70
     0
  3
CADPAC LINETYPE
 72
    65
 73
     6
 40
9.733700642791535
 49
2.754820936639113
 74
     0
 49
-1.836547291092742
 74
     0
 49
0.734618916437097
 74
     0
 49
-1.836547291092742
 74
     0
 49
0.734618916437097
 74
     0
 49
-1.836547291092742
 74
     0
  0
LTYPE
  5
44
330
5
100
AcDbSymbolTableRecord
100
AcDbLinetypeTableRecord
  2
ACAD_ISO06W100
 70
     0
  3
CADPAC LINETYPE
 72
    65
 73
     8
 40
5.876951331496827
 49
4.407713498622599
 74
     0
 49
-0.367309458218557
 74
     0
 49
0.0
 74
     0
 49
-0.367309458218557
 74
     0
 49
0.0
 74
     0
 49
-0.367309458218557
 74
     0
 49
0.0
 74
     0
 49
-0.367309458218557
 74
     0
  0
LTYPE
  5
45
330
5
100
AcDbSymbolTableRecord
100
AcDbLinetypeTableRecord
  2
ACAD_ISO13W100
 70
     0
  3
CADPAC LINETYPE
 72
    65
 73
     8
 40
14.69237832874194
 49
3.673094582185485
 74
     0
 49
-1.836547291092742
 74
     0
 49
3.673094582185485
 74
     0
 49
-1.836547291092742
 74
     0
 49
0.0
 74
     0
 49
-1.836547291092742
 74
     0
 49
0.0
 74
     0
 49
-1.836547291092742
 74
     0
  0
LTYPE
  5
46
330
5
100
AcDbSymbolTableRecord
100
AcDbLinetypeTableRecord
  2
ACAD_ISO14W100
 70
     0
  3
CADPAC LINETYPE
 72
    65
 73
     8
 40
11.01928374655645
 49
3.673094582185485
 74
     0
 49
-1.836547291092742
 74
     0
 49
0.0
 74
     0
 49
-1.836547291092742
 74
     0
 49
0.0
 74
     0
 49
-1.836547291092742
 74
     0
 49
0.0
 74
     0
 49
-1.836547291092742
 74
     0
  0
ENDTAB
  0
TABLE
  2
LAYER
  5
2
330
0
100
AcDbSymbolTable
 70
     1
  0
LAYER
  5
10
330
2
100
AcDbSymbolTableRecord
100
AcDbLayerTableRecord
  2
0
 70
     0
 62
     7
  6
CONTINUOUS
  0
ENDTAB
  0
TABLE
  2
STYLE
  5
3
330
0
100
AcDbSymbolTable
 70
     2
  0
STYLE
  5
11
330
3
100
AcDbSymbolTableRecord
100
AcDbTextStyleTableRecord
  2
STANDARD
 70
     0
 40
0.0
 41
1.0
 50
0.0
 71
     0
 42
0.2
  3
txt
  4

  0
STYLE
  5
16D
330
3
100
AcDbSymbolTableRecord
100
AcDbTextStyleTableRecord
  2
FDASTYLE0
 70
     0
 40
4.150000095367432
 41
0.6600000138340222
 50
0.0
 71
     0
 42
0.2
  3
txt.shx
  4
bigfont
  0
ENDTAB
  0
TABLE
  2
VIEW
  5
6
330
0
100
AcDbSymbolTable
 70
     0
  0
ENDTAB
  0
TABLE
  2
UCS
  5
7
330
0
100
AcDbSymbolTable
 70
     0
  0
ENDTAB
  0
TABLE
  2
APPID
  5
9
330
0
100
AcDbSymbolTable
 70
     2
  0
APPID
  5
12
330
9
100
AcDbSymbolTableRecord
100
AcDbRegAppTableRecord
  2
ACAD
 70
     0
  0
APPID
  5
2A
330
9
100
AcDbSymbolTableRecord
100
AcDbRegAppTableRecord
  2
DAFUSIONOUT
 70
     0
  0
ENDTAB
  0
TABLE
  2
DIMSTYLE
  5
A
330
0
100
AcDbSymbolTable
 70
     1
  0
DIMSTYLE
105
27
330
A
100
AcDbSymbolTableRecord
100
AcDbDimStyleTableRecord
  2
STANDARD
 70
     0
  3

  4

  5

  6

  7

 40
1.0
 41
0.18
 42
0.0625
 43
0.38
 44
0.18
 45
0.0
 46
0.0
 47
0.0
 48
0.0
140
0.18
141
0.09
142
0.0
143
25.4
144
1.0
145
0.0
146
1.0
147
0.09
 71
     0
 72
     0
 73
     1
 74
     1
 75
     0
 76
     0
 77
     0
 78
     0
170
     0
171
     2
172
     0
173
     0
174
     0
175
     0
176
     0
177
     0
178
     0
270
     2
271
     4
272
     4
273
     2
274
     2
340
11
275
     0
280
     0
281
     0
282
     0
283
     1
284
     0
285
     0
286
     0
287
     3
288
     0
  0
ENDTAB
  0
TABLE
  2
BLOCK_RECORD
  5
1
330
0
100
AcDbSymbolTable
 70
     1
  0
BLOCK_RECORD
  5
1F
330
1
100
AcDbSymbolTableRecord
100
AcDbBlockTableRecord
  2
*MODEL_SPACE
  0
BLOCK_RECORD
  5
1B
330
1
100
AcDbSymbolTableRecord
100
AcDbBlockTableRecord
  2
*PAPER_SPACE
  0
ENDTAB
  0
ENDSEC
  0
SECTION
  2
BLOCKS
  0
BLOCK
  5
20
330
1F
100
AcDbEntity
  8
0
100
AcDbBlockBegin
  2
*MODEL_SPACE
 70
     0
 71
     0
 10
0.0
 20
0.0
 30
0.0
  3
*MODEL_SPACE
  1

  0
ENDBLK
  5
21
330
1F
100
AcDbEntity
  8
0
100
AcDbBlockEnd
  0
BLOCK
  5
1C
330
1B
100
AcDbEntity
 67
     1
  8
0
100
AcDbBlockBegin
  2
*PAPER_SPACE
 70
     0
 71
     0
 10
0.0
 20
0.0
 30
0.0
  3
*PAPER_SPACE
  1

  0
ENDBLK
  5
1D
330
1B
100
AcDbEntity
 67
     1
  8
0
100
AcDbBlockEnd
  0
ENDSEC
  0
SECTION
  2
ENTITIES
  0
LINE
  5
47
330
1F
100
AcDbEntity
  8
0
  6
DASHED
 62
     7
100
AcDbLine
 10
-11.89997863769531
 20
25.7550048828125
 30
0.0
 11
-11.89997863769531
 21
25.26499938964841
 31
0.0
  0
LINE
  5
48
330
1F
100
AcDbEntity
  8
0
  6
DASHED
 62
     7
100
AcDbLine
 10
-10.28654479980469
 20
32.16499328613281
 30
0.0
 11
-6.313461303710909
 21
32.16499328613281
 31
0.0
  0
LINE
  5
49
330
1F
100
AcDbEntity
  8
0
  6
DASHED
 62
     7
100
AcDbLine
 10
-4.699996948242188
 20
25.76499938964841
 30
0.0
 11
-4.699996948242188
 21
25.26499938964841
 31
0.0
  0
LINE
  5
4A
330
1F
100
AcDbEntity
  8
0
  6
DASHED
 62
     7
100
AcDbLine
 10
-26.29998779296881
 20
25.7550048828125
 30
0.0
 11
-26.29998779296881
 21
25.26499938964841
 31
0.0
  0
LINE
  5
4B
330
1F
100
AcDbEntity
  8
0
  6
DASHED
 62
     7
100
AcDbLine
 10
-20.71345520019531
 20
32.16499328613281
 30
0.0
 11
-24.68653869628909
 21
32.16499328613281
 31
0.0
  0
LINE
  5
4C
330
1F
100
AcDbEntity
  8
0
  6
DASHED
 62
     7
100
AcDbLine
 10
-26.72999572753906
 20
31.98498535156253
 30
0.0
 11
-26.72999572753906
 21
25.2649841308594
 31
0.0
  0
LINE
  5
4D
330
1F
100
AcDbEntity
  8
0
  6
DASHED
 62
     7
100
AcDbLine
 10
-24.93000793457031
 20
33.78498840332034
 30
0.0
 11
-20.44999694824219
 21
33.78498840332034
 31
0.0
  0
LINE
  5
4E
330
1F
100
AcDbEntity
  8
0
  6
DASHED
 62
     7
100
AcDbLine
 10
-18.65000152587891
 20
31.98498535156253
 30
0.0
 11
-18.65000152587891
 21
25.2649841308594
 31
0.0
  0
LINE
  5
4F
330
1F
100
AcDbEntity
  8
0
  6
DASHED
 62
     7
100
AcDbLine
 10
-12.34999847412109
 20
31.98498535156253
 30
0.0
 11
-12.34999847412109
 21
25.2649841308594
 31
0.0
  0
LINE
  5
50
330
1F
100
AcDbEntity
  8
0
  6
DASHED
 62
     7
100
AcDbLine
 10
-4.269996643066406
 20
31.98498535156253
 30
0.0
 11
-4.269996643066406
 21
25.2649841308594
 31
0.0
  0
LINE
  5
51
330
1F
100
AcDbEntity
  8
0
  6
DASHED
 62
     7
100
AcDbLine
 10
-6.069999694824219
 20
33.78498840332034
 30
0.0
 11
-10.55000305175781
 21
33.78498840332034
 31
0.0
  0
ARC
  5
52
330
1F
100
AcDbEntity
  8
0
  6
DASHED
 62
     7
100
AcDbCircle
 10
1.600006103515597
 20
25.76499938964841
 30
0.0
 40
13.5
100
AcDbArc
 50
151.7009739944628
 51
179.9999640278214
  0
ARC
  5
53
330
1F
100
AcDbEntity
  8
0
  6
DASHED
 62
     7
100
AcDbCircle
 10
-18.20001220703131
 20
25.76499938964841
 30
0.0
 40
13.5
100
AcDbArc
 50
0.0
 51
28.29899003335859
  0
ARC
  5
54
330
1F
100
AcDbEntity
  8
0
  6
DASHED
 62
     7
100
AcDbCircle
 10
-32.6000061035156
 20
25.76499938964841
 30
0.0
 40
13.5
100
AcDbArc
 50
0.0
 51
28.29899003335859
  0
ARC
  5
55
330
1F
100
AcDbEntity
  8
0
  6
DASHED
 62
     7
100
AcDbCircle
 10
-12.79998779296881
 20
25.76499938964841
 30
0.0
 40
13.5
100
AcDbArc
 50
151.7009739944628
 51
179.9999640278214
  0
ARC
  5
56
330
1F
100
AcDbEntity
  8
0
  6
DASHED
 62
     7
100
AcDbCircle
 10
-24.93000793457031
 20
31.98498535156253
 30
0.0
 40
1.799999952316284
100
AcDbArc
 50
89.99998201391068
 51
179.9999640278213
  0
ARC
  5
57
330
1F
100
AcDbEntity
  8
0
  6
DASHED
 62
     7
100
AcDbCircle
 10
-20.44999694824219
 20
31.98498535156253
 30
0.0
 40
1.799999952316284
100
AcDbArc
 50
0.0
 51
89.99998201391068
  0
ARC
  5
58
330
1F
100
AcDbEntity
  8
0
  6
DASHED
 62
     7
100
AcDbCircle
 10
-10.55000305175781
 20
31.98498535156253
 30
0.0
 40
1.799999952316284
100
AcDbArc
 50
89.99998201391068
 51
179.9999640278213
  0
ARC
  5
59
330
1F
100
AcDbEntity
  8
0
  6
DASHED
 62
     7
100
AcDbCircle
 10
-6.069999694824219
 20
31.98498535156253
 30
0.0
 40
1.799999952316284
100
AcDbArc
 50
0.0
 51
89.99998201391068
  0
LINE
  5
5A
330
1F
100
AcDbEntity
  8
0
 62
     7
100
AcDbLine
 10
-31.5
 20
23.7649841308594
 30
0.0
 11
-31.5
 21
21.69999694824219
 31
0.0
  0
LINE
  5
5B
330
1F
100
AcDbEntity
  8
0
 62
     7
100
AcDbLine
 10
0.5
 20
23.7649841308594
 30
0.0
 11
0.5
 21
21.69999694824219
 31
0.0
  0
LINE
  5
5C
330
1F
100
AcDbEntity
  8
0
 62
     7
100
AcDbLine
 10
-41.10000989085944
 20
7.05000429963863
 30
0.0
 11
-41.09999861642703
 21
-18.70001095914793
 31
0.0
  0
LINE
  5
5D
330
1F
100
AcDbEntity
  8
0
 62
     7
100
AcDbLine
 10
10.10000989082062
 20
7.050009903975763
 30
0.0
 11
10.09999861639153
 21
-18.69999772541623
 31
0.0
  0
LINE
  5
5E
330
1F
100
AcDbEntity
  8
0
 62
     7
100
AcDbLine
 10
-31.5
 20
-31.9649963378906
 30
0.0
 11
-31.5
 21
0.6999969482421875
 31
0.0
  0
LINE
  5
5F
330
1F
100
AcDbEntity
  8
0
 62
     7
100
AcDbLine
 10
0.5
 20
-31.9649963378906
 30
0.0
 11
0.5
 21
0.6999969482421875
 31
0.0
  0
LINE
  5
60
330
1F
100
AcDbEntity
  8
0
 62
     7
100
AcDbLine
 10
-19.1000061035156
 20
7.050003051757813
 30
0.0
 11
-19.1000061035156
 21
0.6999969482421875
 31
0.0
  0
LINE
  5
61
330
1F
100
AcDbEntity
  8
0
 62
     7
100
AcDbLine
 10
-11.8999938964844
 20
7.050003051757813
 30
0.0
 11
-11.8999938964844
 21
0.6999969482421875
 31
0.0
  0
LINE
  5
62
330
1F
100
AcDbEntity
  8
0
 62
     7
100
AcDbLine
 10
-28.19999694824219
 20
-21.91103363037109
 30
0.0
 11
-28.19999694824219
 21
-18.7721633911133
 31
0.0
  0
LINE
  5
63
330
1F
100
AcDbEntity
  8
0
 62
     7
100
AcDbLine
 10
-17.19999694824219
 20
-21.91103363037109
 30
0.0
 11
-17.19999694824219
 21
-18.7721633911133
 31
0.0
  0
LINE
  5
64
330
1F
100
AcDbEntity
  8
0
 62
     7
100
AcDbLine
 10
-13.80000305175781
 20
-21.91103363037109
 30
0.0
 11
-13.80000305175781
 21
-18.7721633911133
 31
0.0
  0
LINE
  5
65
330
1F
100
AcDbEntity
  8
0
 62
     7
100
AcDbLine
 10
-2.800003051757813
 20
-21.91103363037109
 30
0.0
 11
-2.800003051757813
 21
-18.7721633911133
 31
0.0
  0
LINE
  5
66
330
1F
100
AcDbEntity
  8
0
 62
     7
100
AcDbLine
 10
-28.19999694824219
 20
-30.6668395996094
 30
0.0
 11
-28.19999694824219
 21
-28.92626953125
 31
0.0
  0
LINE
  5
67
330
1F
100
AcDbEntity
  8
0
 62
     7
100
AcDbLine
 10
-17.19999694824219
 20
-30.6668395996094
 30
0.0
 11
-17.19999694824219
 21
-28.92626953125
 31
0.0
  0
LINE
  5
68
330
1F
100
AcDbEntity
  8
0
 62
     7
100
AcDbLine
 10
-13.80000305175781
 20
-30.6668395996094
 30
0.0
 11
-13.80000305175781
 21
-28.92626953125
 31
0.0
  0
LINE
  5
69
330
1F
100
AcDbEntity
  8
0
 62
     7
100
AcDbLine
 10
-2.800003051757813
 20
-30.6668395996094
 30
0.0
 11
-2.800003051757813
 21
-28.92626953125
 31
0.0
  0
LINE
  5
6A
330
1F
100
AcDbEntity
  8
0
 62
     7
100
AcDbLine
 10
-28.19999694824219
 20
-34.1649932861328
 30
0.0
 11
-28.19999694824219
 21
-33.212532043457
 31
0.0
  0
LINE
  5
6B
330
1F
100
AcDbEntity
  8
0
 62
     7
100
AcDbLine
 10
-17.19999694824219
 20
-33.212532043457
 30
0.0
 11
-17.19999694824219
 21
-34.1649932861328
 31
0.0
  0
LINE
  5
6C
330
1F
100
AcDbEntity
  8
0
 62
     7
100
AcDbLine
 10
-13.80000305175781
 20
-33.212532043457
 30
0.0
 11
-13.80000305175781
 21
-34.1649932861328
 31
0.0
  0
LINE
  5
6D
330
1F
100
AcDbEntity
  8
0
 62
     7
100
AcDbLine
 10
-2.800003051757813
 20
-34.1649932861328
 30
0.0
 11
-2.800003051757813
 21
-33.212532043457
 31
0.0
  0
LINE
  5
6E
330
1F
100
AcDbEntity
  8
0
 62
     7
100
AcDbLine
 10
-1.699996948242188
 20
-34.1649932861328
 30
0.0
 11
-29.29998779296881
 21
-34.1649932861328
 31
0.0
  0
LINE
  5
6F
330
1F
100
AcDbEntity
  8
0
 62
     7
100
AcDbLine
 10
-28.19999694824219
 20
-8.676834106445313
 30
0.0
 11
-28.19999694824219
 21
-4.7613525390625
 31
0.0
  0
LINE
  5
70
330
1F
100
AcDbEntity
  8
0
 62
     7
100
AcDbLine
 10
-17.19999694824219
 20
-8.676834106445313
 30
0.0
 11
-17.19999694824219
 21
-4.7613525390625
 31
0.0
  0
LINE
  5
71
330
1F
100
AcDbEntity
  8
0
 62
     7
100
AcDbLine
 10
-13.80000305175781
 20
-8.676834106445313
 30
0.0
 11
-13.80000305175781
 21
-4.7613525390625
 31
0.0
  0
LINE
  5
72
330
1F
100
AcDbEntity
  8
0
 62
     7
100
AcDbLine
 10
-2.800003051757813
 20
-8.676834106445313
 30
0.0
 11
-2.800003051757813
 21
-4.7613525390625
 31
0.0
  0
LINE
  5
73
330
1F
100
AcDbEntity
  8
0
 62
     7
100
AcDbLine
 10
-41.09998261283832
 20
-18.70001398129949
 30
0.0
 11
-39.49997542470044
 21
-20.30000592914018
 31
0.0
  0
LINE
  5
74
330
1F
100
AcDbEntity
  8
0
 62
     7
100
AcDbLine
 10
10.10002227508755
 20
-18.70001211559591
 30
0.0
 11
8.500017312283546
 21
-20.30001707840003
 31
0.0
  0
LINE
  5
75
330
1F
100
AcDbEntity
  8
0
 62
     7
100
AcDbLine
 10
-39.5
 20
-20.3000030517578
 30
0.0
 11
-31.5
 21
-20.3000030517578
 31
0.0
  0
LINE
  5
76
330
1F
100
AcDbEntity
  8
0
 62
     7
100
AcDbLine
 10
0.5
 20
-20.3000030517578
 30
0.0
 11
8.5
 21
-20.3000030517578
 31
0.0
  0
LINE
  5
77
330
1F
100
AcDbEntity
  8
0
 62
     7
100
AcDbLine
 10
8.5
 20
-20.3000030517578
 30
0.0
 11
8.5
 21
0.6999969482421875
 31
0.0
  0
LINE
  5
78
330
1F
100
AcDbEntity
  8
0
 62
     7
100
AcDbLine
 10
-39.5
 20
-20.3000183105469
 30
0.0
 11
-39.5
 21
0.6999969482421875
 31
0.0
  0
LINE
  5
79
330
1F
100
AcDbEntity
  8
0
 62
     7
100
AcDbLine
 10
100.2404048592475
 20
21.73483901781322
 30
0.0
 11
96.98965089808482
 21
25.23834711819379
 31
0.0
  0
LINE
  5
7A
330
1F
100
AcDbEntity
  8
0
 62
     7
100
AcDbLine
 10
109.1567855017838
 20
28.01533763207297
 30
0.0
 11
110.3625301672638
 21
22.73251911716969
 31
0.0
  0
LINE
  5
7B
330
1F
100
AcDbEntity
  8
0
 62
     7
100
AcDbLine
 10
-28.19999694824219
 20
-4.7613525390625
 30
0.0
 11
-17.19999694824219
 21
-4.7613525390625
 31
0.0
  0
LINE
  5
7C
330
1F
100
AcDbEntity
  8
0
 62
     7
100
AcDbLine
 10
-29.29998779296881
 20
-8.676834106445313
 30
0.0
 11
-28.19999694824219
 21
-8.676834106445313
 31
0.0
  0
LINE
  5
7D
330
1F
100
AcDbEntity
  8
0
 62
     7
100
AcDbLine
 10
-28.19999694824219
 20
-18.7721633911133
 30
0.0
 11
-17.19999694824219
 21
-18.7721633911133
 31
0.0
  0
LINE
  5
7E
330
1F
100
AcDbEntity
  8
0
 62
     7
100
AcDbLine
 10
-29.29998779296881
 20
-21.91103363037109
 30
0.0
 11
-28.19999694824219
 21
-21.91103363037109
 31
0.0
  0
LINE
  5
7F
330
1F
100
AcDbEntity
  8
0
 62
     7
100
AcDbLine
 10
-28.19999694824219
 20
-28.92626953125
 30
0.0
 11
-17.19999694824219
 21
-28.92626953125
 31
0.0
  0
LINE
  5
80
330
1F
100
AcDbEntity
  8
0
 62
     7
100
AcDbLine
 10
-29.29998779296881
 20
-30.6668395996094
 30
0.0
 11
-28.19999694824219
 21
-30.6668395996094
 31
0.0
  0
LINE
  5
81
330
1F
100
AcDbEntity
  8
0
 62
     7
100
AcDbLine
 10
-28.19999694824219
 20
-33.212532043457
 30
0.0
 11
-17.19999694824219
 21
-33.212532043457
 31
0.0
  0
LINE
  5
82
330
1F
100
AcDbEntity
  8
0
 62
     7
100
AcDbLine
 10
-13.80000305175781
 20
-4.7613525390625
 30
0.0
 11
-2.800003051757813
 21
-4.7613525390625
 31
0.0
  0
LINE
  5
83
330
1F
100
AcDbEntity
  8
0
 62
     7
100
AcDbLine
 10
-17.19999694824219
 20
-8.676834106445313
 30
0.0
 11
-13.80000305175781
 21
-8.676834106445313
 31
0.0
  0
LINE
  5
84
330
1F
100
AcDbEntity
  8
0
 62
     7
100
AcDbLine
 10
-2.800003051757813
 20
-8.676834106445313
 30
0.0
 11
-1.699996948242188
 21
-8.676834106445313
 31
0.0
  0
LINE
  5
85
330
1F
100
AcDbEntity
  8
0
 62
     7
100
AcDbLine
 10
-13.80000305175781
 20
-18.7721633911133
 30
0.0
 11
-2.800003051757813
 21
-18.7721633911133
 31
0.0
  0
LINE
  5
86
330
1F
100
AcDbEntity
  8
0
 62
     7
100
AcDbLine
 10
-17.19999694824219
 20
-21.91103363037109
 30
0.0
 11
-13.80000305175781
 21
-21.91103363037109
 31
0.0
  0
LINE
  5
87
330
1F
100
AcDbEntity
  8
0
 62
     7
100
AcDbLine
 10
-2.800003051757813
 20
-21.91103363037109
 30
0.0
 11
-1.699996948242188
 21
-21.91103363037109
 31
0.0
  0
LINE
  5
88
330
1F
100
AcDbEntity
  8
0
 62
     7
100
AcDbLine
 10
-13.80000305175781
 20
-28.92626953125
 30
0.0
 11
-2.800003051757813
 21
-28.92626953125
 31
0.0
  0
LINE
  5
89
330
1F
100
AcDbEntity
  8
0
 62
     7
100
AcDbLine
 10
-2.800003051757813
 20
-30.6668395996094
 30
0.0
 11
-1.699996948242188
 21
-30.6668395996094
 31
0.0
  0
LINE
  5
8A
330
1F
100
AcDbEntity
  8
0
 62
     7
100
AcDbLine
 10
-17.19999694824219
 20
-30.6668395996094
 30
0.0
 11
-13.80000305175781
 21
-30.6668395996094
 31
0.0
  0
LINE
  5
8B
330
1F
100
AcDbEntity
  8
0
 62
     7
100
AcDbLine
 10
-13.80000305175781
 20
-33.212532043457
 30
0.0
 11
-2.800003051757813
 21
-33.212532043457
 31
0.0
  0
LINE
  5
8C
330
1F
100
AcDbEntity
  8
0
 62
     7
100
AcDbLine
 10
-26.72999572753909
 20
23.7649841308594
 30
0.0
 11
-26.72999572753909
 21
21.69999694824219
 31
0.0
  0
LINE
  5
8D
330
1F
100
AcDbEntity
  8
0
 62
     7
100
AcDbLine
 10
-4.269989013671903
 20
23.7649841308594
 30
0.0
 11
-4.269989013671903
 21
21.69999694824219
 31
0.0
  0
LINE
  5
8E
330
1F
100
AcDbEntity
  8
0
 62
     7
100
AcDbLine
 10
-38.1000061035156
 20
21.69999694824219
 30
0.0
 11
-32.1000061035156
 21
21.69999694824219
 31
0.0
  0
LINE
  5
8F
330
1F
100
AcDbEntity
  8
0
 62
     7
100
AcDbLine
 10
-38.1000061035156
 20
7.050003051757813
 30
0.0
 11
-32.1000061035156
 21
7.050003051757813
 31
0.0
  0
LINE
  5
90
330
1F
100
AcDbEntity
  8
0
 62
     7
100
AcDbLine
 10
1.100006103515597
 20
21.69999694824219
 30
0.0
 11
7.100006103515597
 21
21.69999694824219
 31
0.0
  0
LINE
  5
91
330
1F
100
AcDbEntity
  8
0
 62
     7
100
AcDbLine
 10
1.100006103515597
 20
7.050003051757813
 30
0.0
 11
7.100006103515597
 21
7.050003051757813
 31
0.0
  0
LINE
  5
92
330
1F
100
AcDbEntity
  8
0
 62
     7
100
AcDbLine
 10
-11.90000009536743
 20
7.049996852874756
 30
0.0
 11
-11.90000009536743
 21
25.26499748229981
 31
0.0
  0
LINE
  5
93
330
1F
100
AcDbEntity
  8
0
 62
     7
100
AcDbLine
 10
-11.90000009536743
 20
25.26499748229981
 30
0.0
 11
-4.700000762939453
 21
25.26499748229981
 31
0.0
  0
LINE
  5
94
330
1F
100
AcDbEntity
  8
0
 62
     7
100
AcDbLine
 10
-4.700000762939453
 20
25.26499748229981
 30
0.0
 11
-4.700000762939453
 21
22.19999694824219
 31
0.0
  0
LINE
  5
95
330
1F
100
AcDbEntity
  8
0
 62
     7
100
AcDbLine
 10
-4.200000762939453
 20
21.69999694824219
 30
0.0
 11
1.100000381469727
 21
21.69999694824219
 31
0.0
  0
LINE
  5
96
330
1F
100
AcDbEntity
  8
0
 62
     7
100
AcDbLine
 10
10.10000038146973
 20
20.09999656677246
 30
0.0
 11
10.10000038146973
 21
7.049996852874756
 31
0.0
  0
LINE
  5
97
330
1F
100
AcDbEntity
  8
0
 62
     7
100
AcDbLine
 10
10.10000038146973
 20
7.049996852874756
 30
0.0
 11
7.100000381469727
 21
7.049996852874756
 31
0.0
  0
LINE
  5
98
330
1F
100
AcDbEntity
  8
0
 62
     7
100
AcDbLine
 10
7.100000381469727
 20
21.69999694824219
 30
0.0
 11
8.5
 21
21.69999694824219
 31
0.0
  0
LINE
  5
99
330
1F
100
AcDbEntity
  8
0
 62
     7
100
AcDbLine
 10
1.100000381469727
 20
7.049996852874756
 30
0.0
 11
-11.90000009536743
 21
7.049996852874756
 31
0.0
  0
LINE
  5
9A
330
1F
100
AcDbEntity
  8
0
 62
     7
100
AcDbLine
 10
-19.09999990463257
 20
7.049996852874756
 30
0.0
 11
-19.09999990463257
 21
25.26499748229981
 31
0.0
  0
LINE
  5
9B
330
1F
100
AcDbEntity
  8
0
 62
     7
100
AcDbLine
 10
-19.09999990463257
 20
25.26499748229981
 30
0.0
 11
-26.29999923706055
 21
25.26499748229981
 31
0.0
  0
LINE
  5
9C
330
1F
100
AcDbEntity
  8
0
 62
     7
100
AcDbLine
 10
-26.29999923706055
 20
25.26499748229981
 30
0.0
 11
-26.29999923706055
 21
22.19999694824219
 31
0.0
  0
LINE
  5
9D
330
1F
100
AcDbEntity
  8
0
 62
     7
100
AcDbLine
 10
-26.79999923706055
 20
21.69999694824219
 30
0.0
 11
-32.10000038146973
 21
21.69999694824219
 31
0.0
  0
LINE
  5
9E
330
1F
100
AcDbEntity
  8
0
 62
     7
100
AcDbLine
 10
-41.10000038146973
 20
20.10000610351563
 30
0.0
 11
-41.10000038146973
 21
7.049996852874756
 31
0.0
  0
LINE
  5
9F
330
1F
100
AcDbEntity
  8
0
 62
     7
100
AcDbLine
 10
-41.10000038146973
 20
7.049996852874756
 30
0.0
 11
-38.10000038146973
 21
7.049996852874756
 31
0.0
  0
LINE
  5
A0
330
1F
100
AcDbEntity
  8
0
 62
     7
100
AcDbLine
 10
-38.10000038146973
 20
21.69999694824219
 30
0.0
 11
-39.49999809265137
 21
21.69999694824219
 31
0.0
  0
LINE
  5
A1
330
1F
100
AcDbEntity
  8
0
 62
     7
100
AcDbLine
 10
-32.10000038146973
 20
7.049996852874756
 30
0.0
 11
-19.09999990463257
 21
7.049996852874756
 31
0.0
  0
LINE
  5
A2
330
1F
100
AcDbEntity
  8
0
 62
     7
100
AcDbLine
 10
-41.10000591762125
 20
20.10000276967111
 30
0.0
 11
-39.50000371965007
 21
21.70000307946211
 31
0.0
  0
LINE
  5
A3
330
1F
100
AcDbEntity
  8
0
 62
     7
100
AcDbLine
 10
8.50000216023534
 20
21.69999920196079
 30
0.0
 11
10.10000263861056
 21
20.09999481235218
 31
0.0
  0
LINE
  5
A4
330
1F
100
AcDbEntity
  8
0
 62
     7
100
AcDbLine
 10
-28.34998321533203
 20
35.56498718261722
 30
0.0
 11
-28.34998321533203
 21
31.22499084472659
 31
0.0
  0
LINE
  5
A5
330
1F
100
AcDbEntity
  8
0
 62
     7
100
AcDbLine
 10
-31.50000762939453
 20
33.36499023437503
 30
0.0
 11
-31.50000762939453
 21
31.22499084472659
 31
0.0
  0
LINE
  5
A6
330
1F
100
AcDbEntity
  8
0
 62
     7
100
AcDbLine
 10
-31.69998931884766
 20
31.22499084472659
 30
0.0
 11
-27.50001525878906
 21
31.22499084472659
 31
0.0
  0
LINE
  5
A7
330
1F
100
AcDbEntity
  8
0
 62
     7
100
AcDbLine
 10
-31.69998931884766
 20
31.22499084472659
 30
0.0
 11
-31.69998931884766
 21
27.22499084472659
 31
0.0
  0
LINE
  5
A8
330
1F
100
AcDbEntity
  8
0
 62
     7
100
AcDbLine
 10
-31.69998931884766
 20
27.22499084472659
 30
0.0
 11
-27.50001525878906
 21
27.22499084472659
 31
0.0
  0
LINE
  5
A9
330
1F
100
AcDbEntity
  8
0
 62
     7
100
AcDbLine
 10
-31.50000762939453
 20
27.22499084472659
 30
0.0
 11
-31.50000762939453
 21
23.7649841308594
 31
0.0
  0
LINE
  5
AA
330
1F
100
AcDbEntity
  8
0
 62
     7
100
AcDbLine
 10
-28.34998321533203
 20
27.22499084472659
 30
0.0
 11
-28.34998321533203
 21
23.7649841308594
 31
0.0
  0
LINE
  5
AB
330
1F
100
AcDbEntity
  8
0
 62
     7
100
AcDbLine
 10
-31.50000762939453
 20
23.7649841308594
 30
0.0
 11
-26.72999572753906
 21
23.7649841308594
 31
0.0
  0
LINE
  5
AC
330
1F
100
AcDbEntity
  8
0
 62
     7
100
AcDbLine
 10
-26.72999572753906
 20
25.2649841308594
 30
0.0
 11
-26.72999572753906
 21
23.7649841308594
 31
0.0
  0
LINE
  5
AD
330
1F
100
AcDbEntity
  8
0
 62
     7
100
AcDbLine
 10
-27.50001525878906
 20
26.92498779296878
 30
0.0
 11
-17.5
 21
26.92498779296878
 31
0.0
  0
LINE
  5
AE
330
1F
100
AcDbEntity
  8
0
 62
     7
100
AcDbLine
 10
-27.50001525878906
 20
26.92498779296878
 30
0.0
 11
-27.50001525878906
 21
27.22499084472659
 31
0.0
  0
LINE
  5
AF
330
1F
100
AcDbEntity
  8
0
 62
     7
100
AcDbLine
 10
-27.50001525878906
 20
31.5249938964844
 30
0.0
 11
-17.5
 21
31.5249938964844
 31
0.0
  0
LINE
  5
B0
330
1F
100
AcDbEntity
  8
0
 62
     7
100
AcDbLine
 10
-27.50001525878906
 20
31.5249938964844
 30
0.0
 11
-27.50001525878906
 21
31.22499084472659
 31
0.0
  0
LINE
  5
B1
330
1F
100
AcDbEntity
  8
0
 62
     7
100
AcDbLine
 10
-26.20097351074219
 20
29.97499084472659
 30
0.0
 11
-18.79904174804688
 21
29.97499084472659
 31
0.0
  0
LINE
  5
B2
330
1F
100
AcDbEntity
  8
0
 62
     7
100
AcDbLine
 10
-26.20097351074219
 20
28.47499084472659
 30
0.0
 11
-18.79904174804688
 21
28.47499084472659
 31
0.0
  0
LINE
  5
B3
330
1F
100
AcDbEntity
  8
0
 62
     7
100
AcDbLine
 10
-27.50002835286699
 20
29.22503946995454
 30
0.0
 11
-26.20099021131026
 21
29.97503940780845
 31
0.0
  0
LINE
  5
B4
330
1F
100
AcDbEntity
  8
0
 62
     7
100
AcDbLine
 10
-27.50000282375228
 20
29.2250401071143
 30
0.0
 11
-26.20096446028302
 21
28.47504055362435
 31
0.0
  0
LINE
  5
B5
330
1F
100
AcDbEntity
  8
0
 62
     7
100
AcDbLine
 10
-18.79901572186037
 20
29.97500871436515
 30
0.0
 11
-17.49997758030366
 21
29.22500877651123
 31
0.0
  0
LINE
  5
B6
330
1F
100
AcDbEntity
  8
0
 62
     7
100
AcDbLine
 10
-18.79905819398573
 20
28.47502746548724
 30
0.0
 11
-17.50002005242902
 21
29.22502740334116
 31
0.0
  0
LINE
  5
B7
330
1F
100
AcDbEntity
  8
0
 62
     7
100
AcDbLine
 10
-17.5
 20
26.92498779296878
 30
0.0
 11
-17.5
 21
27.22499084472659
 31
0.0
  0
LINE
  5
B8
330
1F
100
AcDbEntity
  8
0
 62
     7
100
AcDbLine
 10
-17.5
 20
31.5249938964844
 30
0.0
 11
-17.5
 21
31.22499084472659
 31
0.0
  0
LINE
  5
B9
330
1F
100
AcDbEntity
  8
0
 62
     7
100
AcDbLine
 10
-13.5
 20
31.22499084472659
 30
0.0
 11
-17.5
 21
31.22499084472659
 31
0.0
  0
LINE
  5
BA
330
1F
100
AcDbEntity
  8
0
 62
     7
100
AcDbLine
 10
-3.5
 20
31.5249938964844
 30
0.0
 11
-13.5
 21
31.5249938964844
 31
0.0
  0
LINE
  5
BB
330
1F
100
AcDbEntity
  8
0
 62
     7
100
AcDbLine
 10
-13.5
 20
31.5249938964844
 30
0.0
 11
-13.5
 21
31.22499084472659
 31
0.0
  0
LINE
  5
BC
330
1F
100
AcDbEntity
  8
0
 62
     7
100
AcDbLine
 10
-13.5
 20
27.22499084472659
 30
0.0
 11
-17.5
 21
27.22499084472659
 31
0.0
  0
LINE
  5
BD
330
1F
100
AcDbEntity
  8
0
 62
     7
100
AcDbLine
 10
-13.5
 20
26.92498779296878
 30
0.0
 11
-13.5
 21
27.22499084472659
 31
0.0
  0
LINE
  5
BE
330
1F
100
AcDbEntity
  8
0
 62
     7
100
AcDbLine
 10
-3.5
 20
26.92498779296878
 30
0.0
 11
-13.5
 21
26.92498779296878
 31
0.0
  0
LINE
  5
BF
330
1F
100
AcDbEntity
  8
0
 62
     7
100
AcDbLine
 10
-1.699996948242188
 20
35.56498718261722
 30
0.0
 11
-29.29999542236328
 21
35.56498718261722
 31
0.0
  0
LINE
  5
C0
330
1F
100
AcDbEntity
  8
0
 62
     7
100
AcDbLine
 10
-2.650001525878906
 20
35.56498718261722
 30
0.0
 11
-2.650001525878906
 21
31.22499084472659
 31
0.0
  0
LINE
  5
C1
330
1F
100
AcDbEntity
  8
0
 62
     7
100
AcDbLine
 10
-13.95999908447266
 20
35.56498718261722
 30
0.0
 11
-13.95999908447266
 21
31.22499084472659
 31
0.0
  0
LINE
  5
C2
330
1F
100
AcDbEntity
  8
0
 62
     7
100
AcDbLine
 10
-17.04000091552734
 20
35.56498718261722
 30
0.0
 11
-17.04000091552734
 21
31.22499084472659
 31
0.0
  0
LINE
  5
C3
330
1F
100
AcDbEntity
  8
0
 62
     7
100
AcDbLine
 10
-26.72999572753906
 20
25.2649841308594
 30
0.0
 11
-18.65000152587891
 21
25.2649841308594
 31
0.0
  0
LINE
  5
C4
330
1F
100
AcDbEntity
  8
0
 62
     7
100
AcDbLine
 10
-18.65000152587891
 20
25.2649841308594
 30
0.0
 11
-18.65000152587891
 21
23.7649841308594
 31
0.0
  0
LINE
  5
C5
330
1F
100
AcDbEntity
  8
0
 62
     7
100
AcDbLine
 10
-17.04000091552734
 20
27.22499084472659
 30
0.0
 11
-17.04000091552734
 21
23.7649841308594
 31
0.0
  0
LINE
  5
C6
330
1F
100
AcDbEntity
  8
0
 62
     7
100
AcDbLine
 10
-13.95999908447266
 20
27.22499084472659
 30
0.0
 11
-13.95999908447266
 21
23.7649841308594
 31
0.0
  0
LINE
  5
C7
330
1F
100
AcDbEntity
  8
0
 62
     7
100
AcDbLine
 10
-12.34999847412109
 20
23.7649841308594
 30
0.0
 11
-18.65000152587891
 21
23.7649841308594
 31
0.0
  0
LINE
  5
C8
330
1F
100
AcDbEntity
  8
0
 62
     7
100
AcDbLine
 10
-12.34999847412109
 20
25.2649841308594
 30
0.0
 11
-12.34999847412109
 21
23.7649841308594
 31
0.0
  0
LINE
  5
C9
330
1F
100
AcDbEntity
  8
0
 62
     7
100
AcDbLine
 10
-4.269996643066406
 20
25.2649841308594
 30
0.0
 11
-12.34999847412109
 21
25.2649841308594
 31
0.0
  0
LINE
  5
CA
330
1F
100
AcDbEntity
  8
0
 62
     7
100
AcDbLine
 10
-4.799034118652344
 20
29.97499084472659
 30
0.0
 11
-12.20095825195313
 21
29.97499084472659
 31
0.0
  0
LINE
  5
CB
330
1F
100
AcDbEntity
  8
0
 62
     7
100
AcDbLine
 10
-12.20098147962773
 20
29.97503772264096
 30
0.0
 11
-13.50001962118446
 21
29.22503778478705
 31
0.0
  0
LINE
  5
CC
330
1F
100
AcDbEntity
  8
0
 62
     7
100
AcDbLine
 10
-12.20092506658904
 20
28.47501449735199
 30
0.0
 11
-13.49996320814574
 21
29.22501443520591
 31
0.0
  0
LINE
  5
CD
330
1F
100
AcDbEntity
  8
0
 62
     7
100
AcDbLine
 10
-4.799034118652344
 20
28.47499084472659
 30
0.0
 11
-12.20095825195313
 21
28.47499084472659
 31
0.0
  0
LINE
  5
CE
330
1F
100
AcDbEntity
  8
0
 62
     7
100
AcDbLine
 10
-3.499985559788456
 20
29.22505325544131
 30
0.0
 11
-4.799023923257693
 21
29.97505280893125
 31
0.0
  0
LINE
  5
CF
330
1F
100
AcDbEntity
  8
0
 62
     7
100
AcDbLine
 10
-3.499966802356539
 20
29.22494083918622
 30
0.0
 11
-4.799005927671544
 21
28.47494069790304
 31
0.0
  0
LINE
  5
D0
330
1F
100
AcDbEntity
  8
0
 62
     7
100
AcDbLine
 10
-3.5
 20
31.5249938964844
 30
0.0
 11
-3.5
 21
31.22499084472659
 31
0.0
  0
LINE
  5
D1
330
1F
100
AcDbEntity
  8
0
 62
     7
100
AcDbLine
 10
0.7000045776367188
 20
31.22499084472659
 30
0.0
 11
-3.5
 21
31.22499084472659
 31
0.0
  0
LINE
  5
D2
330
1F
100
AcDbEntity
  8
0
 62
     7
100
AcDbLine
 10
0.5
 20
33.36499023437503
 30
0.0
 11
0.5
 21
31.22499084472659
 31
0.0
  0
LINE
  5
D3
330
1F
100
AcDbEntity
  8
0
 62
     7
100
AcDbLine
 10
0.7000045776367188
 20
31.22499084472659
 30
0.0
 11
0.7000045776367188
 21
27.22499084472659
 31
0.0
  0
LINE
  5
D4
330
1F
100
AcDbEntity
  8
0
 62
     7
100
AcDbLine
 10
0.7000045776367188
 20
27.22499084472659
 30
0.0
 11
-3.5
 21
27.22499084472659
 31
0.0
  0
LINE
  5
D5
330
1F
100
AcDbEntity
  8
0
 62
     7
100
AcDbLine
 10
0.5
 20
27.22499084472659
 30
0.0
 11
0.5
 21
23.7649841308594
 31
0.0
  0
LINE
  5
D6
330
1F
100
AcDbEntity
  8
0
 62
     7
100
AcDbLine
 10
-2.650001525878906
 20
27.22499084472659
 30
0.0
 11
-2.650001525878906
 21
23.7649841308594
 31
0.0
  0
LINE
  5
D7
330
1F
100
AcDbEntity
  8
0
 62
     7
100
AcDbLine
 10
-3.5
 20
26.92498779296878
 30
0.0
 11
-3.5
 21
27.22499084472659
 31
0.0
  0
LINE
  5
D8
330
1F
100
AcDbEntity
  8
0
 62
     7
100
AcDbLine
 10
-4.269996643066406
 20
25.2649841308594
 30
0.0
 11
-4.269996643066406
 21
23.7649841308594
 31
0.0
  0
LINE
  5
D9
330
1F
100
AcDbEntity
  8
0
 62
     7
100
AcDbLine
 10
0.5
 20
23.7649841308594
 30
0.0
 11
-4.269996643066406
 21
23.7649841308594
 31
0.0
  0
LINE
  5
DA
330
1F
100
AcDbEntity
  8
0
 62
     7
100
AcDbLine
 10
110.7792917852603
 20
25.83879598198115
 30
0.0
 11
109.3705672340729
 21
30.40579340527026
 31
0.0
  0
LINE
  5
DB
330
1F
100
AcDbEntity
  8
0
 62
     7
100
AcDbLine
 10
121.5376462239497
 20
27.62868051763078
 30
0.0
 11
120.3318739266939
 21
22.34587610830889
 31
0.0
  0
LINE
  5
DC
330
1F
100
AcDbEntity
  8
0
 62
     7
100
AcDbLine
 10
92.52587868953853
 20
13.46482102788127
 30
0.0
 11
88.0769308337045
 21
15.21091189078533
 31
0.0
  0
LINE
  5
DD
330
1F
100
AcDbEntity
  8
0
 62
     7
100
AcDbLine
 10
97.83421434855532
 20
22.99201628202812
 30
0.0
 11
101.2126906601639
 21
18.75553105582003
 31
0.0
  0
LINE
  5
DE
330
1F
100
AcDbEntity
  8
0
 62
     7
100
AcDbLine
 10
89.16354830535184
 20
2.666492008136544
 30
0.0
 11
84.39758435890896
 21
2.309339398382377
 31
0.0
  0
LINE
  5
DF
330
1F
100
AcDbEntity
  8
0
 62
     7
100
AcDbLine
 10
89.81249840418278
 20
13.55339885299622
 30
0.0
 11
94.69454242610456
 21
11.20232347606799
 31
0.0
  0
LINE
  5
E0
330
1F
100
AcDbEntity
  8
0
 62
     7
100
AcDbLine
 10
90.81941781953353
 20
-8.521333753828003
 30
0.0
 11
86.68039537995699
 21
-10.91099137995974
 31
0.0
  0
LINE
  5
E1
330
1F
100
AcDbEntity
  8
0
 62
     7
100
AcDbLine
 10
86.68044984008698
 20
1.568999290439393
 30
0.0
 11
92.09911289104568
 21
1.568986842096109
 31
0.0
  0
LINE
  5
E2
330
1F
100
AcDbEntity
  8
0
 62
     7
100
AcDbLine
 10
97.16552239802076
 20
-17.88275498600527
 30
0.0
 11
94.47322562478981
 21
-21.83161664606604
 31
0.0
  0
LINE
  5
E3
330
1F
100
AcDbEntity
  8
0
 62
     7
100
AcDbLine
 10
89.05840966877622
 20
-10.58750995415414
 30
0.0
 11
93.94045908252643
 21
-8.236445773473008
 31
0.0
  0
LINE
  5
E4
330
1F
100
AcDbEntity
  8
0
 62
     7
100
AcDbLine
 10
106.9449318360794
 20
-23.56362935606711
 30
0.0
 11
106.2326029947387
 21
-28.28957454695137
 31
0.0
  0
LINE
  5
E5
330
1F
100
AcDbEntity
  8
0
 62
     7
100
AcDbLine
 10
96.47538754889663
 20
-20.50838479987434
 30
0.0
 11
99.85387367921859
 21
-16.27190740382912
 31
0.0
  0
LINE
  5
E6
330
1F
100
AcDbEntity
  8
0
 62
     7
100
AcDbLine
 10
118.2207082078961
 20
-24.43879426289723
 30
0.0
 11
119.6294328138836
 21
-29.0057916692829
 31
0.0
  0
LINE
  5
E7
330
1F
100
AcDbEntity
  8
0
 62
     7
100
AcDbLine
 10
107.4623537906837
 20
-26.22867892763787
 30
0.0
 11
108.6681260245504
 21
-20.94587450384779
 31
0.0
  0
LINE
  5
E8
330
1F
100
AcDbEntity
  8
0
 62
     7
100
AcDbLine
 10
128.7595583956411
 20
-20.3349187496178
 30
0.0
 11
132.0103212797973
 21
-23.83841857071666
 31
0.0
  0
LINE
  5
E9
330
1F
100
AcDbEntity
  8
0
 62
     7
100
AcDbLine
 10
119.8432177741805
 20
-26.61542404788155
 30
0.0
 11
118.6374581433374
 21
-21.33261674753365
 31
0.0
  0
LINE
  5
EA
330
1F
100
AcDbEntity
  8
0
 62
     7
100
AcDbLine
 10
136.4741297874086
 20
-12.06481250074376
 30
0.0
 11
140.9230775289141
 21
-13.81090365495086
 31
0.0
  0
LINE
  5
EB
330
1F
100
AcDbEntity
  8
0
 62
     7
100
AcDbLine
 10
131.1657935045812
 20
-21.5920074073176
 30
0.0
 11
127.7873174703642
 21
-17.35552195989756
 31
0.0
  0
LINE
  5
EC
330
1F
100
AcDbEntity
  8
0
 62
     7
100
AcDbLine
 10
139.8364486828004
 20
-1.266483006428729
 30
0.0
 11
144.602412647363
 21
-0.9093306384695268
 31
0.0
  0
LINE
  5
ED
330
1F
100
AcDbEntity
  8
0
 62
     7
100
AcDbLine
 10
139.1874980316365
 20
-12.15338981836479
 30
0.0
 11
134.3054541289934
 21
-9.802314193752437
 31
0.0
  0
LINE
  5
EE
330
1F
100
AcDbEntity
  8
0
 62
     7
100
AcDbLine
 10
138.1805753410432
 20
9.921327860297879
 30
0.0
 11
142.3195979018558
 21
12.31098527644193
 31
0.0
  0
LINE
  5
EF
330
1F
100
AcDbEntity
  8
0
 62
     7
100
AcDbLine
 10
142.3195428085704
 20
-0.1690053939538529
 30
0.0
 11
136.900879757613
 21
-0.1689923957934809
 31
0.0
  0
LINE
  5
F0
330
1F
100
AcDbEntity
  8
0
 62
     7
100
AcDbLine
 10
131.8344744684345
 20
19.28274946630967
 30
0.0
 11
134.5267714615422
 21
23.2316109764605
 31
0.0
  0
LINE
  5
F1
330
1F
100
AcDbEntity
  8
0
 62
     7
100
AcDbLine
 10
139.9415867914719
 20
11.98750398304594
 30
0.0
 11
135.059537246812
 21
9.636440074202511
 31
0.0
  0
LINE
  5
F2
330
1F
100
AcDbEntity
  8
0
 62
     7
100
AcDbLine
 10
122.0550683433673
 20
24.9636236616212
 30
0.0
 11
122.7673973157354
 21
29.68956883275604
 31
0.0
  0
LINE
  5
F3
330
1F
100
AcDbEntity
  8
0
 62
     7
100
AcDbLine
 10
132.524612545843
 20
21.90837881515887
 30
0.0
 11
129.1461262980642
 21
17.67190151278263
 31
0.0
  0
ARC
  5
F4
330
1F
100
AcDbEntity
  8
0
 62
     7
100
AcDbCircle
 10
-29.29998779296881
 20
-31.9649963378906
 30
0.0
 40
2.200000047683716
100
AcDbArc
 50
179.9999813306654
 51
269.999963344577
  0
ARC
  5
F5
330
1F
100
AcDbEntity
  8
0
 62
     7
100
AcDbCircle
 10
-1.699996948242188
 20
-31.9649963378906
 30
0.0
 40
2.200000047683716
100
AcDbArc
 50
269.9999633445769
 51
359.9999453584874
  0
CIRCLE
  5
F6
330
1F
100
AcDbEntity
  8
0
 62
     7
100
AcDbCircle
 10
114.5
 20
0.6999969482421875
 30
0.0
 40
6.349999904632568
  0
CIRCLE
  5
F7
330
1F
100
AcDbEntity
  8
0
 62
     7
100
AcDbCircle
 10
114.5
 20
0.6999969482421875
 30
0.0
 40
21.0
  0
ARC
  5
F8
330
1F
100
AcDbEntity
  8
0
 62
     7
100
AcDbCircle
 10
112.3050079345703
 20
10.31211853027341
 30
0.0
 40
24.29999923706055
100
AcDbArc
 50
87.83335038653426
 51
121.4865803517792
  0
ARC
  5
F9
330
1F
100
AcDbEntity
  8
0
 62
     7
100
AcDbCircle
 10
102.1177978515625
 20
26.40885925292969
 30
0.0
 40
5.260000228881836
100
AcDbArc
 50
118.4354528872645
 51
192.8569345365355
  0
ARC
  5
FA
330
1F
100
AcDbEntity
  8
0
 62
     7
100
AcDbCircle
 10
102.9160690307617
 20
24.21754455566409
 30
0.0
 40
3.650000095367432
100
AcDbArc
 50
222.8569458440163
 51
282.9446881237466
  0
ARC
  5
FB
330
1F
100
AcDbEntity
  8
0
 62
     7
100
AcDbCircle
 10
112.4702301025391
 20
-7.2890625
 30
0.0
 40
30.66000175476074
100
AcDbArc
 50
67.3474274051316
 51
75.14275645581301
  0
CIRCLE
  5
FC
330
1F
100
AcDbEntity
  8
0
 62
     7
100
AcDbCircle
 10
102.1177978515625
 20
26.40885925292969
 30
0.0
 40
2.0
  0
ARC
  5
FD
330
1F
100
AcDbEntity
  8
0
 62
     7
100
AcDbCircle
 10
114.5286407470703
 20
29.24151611328131
 30
0.0
 40
5.510000228881836
100
AcDbArc
 50
103.6995383190154
 51
192.8569345365354
  0
ARC
  5
FE
330
1F
100
AcDbEntity
  8
0
 62
     7
100
AcDbCircle
 10
116.1375885009766
 20
-7.378601074218693
 30
0.0
 40
30.66000175476074
100
AcDbArc
 50
100.8570389826986
 51
113.863645275749
  0
ARC
  5
FF
330
1F
100
AcDbEntity
  8
0
 62
     7
100
AcDbCircle
 10
116.1375885009766
 20
-7.378601074218693
 30
0.0
 40
30.66000175476074
100
AcDbArc
 50
93.06171676220643
 51
100.8570389826986
  0
ARC
  5
100
330
1F
100
AcDbEntity
  8
0
 62
     7
100
AcDbCircle
 10
119.4805908203125
 20
-5.8680419921875
 30
0.0
 40
30.66000175476074
100
AcDbArc
 50
118.7760061192813
 51
126.5713283397736
  0
ARC
  5
101
330
1F
100
AcDbEntity
  8
0
 62
     7
100
AcDbCircle
 10
121.8371200561523
 20
-3.056610107421903
 30
0.0
 40
30.66000175476074
100
AcDbArc
 50
144.4902886461669
 51
152.2856108666591
  0
ARC
  5
102
330
1F
100
AcDbEntity
  8
0
 62
     7
100
AcDbCircle
 10
122.7404479980469
 20
0.4988708496094034
 30
0.0
 40
30.66000175476074
100
AcDbArc
 50
170.2045711730527
 51
177.9998933935449
  0
ARC
  5
103
330
1F
100
AcDbEntity
  8
0
 62
     7
100
AcDbCircle
 10
122.0116500854492
 20
4.094177246093807
 30
0.0
 40
30.66000175476074
100
AcDbArc
 50
195.9188710027829
 51
203.7141932232752
  0
ARC
  5
104
330
1F
100
AcDbEntity
  8
0
 62
     7
100
AcDbCircle
 10
119.7950820922852
 20
7.017227172851591
 30
0.0
 40
30.66000175476074
100
AcDbArc
 50
221.6331535296687
 51
229.4284757501609
  0
ARC
  5
105
330
1F
100
AcDbEntity
  8
0
 62
     7
100
AcDbCircle
 10
116.5297622680664
 20
8.689071655273409
 30
0.0
 40
30.66000175476074
100
AcDbArc
 50
247.3474360565542
 51
255.1427582770465
  0
ARC
  5
106
330
1F
100
AcDbEntity
  8
0
 62
     7
100
AcDbCircle
 10
112.8624267578125
 20
8.778579711914091
 30
0.0
 40
30.66000175476074
100
AcDbArc
 50
273.0617185834399
 51
280.8570408039322
  0
ARC
  5
107
330
1F
100
AcDbEntity
  8
0
 62
     7
100
AcDbCircle
 10
109.5194320678711
 20
7.268035888671903
 30
0.0
 40
30.66000175476074
100
AcDbArc
 50
298.7760011103255
 51
306.5713267459124
  0
ARC
  5
108
330
1F
100
AcDbEntity
  8
0
 62
     7
100
AcDbCircle
 10
107.1628952026367
 20
4.456604003906307
 30
0.0
 40
30.66000175476074
100
AcDbArc
 50
324.4902870523059
 51
332.2856126878927
  0
ARC
  5
109
330
1F
100
AcDbEntity
  8
0
 62
     7
100
AcDbCircle
 10
106.2595672607422
 20
0.9011383056640909
 30
0.0
 40
30.66000175476074
100
AcDbArc
 50
350.204572994286
 51
357.999898629873
  0
ARC
  5
10A
330
1F
100
AcDbEntity
  8
0
 62
     7
100
AcDbCircle
 10
106.9883575439453
 20
-2.694168090820313
 30
0.0
 40
30.66000175476074
100
AcDbArc
 50
15.91885893626569
 51
23.7141845718525
  0
ARC
  5
10B
330
1F
100
AcDbEntity
  8
0
 62
     7
100
AcDbCircle
 10
109.2049179077148
 20
-5.617218017578097
 30
0.0
 40
30.66000175476074
100
AcDbArc
 50
41.63314487824594
 51
49.42847051383276
  0
ARC
  5
10C
330
1F
100
AcDbEntity
  8
0
 62
     7
100
AcDbCircle
 10
-4.200000762939453
 20
22.19999694824219
 30
0.0
 40
0.5
100
AcDbArc
 50
179.9999813306656
 51
270.0000179860901
  0
ARC
  5
10D
330
1F
100
AcDbEntity
  8
0
 62
     7
100
AcDbCircle
 10
-26.79999923706055
 20
22.19999694824219
 30
0.0
 40
0.5
100
AcDbArc
 50
269.9999633445769
 51
360.0
  0
ARC
  5
10E
330
1F
100
AcDbEntity
  8
0
 62
     7
100
AcDbCircle
 10
-29.29999542236328
 20
33.36499023437503
 30
0.0
 40
2.200000047683716
100
AcDbArc
 50
89.99998201391067
 51
179.9999640278213
  0
ARC
  5
10F
330
1F
100
AcDbEntity
  8
0
 62
     7
100
AcDbCircle
 10
-1.699996948242188
 20
33.36499023437503
 30
0.0
 40
2.200000047683716
100
AcDbArc
 50
0.0
 51
89.99998201391067
  0
ARC
  5
110
330
1F
100
AcDbEntity
  8
0
 62
     7
100
AcDbCircle
 10
116.6929552162122
 20
10.31259239476549
 30
0.0
 40
24.29999923706055
100
AcDbArc
 50
62.11918380166289
 51
95.7724069367187
  0
ARC
  5
111
330
1F
100
AcDbEntity
  8
0
 62
     7
100
AcDbCircle
 10
114.4986676168741
 20
29.23530402967401
 30
0.0
 40
5.260000228881836
100
AcDbArc
 50
92.72129313258229
 51
167.1427696592109
  0
ARC
  5
112
330
1F
100
AcDbEntity
  8
0
 62
     7
100
AcDbCircle
 10
114.2671199079907
 20
26.91463880481209
 30
0.0
 40
3.650000095367432
100
AcDbArc
 50
197.1427722015835
 51
257.2305042360298
  0
ARC
  5
113
330
1F
100
AcDbEntity
  8
0
 62
     7
100
AcDbCircle
 10
112.4703188760374
 20
-7.289097699188687
 30
0.0
 40
30.66000175476074
100
AcDbArc
 50
75.14278360536815
 51
88.14947869087757
  0
CIRCLE
  5
114
330
1F
100
AcDbEntity
  8
0
 62
     7
100
AcDbCircle
 10
114.4986676168741
 20
29.23530402967401
 30
0.0
 40
2.0
  0
ARC
  5
115
330
1F
100
AcDbEntity
  8
0
 62
     7
100
AcDbCircle
 10
126.9094967584191
 20
26.40259985084683
 30
0.0
 40
5.510000228881836
100
AcDbArc
 50
77.98537856433322
 51
167.1427696592109
  0
ARC
  5
116
330
1F
100
AcDbEntity
  8
0
 62
     7
100
AcDbCircle
 10
108.3518625837977
 20
8.407880570955257
 30
0.0
 40
24.29999923706055
100
AcDbArc
 50
113.5477584677327
 51
147.2009816027884
  0
ARC
  5
117
330
1F
100
AcDbEntity
  8
0
 62
     7
100
AcDbCircle
 10
92.18937438371493
 20
18.49043425882113
 30
0.0
 40
5.260000228881836
100
AcDbArc
 50
144.149867798652
 51
218.5713443252806
  0
ARC
  5
118
330
1F
100
AcDbEntity
  8
0
 62
     7
100
AcDbCircle
 10
93.8593759736351
 20
16.86249196345656
 30
0.0
 40
3.650000095367432
100
AcDbArc
 50
248.5713468676533
 51
308.6590789020996
  0
ARC
  5
119
330
1F
100
AcDbEntity
  8
0
 62
     7
100
AcDbCircle
 10
119.4806481554974
 20
-5.867983099033239
 30
0.0
 40
30.66000175476074
100
AcDbArc
 50
126.5713582714379
 51
139.5780533569473
  0
CIRCLE
  5
11A
330
1F
100
AcDbEntity
  8
0
 62
     7
100
AcDbCircle
 10
92.18937438371493
 20
18.49043425882113
 30
0.0
 40
2.0
  0
ARC
  5
11B
330
1F
100
AcDbEntity
  8
0
 62
     7
100
AcDbCircle
 10
102.1420966451242
 20
26.42744960040997
 30
0.0
 40
5.510000228881836
100
AcDbArc
 50
129.413953230403
 51
218.5713443252806
  0
ARC
  5
11C
330
1F
100
AcDbEntity
  8
0
 62
     7
100
AcDbCircle
 10
105.6163913382859
 20
4.976983111750144
 30
0.0
 40
24.29999923706055
100
AcDbArc
 50
139.262044024908
 51
172.9152671599638
  0
ARC
  5
11D
330
1F
100
AcDbEntity
  8
0
 62
     7
100
AcDbCircle
 10
86.6798365539064
 20
7.048409331702487
 30
0.0
 40
5.260000228881836
100
AcDbArc
 50
169.8641533558274
 51
244.285629882456
  0
ARC
  5
11E
330
1F
100
AcDbEntity
  8
0
 62
     7
100
AcDbCircle
 10
88.89079368391737
 20
6.306270532941596
 30
0.0
 40
3.650000095367432
100
AcDbArc
 50
274.2856324248287
 51
334.3733644592749
  0
ARC
  5
11F
330
1F
100
AcDbEntity
  8
0
 62
     7
100
AcDbCircle
 10
121.8371457621874
 20
-3.056526566120908
 30
0.0
 40
30.66000175476074
100
AcDbArc
 50
152.2856438286133
 51
165.2923389141227
  0
CIRCLE
  5
120
330
1F
100
AcDbEntity
  8
0
 62
     7
100
AcDbCircle
 10
86.6798365539064
 20
7.048409331702487
 30
0.0
 40
2.0
  0
ARC
  5
121
330
1F
100
AcDbEntity
  8
0
 62
     7
100
AcDbCircle
 10
92.20318759992348
 20
18.51773739257118
 30
0.0
 40
5.510000228881836
100
AcDbArc
 50
155.1282387875783
 51
244.285629882456
  0
ARC
  5
122
330
1F
100
AcDbEntity
  8
0
 62
     7
100
AcDbCircle
 10
104.6404326924875
 20
0.6989678078253689
 30
0.0
 40
24.29999923706055
100
AcDbArc
 50
164.976329546377
 51
198.6295526814328
  0
ARC
  5
123
330
1F
100
AcDbEntity
  8
0
 62
     7
100
AcDbCircle
 10
86.68042819144444
 20
-5.651004791251324
 30
0.0
 40
5.260000228881836
100
AcDbArc
 50
195.5784388772964
 51
269.9999154039251
  0
ARC
  5
124
330
1F
100
AcDbEntity
  8
0
 62
     7
100
AcDbCircle
 10
88.99443369177993
 20
-5.360350405786846
 30
0.0
 40
3.650000095367432
100
AcDbArc
 50
299.9999179462977
 51
360.0876499807439
  0
ARC
  5
125
330
1F
100
AcDbEntity
  8
0
 62
     7
100
AcDbCircle
 10
122.7404366589119
 20
0.4989472079091684
 30
0.0
 40
30.66000175476074
100
AcDbArc
 50
177.9999293500823
 51
191.0066244355917
  0
CIRCLE
  5
126
330
1F
100
AcDbEntity
  8
0
 62
     7
100
AcDbCircle
 10
86.68042819144444
 20
-5.651004791251324
 30
0.0
 40
2.0
  0
ARC
  5
127
330
1F
100
AcDbEntity
  8
0
 62
     7
100
AcDbCircle
 10
86.68044062902655
 20
7.078994931655785
 30
0.0
 40
5.510000228881836
100
AcDbArc
 50
180.8425243090473
 51
269.9999154039251
  0
ARC
  5
128
330
1F
100
AcDbEntity
  8
0
 62
     7
100
AcDbCircle
 10
105.6172875955302
 20
-3.578836709798168
 30
0.0
 40
24.29999923706055
100
AcDbArc
 50
190.690615294618
 51
224.3438384296738
  0
ARC
  5
129
330
1F
100
AcDbEntity
  8
0
 62
     7
100
AcDbCircle
 10
92.19103253529302
 20
-17.09251824903714
 30
0.0
 40
5.260000228881836
100
AcDbArc
 50
221.2927246255374
 51
295.714201152166
  0
ARC
  5
12A
330
1F
100
AcDbEntity
  8
0
 62
     7
100
AcDbCircle
 10
94.14976923894388
 20
-15.82663833642945
 30
0.0
 40
3.650000095367432
100
AcDbArc
 50
325.7142036945386
 51
385.8019357289849
  0
ARC
  5
12B
330
1F
100
AcDbEntity
  8
0
 62
     7
100
AcDbCircle
 10
122.0116133594337
 20
4.094248365448777
 30
0.0
 40
30.66000175476074
100
AcDbArc
 50
203.7142150983232
 51
216.7209101838326
  0
CIRCLE
  5
12C
330
1F
100
AcDbEntity
  8
0
 62
     7
100
AcDbCircle
 10
92.19103253529302
 20
-17.09251824903714
 30
0.0
 40
2.0
  0
ARC
  5
12D
330
1F
100
AcDbEntity
  8
0
 62
     7
100
AcDbCircle
 10
86.66770385562987
 20
-5.623179417100147
 30
0.0
 40
5.510000228881836
100
AcDbArc
 50
206.5568100572883
 51
295.714201152166
  0
ARC
  5
12E
330
1F
100
AcDbEntity
  8
0
 62
     7
100
AcDbCircle
 10
108.3534720599201
 20
-7.009160852244179
 30
0.0
 40
24.29999923706055
100
AcDbArc
 50
216.4048994591288
 51
250.0581225941846
  0
ARC
  5
12F
330
1F
100
AcDbEntity
  8
0
 62
     7
100
AcDbCircle
 10
102.1202004267192
 20
-25.01000078912614
 30
0.0
 40
5.260000228881836
100
AcDbArc
 50
247.0070087900482
 51
321.4284853166768
  0
ARC
  5
130
330
1F
100
AcDbEntity
  8
0
 62
     7
100
AcDbCircle
 10
103.3357165612076
 20
-23.01961842531486
 30
0.0
 40
3.650000095367432
100
AcDbArc
 50
351.4284878590495
 51
411.5162198934958
  0
ARC
  5
131
330
1F
100
AcDbEntity
  8
0
 62
     7
100
AcDbCircle
 10
119.7950227198291
 20
7.017280974595025
 30
0.0
 40
30.66000175476074
100
AcDbArc
 50
229.4284992628341
 51
242.4351943483435
  0
CIRCLE
  5
132
330
1F
100
AcDbEntity
  8
0
 62
     7
100
AcDbCircle
 10
102.1202004267192
 20
-25.01000078912614
 30
0.0
 40
2.0
  0
ARC
  5
133
330
1F
100
AcDbEntity
  8
0
 62
     7
100
AcDbCircle
 10
92.16749383622934
 20
-17.07296579682662
 30
0.0
 40
5.510000228881836
100
AcDbArc
 50
232.2710942217991
 51
321.4284853166768
  0
ARC
  5
134
330
1F
100
AcDbEntity
  8
0
 62
     7
100
AcDbCircle
 10
112.3070445906431
 20
-8.912590746640518
 30
0.0
 40
24.29999923706055
100
AcDbArc
 50
242.1191844891631
 51
275.7724076242188
  0
ARC
  5
135
330
1F
100
AcDbEntity
  8
0
 62
     7
100
AcDbCircle
 10
114.5013324170375
 20
-27.83530235521947
 30
0.0
 40
5.260000228881836
100
AcDbArc
 50
272.7212938200824
 51
347.142770346711
  0
ARC
  5
136
330
1F
100
AcDbEntity
  8
0
 62
     7
100
AcDbCircle
 10
114.7328800980749
 20
-25.51463712757916
 30
0.0
 40
3.650000095367432
100
AcDbArc
 50
17.14277288908373
 51
77.23050492352996
  0
ARC
  5
137
330
1F
100
AcDbEntity
  8
0
 62
     7
100
AcDbCircle
 10
116.5296807196127
 20
8.689099397981636
 30
0.0
 40
30.66000175476074
100
AcDbArc
 50
255.1427842928683
 51
268.1494793783778
  0
CIRCLE
  5
138
330
1F
100
AcDbEntity
  8
0
 62
     7
100
AcDbCircle
 10
114.5013324170375
 20
-27.83530235521947
 30
0.0
 40
2.0
  0
ARC
  5
139
330
1F
100
AcDbEntity
  8
0
 62
     7
100
AcDbCircle
 10
102.0905032415025
 20
-25.00259832531158
 30
0.0
 40
5.510000228881836
100
AcDbArc
 50
257.9853792518333
 51
347.142770346711
  0
ARC
  5
13A
330
1F
100
AcDbEntity
  8
0
 62
     7
100
AcDbCircle
 10
116.6949644773917
 20
-8.912135087393267
 30
0.0
 40
24.29999923706055
100
AcDbArc
 50
267.833469540964
 51
301.4866926760198
  0
ARC
  5
13B
330
1F
100
AcDbEntity
  8
0
 62
     7
100
AcDbCircle
 10
126.8822061770449
 20
-25.00884345399285
 30
0.0
 40
5.260000228881836
100
AcDbArc
 50
298.4355788718834
 51
372.857055398512
  0
ARC
  5
13C
330
1F
100
AcDbEntity
  8
0
 62
     7
100
AcDbCircle
 10
126.0839245482231
 20
-22.81753154820258
 30
0.0
 40
3.650000095367432
100
AcDbArc
 50
42.85705794088474
 51
102.944789975331
  0
ARC
  5
13D
330
1F
100
AcDbEntity
  8
0
 62
     7
100
AcDbCircle
 10
112.8623412398854
 20
8.778572952261243
 30
0.0
 40
30.66000175476074
100
AcDbArc
 50
280.8570693446693
 51
293.8637644301787
  0
CIRCLE
  5
13E
330
1F
100
AcDbEntity
  8
0
 62
     7
100
AcDbCircle
 10
126.8822061770449
 20
-25.00884345399285
 30
0.0
 40
2.0
  0
ARC
  5
13F
330
1F
100
AcDbEntity
  8
0
 62
     7
100
AcDbCircle
 10
114.4713712159701
 20
-27.84152213579377
 30
0.0
 40
5.510000228881836
100
AcDbArc
 50
283.6996643036343
 51
372.857055398512
  0
ARC
  5
140
330
1F
100
AcDbEntity
  8
0
 62
     7
100
AcDbCircle
 10
120.648146224262
 20
-7.007871007582367
 30
0.0
 40
24.29999923706055
100
AcDbArc
 50
293.5477547161862
 51
327.2009778512419
  0
ARC
  5
141
330
1F
100
AcDbEntity
  8
0
 62
     7
100
AcDbCircle
 10
136.8106337641709
 20
-17.09042575371687
 30
0.0
 40
5.260000228881836
100
AcDbArc
 50
324.1498640471055
 51
398.5713405737341
  0
ARC
  5
142
330
1F
100
AcDbEntity
  8
0
 62
     7
100
AcDbCircle
 10
135.1406322808433
 20
-15.46248334900588
 30
0.0
 40
3.650000095367432
100
AcDbArc
 50
68.57134311610679
 51
128.659075150553
  0
ARC
  5
143
330
1F
100
AcDbEntity
  8
0
 62
     7
100
AcDbCircle
 10
109.5193615873007
 20
7.267993391083792
 30
0.0
 40
30.66000175476074
100
AcDbArc
 50
306.5713545198914
 51
319.5780496054008
  0
CIRCLE
  5
144
330
1F
100
AcDbEntity
  8
0
 62
     7
100
AcDbCircle
 10
136.8106337641709
 20
-17.09042575371687
 30
0.0
 40
2.0
  0
ARC
  5
145
330
1F
100
AcDbEntity
  8
0
 62
     7
100
AcDbCircle
 10
126.8579109830711
 20
-25.0274404436329
 30
0.0
 40
5.510000228881836
100
AcDbArc
 50
309.4139494788564
 51
398.5713405737342
  0
ARC
  5
146
330
1F
100
AcDbEntity
  8
0
 62
     7
100
AcDbCircle
 10
123.3836055326467
 20
-3.576973275328754
 30
0.0
 40
24.29999923706055
100
AcDbArc
 50
319.2620411180815
 51
352.9152642531373
  0
ARC
  5
147
330
1F
100
AcDbEntity
  8
0
 62
     7
100
AcDbCircle
 10
142.3201602119351
 20
-5.648400456002491
 30
0.0
 40
5.260000228881836
100
AcDbArc
 50
349.8641504490008
 51
424.2856269756295
  0
ARC
  5
148
330
1F
100
AcDbEntity
  8
0
 62
     7
100
AcDbCircle
 10
140.1092031195755
 20
-4.906261545071544
 30
0.0
 40
3.650000095367432
100
AcDbArc
 50
94.28562951800211
 51
154.3733615524484
  0
ARC
  5
149
330
1F
100
AcDbEntity
  8
0
 62
     7
100
AcDbCircle
 10
107.1628515163148
 20
4.456537225481043
 30
0.0
 40
30.66000175476074
100
AcDbArc
 50
332.2856409217868
 51
345.2923360072962
  0
CIRCLE
  5
14A
330
1F
100
AcDbEntity
  8
0
 62
     7
100
AcDbCircle
 10
142.3201602119351
 20
-5.648400456002491
 30
0.0
 40
2.0
  0
ARC
  5
14B
330
1F
100
AcDbEntity
  8
0
 62
     7
100
AcDbCircle
 10
136.7968085840366
 20
-17.11772823665116
 30
0.0
 40
5.510000228881836
100
AcDbArc
 50
335.1282358807517
 51
424.2856269756295
  0
ARC
  5
14C
330
1F
100
AcDbEntity
  8
0
 62
     7
100
AcDbCircle
 10
124.3595600003098
 20
0.7010269998347667
 30
0.0
 40
24.29999923706055
100
AcDbArc
 50
344.9763266395535
 51
378.6295497746093
  0
ARC
  5
14D
330
1F
100
AcDbEntity
  8
0
 62
     7
100
AcDbCircle
 10
142.3195648235101
 20
7.050998687735017
 30
0.0
 40
5.260000228881836
100
AcDbArc
 50
15.57843597047287
 51
89.99991249710151
  0
ARC
  5
14E
330
1F
100
AcDbEntity
  8
0
 62
     7
100
AcDbCircle
 10
140.0055593084286
 20
6.760344419668485
 30
0.0
 40
3.650000095367432
100
AcDbArc
 50
119.9999150394742
 51
180.0876470739204
  0
ARC
  5
14F
330
1F
100
AcDbEntity
  8
0
 62
     7
100
AcDbCircle
 10
106.2595560440332
 20
0.9010485180300805
 30
0.0
 40
30.66000175476074
100
AcDbArc
 50
357.9999264432588
 51
371.0066215287682
  0
CIRCLE
  5
150
330
1F
100
AcDbEntity
  8
0
 62
     7
100
AcDbCircle
 10
142.3195648235101
 20
7.050998687735017
 30
0.0
 40
2.0
  0
ARC
  5
151
330
1F
100
AcDbEntity
  8
0
 62
     7
100
AcDbCircle
 10
142.3195517400887
 20
-5.679001035171353
 30
0.0
 40
5.510000228881836
100
AcDbArc
 50
0.8425214022238021
 51
89.99991249710151
  0
ARC
  5
152
330
1F
100
AcDbEntity
  8
0
 62
     7
100
AcDbCircle
 10
123.3827084744678
 20
4.978831660705765
 30
0.0
 40
24.29999923706055
100
AcDbArc
 50
10.69061210432827
 51
44.34383523938406
  0
ARC
  5
153
330
1F
100
AcDbEntity
  8
0
 62
     7
100
AcDbCircle
 10
136.808964287161
 20
18.49251245235664
 30
0.0
 40
5.260000228881836
100
AcDbArc
 50
41.29272143524764
 51
115.7141979618763
  0
ARC
  5
154
330
1F
100
AcDbEntity
  8
0
 62
     7
100
AcDbCircle
 10
134.8502275130246
 20
17.22663264881348
 30
0.0
 40
3.650000095367432
100
AcDbArc
 50
145.7142005042489
 51
205.8019325386952
  0
ARC
  5
155
330
1F
100
AcDbEntity
  8
0
 62
     7
100
AcDbCircle
 10
106.9883822833188
 20
-2.694252501687743
 30
0.0
 40
30.66000175476074
100
AcDbArc
 50
23.71421190803353
 51
36.72090699354295
  0
CIRCLE
  5
156
330
1F
100
AcDbEntity
  8
0
 62
     7
100
AcDbCircle
 10
136.808964287161
 20
18.49251245235664
 30
0.0
 40
2.0
  0
ARC
  5
157
330
1F
100
AcDbEntity
  8
0
 62
     7
100
AcDbCircle
 10
142.3322923281992
 20
7.023173312874889
 30
0.0
 40
5.510000228881836
100
AcDbArc
 50
26.55680686699856
 51
115.7141979618763
  0
ARC
  5
158
330
1F
100
AcDbEntity
  8
0
 62
     7
100
AcDbCircle
 10
120.6465276605519
 20
8.409155196850122
 30
0.0
 40
24.29999923706055
100
AcDbArc
 50
36.4048978705961
 51
70.05812100565188
  0
ARC
  5
159
330
1F
100
AcDbEntity
  8
0
 62
     7
100
AcDbCircle
 10
126.8797997928283
 20
26.40999496091385
 30
0.0
 40
5.260000228881836
100
AcDbArc
 50
67.00700720151546
 51
141.4284837281441
  0
ARC
  5
15A
330
1F
100
AcDbEntity
  8
0
 62
     7
100
AcDbCircle
 10
125.6642836031564
 20
24.4196126308029
 30
0.0
 40
3.650000095367432
100
AcDbArc
 50
171.4284862705167
 51
231.516218304963
  0
ARC
  5
15B
330
1F
100
AcDbEntity
  8
0
 62
     7
100
AcDbCircle
 10
109.204976611758
 20
-5.617286312770631
 30
0.0
 40
30.66000175476074
100
AcDbArc
 50
49.42849767430136
 51
62.43519275981077
  0
CIRCLE
  5
15C
330
1F
100
AcDbEntity
  8
0
 62
     7
100
AcDbCircle
 10
126.8797997928283
 20
26.40999496091385
 30
0.0
 40
2.0
  0
ARC
  5
15D
330
1F
100
AcDbEntity
  8
0
 62
     7
100
AcDbCircle
 10
136.8325061632629
 20
18.47295969267429
 30
0.0
 40
5.510000228881836
100
AcDbArc
 50
52.2710926332664
 51
141.4284837281441
  0
LINE
  5
15E
330
1F
100
AcDbEntity
  8
0
  6
CENTER
 62
     7
100
AcDbLine
 10
4.100006103515597
 20
24.01780700683591
 30
0.0
 11
4.100006103515597
 21
4.375
 31
0.0
  0
LINE
  5
15F
330
1F
100
AcDbEntity
  8
0
  6
CENTER
 62
     7
100
AcDbLine
 10
-35.1000061035156
 20
23.80842590332031
 30
0.0
 11
-35.1000061035156
 21
4.375
 31
0.0
  0
LINE
  5
160
330
1F
100
AcDbEntity
  8
0
  6
CENTER
 62
     7
100
AcDbLine
 10
-45.5
 20
0.6999969482421875
 30
0.0
 11
14.5
 21
0.6999969482421875
 31
0.0
  0
LINE
  5
161
330
1F
100
AcDbEntity
  8
0
  6
CENTER
 62
     7
100
AcDbLine
 10
114.5
 20
39.38421630859381
 30
0.0
 11
114.5
 21
-36.915771484375
 31
0.0
  0
LINE
  5
162
330
1F
100
AcDbEntity
  8
0
  6
CENTER
 62
     7
100
AcDbLine
 10
76.1588516235352
 20
0.6999969482421875
 30
0.0
 11
152.1088485717773
 21
0.6999969482421875
 31
0.0
  0
LINE
  5
163
330
1F
100
AcDbEntity
  8
0
  6
CENTER
 62
     7
100
AcDbLine
 10
-34.50000762939453
 20
29.22499084472659
 30
0.0
 11
3.5
 21
29.22499084472659
 31
0.0
  0
CIRCLE
  5
164
330
1F
100
AcDbEntity
  8
0
  6
CENTER
 62
     7
100
AcDbCircle
 10
114.5
 20
0.6999969482421875
 30
0.0
 40
28.53499984741211
  0
LINE
  5
165
330
1F
100
AcDbEntity
  8
0
  6
DIVIDE
 62
     9
100
AcDbLine
 10
-37.30000305175781
 20
21.69999694824219
 30
0.0
 11
-37.30000305175781
 21
7.050003051757813
 31
0.0
  0
LINE
  5
166
330
1F
100
AcDbEntity
  8
0
  6
DIVIDE
 62
     9
100
AcDbLine
 10
-32.8999938964844
 20
21.69999694824219
 30
0.0
 11
-32.8999938964844
 21
7.050003051757813
 31
0.0
  0
LINE
  5
167
330
1F
100
AcDbEntity
  8
0
  6
DIVIDE
 62
     9
100
AcDbLine
 10
1.899993896484403
 20
21.69999694824219
 30
0.0
 11
1.899993896484403
 21
7.050003051757813
 31
0.0
  0
LINE
  5
168
330
1F
100
AcDbEntity
  8
0
  6
DIVIDE
 62
     9
100
AcDbLine
 10
6.300003051757813
 20
21.69999694824219
 30
0.0
 11
6.300003051757813
 21
7.050003051757813
 31
0.0
  0
LINE
  5
169
330
1F
100
AcDbEntity
  8
0
  6
DIVIDE
 62
     9
100
AcDbLine
 10
1.100000381469727
 20
21.69999694824219
 30
0.0
 11
1.100000381469727
 21
7.049996852874756
 31
0.0
  0
LINE
  5
16A
330
1F
100
AcDbEntity
  8
0
  6
DIVIDE
 62
     9
100
AcDbLine
 10
7.100000381469727
 20
21.69999694824219
 30
0.0
 11
7.100000381469727
 21
7.049996852874756
 31
0.0
  0
LINE
  5
16B
330
1F
100
AcDbEntity
  8
0
  6
DIVIDE
 62
     9
100
AcDbLine
 10
-32.10000038146973
 20
21.69999694824219
 30
0.0
 11
-32.10000038146973
 21
7.049996852874756
 31
0.0
  0
LINE
  5
16C
330
1F
100
AcDbEntity
  8
0
  6
DIVIDE
 62
     9
100
AcDbLine
 10
-38.10000038146973
 20
21.69999694824219
 30
0.0
 11
-38.10000038146973
 21
7.049996852874756
 31
0.0
  0
TEXT
  5
16E
330
1F
100
AcDbEntity
  8
0
 62
     7
100
AcDbText
 10
143.5321421659354
 20
-102.3750183582306
 30
0.0
 40
4.150000095367432
  1
ＣＮ４１４
 41
0.6600000138340222
  7
FDASTYLE0
 72
     5
 11
163.0964288747672
 21
-102.3750183582306
 31
0.0
100
AcDbText
  0
VIEWPORT
  5
2B
330
1B
100
AcDbEntity
 67
     1
  8
0
100
AcDbViewport
 10
54.68749988024145
 20
-31.49540102481839
 30
0.0
 40
601.1249992814487
 41
425.2777040004732
 68
     1
 69
     1
1001
ACAD
1000
MVIEW
1002
{
1070
    16
1010
0.0
1020
0.0
1030
0.0
1010
0.0
1020
0.0
1030
1.0
1040
0.0
1040
425.2777040004732
1040
54.68749988024145
1040
-31.49540102481839
1040
50.0
1040
0.0
1040
0.0
1070
     0
1070
   100
1070
     0
1070
     1
1070
     0
1070
     0
1070
     0
1070
     0
1040
0.0
1040
0.0
1040
0.0
1040
0.5
1040
0.5
1040
0.0
1040
0.0
1070
     0
1002
{
1002
}
1002
}
  0
ENDSEC
  0
SECTION
  2
OBJECTS
  0
DICTIONARY
  5
C
330
0
100
AcDbDictionary
  3
ACAD_GROUP
350
D
  3
ACAD_LAYOUT
350
1A
  3
ACAD_MLINESTYLE
350
17
  3
ACAD_PLOTSETTINGS
350
19
  3
ACDBHEADERROUNDTRIPXREC
350
16F
  0
DICTIONARY
  5
D
102
{ACAD_REACTORS
330
C
102
}
330
C
100
AcDbDictionary
  0
DICTIONARY
  5
1A
102
{ACAD_REACTORS
330
C
102
}
330
C
100
AcDbDictionary
  0
DICTIONARY
  5
17
102
{ACAD_REACTORS
330
C
102
}
330
C
100
AcDbDictionary
  3
STANDARD
350
18
  0
DICTIONARY
  5
19
102
{ACAD_REACTORS
330
C
102
}
330
C
100
AcDbDictionary
  0
DICTIONARY
  5
16F
102
{ACAD_REACTORS
330
C
102
}
330
C
100
AcDbDictionary
  3
CEPSNTYPE
350
178
  3
DIMSTYLEDATA
350
18E
  3
FINGERPRINTGUID
350
179
  3
HYPERLINKBASE
350
172
  3
INSUNITS
350
177
  3
LAYOUTDICT
350
174
  3
LWETCUNION
350
176
  3
PLOTSETDICT
350
175
  3
PSVPSCALE
350
17B
  3
PUCSBASE
350
17E
  3
PUCSORGBACK
350
184
  3
PUCSORGBOTTOM
350
180
  3
PUCSORGFRONT
350
183
  3
PUCSORGLEFT
350
181
  3
PUCSORGRIGHT
350
182
  3
PUCSORGTOP
350
17F
  3
PUCSORTHOREF
350
17C
  3
PUCSORTHOVIEW
350
17D
  3
STYLESHEET
350
173
  3
TSTACKALIGN
350
170
  3
TSTACKSIZE
350
171
  3
UCSBASE
350
187
  3
UCSORGBACK
350
18D
  3
UCSORGBOTTOM
350
189
  3
UCSORGFRONT
350
18C
  3
UCSORGLEFT
350
18A
  3
UCSORGRIGHT
350
18B
  3
UCSORGTOP
350
188
  3
UCSORTHOREF
350
185
  3
UCSORTHOVIEW
350
186
  3
VERSIONGUID
350
17A
  0
MLINESTYLE
  5
18
102
{ACAD_REACTORS
330
17
102
}
330
17
100
AcDbMlineStyle
  2
Standard
 70
     0
  3

 62
   256
 51
90.0
 52
90.0
 71
     2
 49
0.5
 62
   256
  6
BYLAYER
 49
-0.5
 62
   256
  6
BYLAYER
  0
XRECORD
  5
178
102
{ACAD_REACTORS
330
16F
102
}
330
16F
100
AcDbXrecord
 90
        0
  0
XRECORD
  5
18E
102
{ACAD_REACTORS
330
16F
102
}
330
16F
100
AcDbXrecord
1000
DSTYLE
1002
{
1070
   171
 70
     2
1070
   143
 40
25.4
1070
   274
 70
     2
1070
   141
 40
0.09
1070
   271
 70
     4
1070
    43
 40
0.38
1070
    44
 40
0.18
1070
   278
 70
    46
1070
    42
 40
0.0625
1070
   147
 40
0.09
1070
    77
 70
     3
1070
   272
 70
     4
1070
    73
 70
     1
1070
   172
 70
     0
1070
    74
 70
     1
1070
   283
 70
     1
1070
   340
340
11
1070
   140
 40
0.18
1070
   284
 70
     0
1070
    78
 70
     0
1002
}
  0
XRECORD
  5
179
102
{ACAD_REACTORS
330
16F
102
}
330
16F
100
AcDbXrecord
  1
{144BFDA6-A097-47AE-BC81-30267F0ADD1E}
  0
XRECORD
  5
172
102
{ACAD_REACTORS
330
16F
102
}
330
16F
100
AcDbXrecord
  1

  0
XRECORD
  5
177
102
{ACAD_REACTORS
330
16F
102
}
330
16F
100
AcDbXrecord
 90
        4
  0
XRECORD
  5
174
102
{ACAD_REACTORS
330
16F
102
}
330
16F
100
AcDbXrecord
340
1A
  0
XRECORD
  5
176
102
{ACAD_REACTORS
330
16F
102
}
330
16F
100
AcDbXrecord
 90
    10781
  0
XRECORD
  5
175
102
{ACAD_REACTORS
330
16F
102
}
330
16F
100
AcDbXrecord
340
19
  0
XRECORD
  5
17B
102
{ACAD_REACTORS
330
16F
102
}
330
16F
100
AcDbXrecord
 40
0.0
  0
XRECORD
  5
17E
102
{ACAD_REACTORS
330
16F
102
}
330
16F
100
AcDbXrecord
340
0
  0
XRECORD
  5
184
102
{ACAD_REACTORS
330
16F
102
}
330
16F
100
AcDbXrecord
 10
0.0
 20
0.0
 30
0.0
  0
XRECORD
  5
180
102
{ACAD_REACTORS
330
16F
102
}
330
16F
100
AcDbXrecord
 10
0.0
 20
0.0
 30
0.0
  0
XRECORD
  5
183
102
{ACAD_REACTORS
330
16F
102
}
330
16F
100
AcDbXrecord
 10
0.0
 20
0.0
 30
0.0
  0
XRECORD
  5
181
102
{ACAD_REACTORS
330
16F
102
}
330
16F
100
AcDbXrecord
 10
0.0
 20
0.0
 30
0.0
  0
XRECORD
  5
182
102
{ACAD_REACTORS
330
16F
102
}
330
16F
100
AcDbXrecord
 10
0.0
 20
0.0
 30
0.0
  0
XRECORD
  5
17F
102
{ACAD_REACTORS
330
16F
102
}
330
16F
100
AcDbXrecord
 10
0.0
 20
0.0
 30
0.0
  0
XRECORD
  5
17C
102
{ACAD_REACTORS
330
16F
102
}
330
16F
100
AcDbXrecord
340
0
  0
XRECORD
  5
17D
102
{ACAD_REACTORS
330
16F
102
}
330
16F
100
AcDbXrecord
 70
     0
  0
XRECORD
  5
173
102
{ACAD_REACTORS
330
16F
102
}
330
16F
100
AcDbXrecord
  1

  0
XRECORD
  5
170
102
{ACAD_REACTORS
330
16F
102
}
330
16F
100
AcDbXrecord
 90
        1
  0
XRECORD
  5
171
102
{ACAD_REACTORS
330
16F
102
}
330
16F
100
AcDbXrecord
 90
       70
  0
XRECORD
  5
187
102
{ACAD_REACTORS
330
16F
102
}
330
16F
100
AcDbXrecord
340
0
  0
XRECORD
  5
18D
102
{ACAD_REACTORS
330
16F
102
}
330
16F
100
AcDbXrecord
 10
0.0
 20
0.0
 30
0.0
  0
XRECORD
  5
189
102
{ACAD_REACTORS
330
16F
102
}
330
16F
100
AcDbXrecord
 10
0.0
 20
0.0
 30
0.0
  0
XRECORD
  5
18C
102
{ACAD_REACTORS
330
16F
102
}
330
16F
100
AcDbXrecord
 10
0.0
 20
0.0
 30
0.0
  0
XRECORD
  5
18A
102
{ACAD_REACTORS
330
16F
102
}
330
16F
100
AcDbXrecord
 10
0.0
 20
0.0
 30
0.0
  0
XRECORD
  5
18B
102
{ACAD_REACTORS
330
16F
102
}
330
16F
100
AcDbXrecord
 10
0.0
 20
0.0
 30
0.0
  0
XRECORD
  5
188
102
{ACAD_REACTORS
330
16F
102
}
330
16F
100
AcDbXrecord
 10
0.0
 20
0.0
 30
0.0
  0
XRECORD
  5
185
102
{ACAD_REACTORS
330
16F
102
}
330
16F
100
AcDbXrecord
340
0
  0
XRECORD
  5
186
102
{ACAD_REACTORS
330
16F
102
}
330
16F
100
AcDbXrecord
 70
     0
  0
XRECORD
  5
17A
102
{ACAD_REACTORS
330
16F
102
}
330
16F
100
AcDbXrecord
  1
{FAEB1C32-E019-11D5-929B-00C0DF256EC4}
  0
ENDSEC
  0
EOF
