  0
SECTION
  2
HEADER
  9
$ACADVER
  1
AC1014
  9
$ACADMAINTVER
 70
     9
  9
$DWGCODEPAGE
  3
ANSI_932
  9
$INSBASE
 10
0.0
 20
0.0
 30
0.0
  9
$EXTMIN
 10
-240.8749997604829
 20
-237.9500336647034
 30
0.0
  9
$EXTMAX
 10
352.7499995209658
 20
168.775012254715
 30
0.0
  9
$LIMMIN
 10
-200.0
 20
-141.0
  9
$LIMMAX
 10
200.0
 20
141.0
  9
$ORTHOMODE
 70
     0
  9
$REGENMODE
 70
     1
  9
$FILLMODE
 70
     1
  9
$QTEXTMODE
 70
     0
  9
$MIRRTEXT
 70
     1
  9
$DRAGMODE
 70
     2
  9
$LTSCALE
 40
1.0
  9
$OSMODE
 70
    37
  9
$ATTMODE
 70
     1
  9
$TEXTSIZE
 40
0.2
  9
$TRACEWID
 40
0.05
  9
$TEXTSTYLE
  7
STANDARD
  9
$CLAYER
  8
0
  9
$CELTYPE
  6
BYLAYER
  9
$CECOLOR
 62
   256
  9
$CELTSCALE
 40
1.0
  9
$DELOBJ
 70
     1
  9
$DISPSILH
 70
     0
  9
$DIMSCALE
 40
1.0
  9
$DIMASZ
 40
2.5
  9
$DIMEXO
 40
0.0625
  9
$DIMDLI
 40
0.38
  9
$DIMRND
 40
0.0
  9
$DIMDLE
 40
0.0
  9
$DIMEXE
 40
0.18
  9
$DIMTP
 40
0.0
  9
$DIMTM
 40
0.0
  9
$DIMTXT
 40
0.18
  9
$DIMCEN
 40
0.09
  9
$DIMTSZ
 40
0.0
  9
$DIMTOL
 70
     0
  9
$DIMLIM
 70
     0
  9
$DIMTIH
 70
     1
  9
$DIMTOH
 70
     1
  9
$DIMSE1
 70
     0
  9
$DIMSE2
 70
     0
  9
$DIMTAD
 70
     3
  9
$DIMZIN
 70
     0
  9
$DIMBLK
  1

  9
$DIMASO
 70
     1
  9
$DIMSHO
 70
     1
  9
$DIMPOST
  1

  9
$DIMAPOST
  1

  9
$DIMALT
 70
     0
  9
$DIMALTD
 70
     2
  9
$DIMALTF
 40
25.4
  9
$DIMLFAC
 40
1.0
  9
$DIMTOFL
 70
     0
  9
$DIMTVP
 40
0.0
  9
$DIMTIX
 70
     0
  9
$DIMSOXD
 70
     0
  9
$DIMSAH
 70
     0
  9
$DIMBLK1
  1

  9
$DIMBLK2
  1

  9
$DIMSTYLE
  2
STANDARD
  9
$DIMCLRD
 70
     0
  9
$DIMCLRE
 70
     0
  9
$DIMCLRT
 70
     0
  9
$DIMTFAC
 40
1.0
  9
$DIMGAP
 40
0.09
  9
$DIMJUST
 70
     0
  9
$DIMSD1
 70
     0
  9
$DIMSD2
 70
     0
  9
$DIMTOLJ
 70
     1
  9
$DIMTZIN
 70
     0
  9
$DIMALTZ
 70
     0
  9
$DIMALTTZ
 70
     0
  9
$DIMFIT
 70
     3
  9
$DIMUPT
 70
     0
  9
$DIMUNIT
 70
     2
  9
$DIMDEC
 70
     4
  9
$DIMTDEC
 70
     4
  9
$DIMALTU
 70
     2
  9
$DIMALTTD
 70
     2
  9
$DIMTXSTY
  7
STANDARD
  9
$DIMAUNIT
 70
     0
  9
$LUNITS
 70
     2
  9
$LUPREC
 70
     4
  9
$SKETCHINC
 40
0.1
  9
$FILLETRAD
 40
0.5
  9
$AUNITS
 70
     0
  9
$AUPREC
 70
     0
  9
$MENU
  1
.
  9
$ELEVATION
 40
0.0
  9
$PELEVATION
 40
0.0
  9
$THICKNESS
 40
0.0
  9
$LIMCHECK
 70
     0
  9
$CHAMFERA
 40
0.5
  9
$CHAMFERB
 40
0.5
  9
$CHAMFERC
 40
1.0
  9
$CHAMFERD
 40
0.0
  9
$SKPOLY
 70
     0
  9
$TDCREATE
 40
2454068.486011759
  9
$TDUPDATE
 40
2454068.486011771
  9
$TDINDWG
 40
0.0000000116
  9
$TDUSRTIMER
 40
0.0000000116
  9
$USRTIMER
 70
     1
  9
$ANGBASE
 50
0.0
  9
$ANGDIR
 70
     0
  9
$PDMODE
 70
     0
  9
$PDSIZE
 40
1.0
  9
$PLINEWID
 40
0.0
  9
$COORDS
 70
     1
  9
$SPLFRAME
 70
     0
  9
$SPLINETYPE
 70
     6
  9
$SPLINESEGS
 70
     8
  9
$ATTDIA
 70
     0
  9
$ATTREQ
 70
     1
  9
$HANDLING
 70
     1
  9
$HANDSEED
  5
176
  9
$SURFTAB1
 70
     6
  9
$SURFTAB2
 70
     6
  9
$SURFTYPE
 70
     6
  9
$SURFU
 70
     6
  9
$SURFV
 70
     6
  9
$UCSNAME
  2

  9
$UCSORG
 10
0.0
 20
0.0
 30
0.0
  9
$UCSXDIR
 10
1.0
 20
0.0
 30
0.0
  9
$UCSYDIR
 10
0.0
 20
1.0
 30
0.0
  9
$PUCSNAME
  2

  9
$PUCSORG
 10
0.0
 20
0.0
 30
0.0
  9
$PUCSXDIR
 10
1.0
 20
0.0
 30
0.0
  9
$PUCSYDIR
 10
0.0
 20
1.0
 30
0.0
  9
$USERI1
 70
     0
  9
$USERI2
 70
     0
  9
$USERI3
 70
     0
  9
$USERI4
 70
     0
  9
$USERI5
 70
     0
  9
$USERR1
 40
0.0
  9
$USERR2
 40
0.0
  9
$USERR3
 40
0.0
  9
$USERR4
 40
0.0
  9
$USERR5
 40
0.0
  9
$WORLDVIEW
 70
     1
  9
$SHADEDGE
 70
     3
  9
$SHADEDIF
 70
    70
  9
$TILEMODE
 70
     1
  9
$MAXACTVP
 70
    64
  9
$PINSBASE
 10
0.0
 20
0.0
 30
0.0
  9
$PLIMCHECK
 70
     0
  9
$PEXTMIN
 10
1.000000000000000E+20
 20
1.000000000000000E+20
 30
1.000000000000000E+20
  9
$PEXTMAX
 10
-1.000000000000000E+20
 20
-1.000000000000000E+20
 30
-1.000000000000000E+20
  9
$PLIMMIN
 10
0.0
 20
0.0
  9
$PLIMMAX
 10
12.0
 20
9.0
  9
$UNITMODE
 70
     0
  9
$VISRETAIN
 70
     0
  9
$PLINEGEN
 70
     1
  9
$PSLTSCALE
 70
     0
  9
$TREEDEPTH
 70
  3020
  9
$PICKSTYLE
 70
     1
  9
$CMLSTYLE
  2
STANDARD
  9
$CMLJUST
 70
     0
  9
$CMLSCALE
 40
1.0
  9
$PROXYGRAPHICS
 70
     0
  9
$MEASUREMENT
 70
     1
  0
ENDSEC
  0
SECTION
  2
CLASSES
  0
CLASS
  1
ACDBDICTIONARYWDFLT
  2
AcDbDictionaryWithDefault
  3
ObjectDBX Classes
 90
        0
280
     0
281
     0
  0
CLASS
  1
XRECORD
  2
AcDbXrecord
  3
AutoCAD 2000
 90
        0
280
     0
281
     0
  0
CLASS
  1
LWPOLYLINE
  2
AcDbPolyline
  3
AutoCAD 2000
 90
        0
280
     0
281
     1
  0
CLASS
  1
HATCH
  2
AcDbHatch
  3
AutoCAD 2000
 90
        0
280
     0
281
     1
  0
CLASS
  1
ACDBPLACEHOLDER
  2
AcDbPlaceHolder
  3
ObjectDBX Classes
 90
        0
280
     0
281
     0
  0
CLASS
  1
LAYOUT
  2
AcDbLayout
  3
ObjectDBX Classes
 90
        0
280
     0
281
     0
  0
ENDSEC
  0
SECTION
  2
TABLES
  0
TABLE
  2
VPORT
  5
8
330
0
100
AcDbSymbolTable
 70
     1
  0
VPORT
  5
29
330
8
100
AcDbSymbolTableRecord
100
AcDbViewportTableRecord
  2
*ACTIVE
 70
     0
 10
0.0
 20
0.0
 11
1.0
 21
1.0
 12
0.0
 22
0.0
 13
0.0
 23
0.0
 14
0.5
 24
0.5
 15
0.5
 25
0.5
 16
0.0
 26
0.0
 36
1.0
 17
55.93971418941464
 27
-34.5875107049942
 37
0.0
 40
138.2865156126022
 41
1.459556747469398
 42
50.0
 43
0.0
 44
0.0
 50
0.0
 51
0.0
 71
     0
 72
  1000
 73
     1
 74
     1
 75
     0
 76
     0
 77
     0
 78
     0
  0
ENDTAB
  0
TABLE
  2
LTYPE
  5
5
330
0
100
AcDbSymbolTable
 70
    28
  0
LTYPE
  5
14
330
5
100
AcDbSymbolTableRecord
100
AcDbLinetypeTableRecord
  2
BYBLOCK
 70
     0
  3

 72
    65
 73
     0
 40
0.0
  0
LTYPE
  5
15
330
5
100
AcDbSymbolTableRecord
100
AcDbLinetypeTableRecord
  2
BYLAYER
 70
     0
  3

 72
    65
 73
     0
 40
0.0
  0
LTYPE
  5
16
330
5
100
AcDbSymbolTableRecord
100
AcDbLinetypeTableRecord
  2
CONTINUOUS
 70
     0
  3
Solid line
 72
    65
 73
     0
 40
0.0
  0
LTYPE
  5
2C
330
5
100
AcDbSymbolTableRecord
100
AcDbLinetypeTableRecord
  2
HIDDENX2
 70
     0
  3
CADPAC LINETYPE
 72
    65
 73
     2
 40
7.346189164370969
 49
5.509641873278227
 74
     0
 49
-1.836547291092742
 74
     0
  0
LTYPE
  5
2D
330
5
100
AcDbSymbolTableRecord
100
AcDbLinetypeTableRecord
  2
HIDDEN
 70
     0
  3
CADPAC LINETYPE
 72
    65
 73
     2
 40
5.509641873278227
 49
3.673094582185485
 74
     0
 49
-1.836547291092742
 74
     0
  0
LTYPE
  5
2E
330
5
100
AcDbSymbolTableRecord
100
AcDbLinetypeTableRecord
  2
HIDDEN2
 70
     0
  3
CADPAC LINETYPE
 72
    65
 73
     2
 40
4.591368227731856
 49
2.754820936639113
 74
     0
 49
-1.836547291092742
 74
     0
  0
LTYPE
  5
2F
330
5
100
AcDbSymbolTableRecord
100
AcDbLinetypeTableRecord
  2
DASHED
 70
     0
  3
CADPAC LINETYPE
 72
    65
 73
     2
 40
4.407713498622627
 49
2.203856749311314
 74
     0
 49
-2.203856749311314
 74
     0
  0
LTYPE
  5
30
330
5
100
AcDbSymbolTableRecord
100
AcDbLinetypeTableRecord
  2
DASHED2
 70
     0
  3
CADPAC LINETYPE
 72
    65
 73
     2
 40
2.571166207529871
 49
2.203856749311314
 74
     0
 49
-0.367309458218557
 74
     0
  0
LTYPE
  5
31
330
5
100
AcDbSymbolTableRecord
100
AcDbLinetypeTableRecord
  2
DASHEDX2
 70
     0
  3
CADPAC LINETYPE
 72
    65
 73
     2
 40
2.571166207529871
 49
2.203856749311314
 74
     0
 49
-0.367309458218557
 74
     0
  0
LTYPE
  5
32
330
5
100
AcDbSymbolTableRecord
100
AcDbLinetypeTableRecord
  2
DOTX2
 70
     0
  3
CADPAC LINETYPE
 72
    65
 73
     2
 40
0.4591368227731962
 49
0.0
 74
     0
 49
-0.4591368227731962
 74
     0
  0
LTYPE
  5
33
330
5
100
AcDbSymbolTableRecord
100
AcDbLinetypeTableRecord
  2
DOT
 70
     0
  3
CADPAC LINETYPE
 72
    65
 73
     2
 40
0.367309458218557
 49
0.0
 74
     0
 49
-0.367309458218557
 74
     0
  0
LTYPE
  5
34
330
5
100
AcDbSymbolTableRecord
100
AcDbLinetypeTableRecord
  2
DOT2
 70
     0
  3
CADPAC LINETYPE
 72
    65
 73
     2
 40
0.2754820936639177
 49
0.0
 74
     0
 49
-0.2754820936639177
 74
     0
  0
LTYPE
  5
35
330
5
100
AcDbSymbolTableRecord
100
AcDbLinetypeTableRecord
  2
CENTERX2
 70
     0
  3
CADPAC LINETYPE
 72
    65
 73
     4
 40
11.01928374655645
 49
4.591368227731856
 74
     0
 49
-2.295684113865928
 74
     0
 49
1.836547291092742
 74
     0
 49
-2.295684113865928
 74
     0
  0
LTYPE
  5
36
330
5
100
AcDbSymbolTableRecord
100
AcDbLinetypeTableRecord
  2
CENTER
 70
     0
  3
CADPAC LINETYPE
 72
    65
 73
     4
 40
8.448117539026615
 49
3.673094582185485
 74
     0
 49
-1.836547291092742
 74
     0
 49
1.101928374655645
 74
     0
 49
-1.836547291092742
 74
     0
  0
LTYPE
  5
37
330
5
100
AcDbSymbolTableRecord
100
AcDbLinetypeTableRecord
  2
CENTER2
 70
     0
  3
CADPAC LINETYPE
 72
    65
 73
     4
 40
5.876951331496775
 49
2.754820936639113
 74
     0
 49
-1.377410468319557
 74
     0
 49
0.3673094582185485
 74
     0
 49
-1.377410468319557
 74
     0
  0
LTYPE
  5
38
330
5
100
AcDbSymbolTableRecord
100
AcDbLinetypeTableRecord
  2
DASHDOTX2
 70
     0
  3
CADPAC LINETYPE
 72
    65
 73
     4
 40
5.142332415059713
 49
4.407713498622599
 74
     0
 49
-0.367309458218557
 74
     0
 49
0.0
 74
     0
 49
-0.367309458218557
 74
     0
  0
LTYPE
  5
39
330
5
100
AcDbSymbolTableRecord
100
AcDbLinetypeTableRecord
  2
DASHDOT
 70
     0
  3
CADPAC LINETYPE
 72
    65
 73
     4
 40
6.244260789715384
 49
4.407713498622599
 74
     0
 49
-0.367309458218557
 74
     0
 49
1.101928374655671
 74
     0
 49
-0.367309458218557
 74
     0
  0
LTYPE
  5
3A
330
5
100
AcDbSymbolTableRecord
100
AcDbLinetypeTableRecord
  2
DASHDOT2
 70
     0
  3
CADPAC LINETYPE
 72
    65
 73
     4
 40
3.966942148760352
 49
3.305785123966949
 74
     0
 49
-0.2754820936639177
 74
     0
 49
0.1101928374655671
 74
     0
 49
-0.2754820936639177
 74
     0
  0
LTYPE
  5
3B
330
5
100
AcDbSymbolTableRecord
100
AcDbLinetypeTableRecord
  2
DIVIDEX2
 70
     0
  3
CADPAC LINETYPE
 72
    65
 73
     6
 40
5.50964187327827
 49
4.407713498622599
 74
     0
 49
-0.367309458218557
 74
     0
 49
0.0
 74
     0
 49
-0.367309458218557
 74
     0
 49
0.0
 74
     0
 49
-0.367309458218557
 74
     0
  0
LTYPE
  5
3C
330
5
100
AcDbSymbolTableRecord
100
AcDbLinetypeTableRecord
  2
DIVIDE
 70
     0
  3
CADPAC LINETYPE
 72
    65
 73
     6
 40
7.713498622589611
 49
4.407713498622599
 74
     0
 49
-0.367309458218557
 74
     0
 49
1.101928374655671
 74
     0
 49
-0.367309458218557
 74
     0
 49
1.101928374655671
 74
     0
 49
-0.367309458218557
 74
     0
  0
LTYPE
  5
3D
330
5
100
AcDbSymbolTableRecord
100
AcDbLinetypeTableRecord
  2
DIVIDE2
 70
     0
  3
CADPAC LINETYPE
 72
    65
 73
     6
 40
5.785123966942209
 49
3.305785123966949
 74
     0
 49
-0.2754820936639177
 74
     0
 49
0.8264462809917532
 74
     0
 49
-0.2754820936639177
 74
     0
 49
0.8264462809917532
 74
     0
 49
-0.2754820936639177
 74
     0
  0
LTYPE
  5
3E
330
5
100
AcDbSymbolTableRecord
100
AcDbLinetypeTableRecord
  2
BORDERX2
 70
     0
  3
CADPAC LINETYPE
 72
    65
 73
     6
 40
16.0697887970615
 49
4.591368227731856
 74
     0
 49
-2.295684113865928
 74
     0
 49
4.591368227731856
 74
     0
 49
-2.295684113865928
 74
     0
 49
0.0
 74
     0
 49
-2.295684113865928
 74
     0
  0
LTYPE
  5
3F
330
5
100
AcDbSymbolTableRecord
100
AcDbLinetypeTableRecord
  2
BORDER
 70
     0
  3
CADPAC LINETYPE
 72
    65
 73
     6
 40
12.8558310376492
 49
3.673094582185485
 74
     0
 49
-1.836547291092742
 74
     0
 49
3.673094582185485
 74
     0
 49
-1.836547291092742
 74
     0
 49
0.0
 74
     0
 49
-1.836547291092742
 74
     0
  0
LTYPE
  5
40
330
5
100
AcDbSymbolTableRecord
100
AcDbLinetypeTableRecord
  2
BORDER2
 70
     0
  3
CADPAC LINETYPE
 72
    65
 73
     6
 40
4.77502295684117
 49
2.203856749311314
 74
     0
 49
-0.367309458218557
 74
     0
 49
0.0
 74
     0
 49
-0.367309458218557
 74
     0
 49
0.0
 74
     0
 49
-1.836547291092742
 74
     0
  0
LTYPE
  5
41
330
5
100
AcDbSymbolTableRecord
100
AcDbLinetypeTableRecord
  2
PHANTOMX2
 70
     0
  3
CADPAC LINETYPE
 72
    65
 73
     6
 40
13.77410468319557
 49
4.591368227731856
 74
     0
 49
-1.836547291092742
 74
     0
 49
1.836547291092742
 74
     0
 49
-1.836547291092742
 74
     0
 49
1.836547291092742
 74
     0
 49
-1.836547291092742
 74
     0
  0
LTYPE
  5
42
330
5
100
AcDbSymbolTableRecord
100
AcDbLinetypeTableRecord
  2
PHANTOM
 70
     0
  3
CADPAC LINETYPE
 72
    65
 73
     6
 40
11.386593204775
 49
3.673094582185485
 74
     0
 49
-1.836547291092742
 74
     0
 49
1.101928374655645
 74
     0
 49
-1.836547291092742
 74
     0
 49
1.101928374655645
 74
     0
 49
-1.836547291092742
 74
     0
  0
LTYPE
  5
43
330
5
100
AcDbSymbolTableRecord
100
AcDbLinetypeTableRecord
  2
PHANTOM2
 70
     0
  3
CADPAC LINETYPE
 72
    65
 73
     6
 40
9.733700642791535
 49
2.754820936639113
 74
     0
 49
-1.836547291092742
 74
     0
 49
0.734618916437097
 74
     0
 49
-1.836547291092742
 74
     0
 49
0.734618916437097
 74
     0
 49
-1.836547291092742
 74
     0
  0
LTYPE
  5
44
330
5
100
AcDbSymbolTableRecord
100
AcDbLinetypeTableRecord
  2
ACAD_ISO06W100
 70
     0
  3
CADPAC LINETYPE
 72
    65
 73
     8
 40
5.876951331496827
 49
4.407713498622599
 74
     0
 49
-0.367309458218557
 74
     0
 49
0.0
 74
     0
 49
-0.367309458218557
 74
     0
 49
0.0
 74
     0
 49
-0.367309458218557
 74
     0
 49
0.0
 74
     0
 49
-0.367309458218557
 74
     0
  0
LTYPE
  5
45
330
5
100
AcDbSymbolTableRecord
100
AcDbLinetypeTableRecord
  2
ACAD_ISO13W100
 70
     0
  3
CADPAC LINETYPE
 72
    65
 73
     8
 40
14.69237832874194
 49
3.673094582185485
 74
     0
 49
-1.836547291092742
 74
     0
 49
3.673094582185485
 74
     0
 49
-1.836547291092742
 74
     0
 49
0.0
 74
     0
 49
-1.836547291092742
 74
     0
 49
0.0
 74
     0
 49
-1.836547291092742
 74
     0
  0
LTYPE
  5
46
330
5
100
AcDbSymbolTableRecord
100
AcDbLinetypeTableRecord
  2
ACAD_ISO14W100
 70
     0
  3
CADPAC LINETYPE
 72
    65
 73
     8
 40
11.01928374655645
 49
3.673094582185485
 74
     0
 49
-1.836547291092742
 74
     0
 49
0.0
 74
     0
 49
-1.836547291092742
 74
     0
 49
0.0
 74
     0
 49
-1.836547291092742
 74
     0
 49
0.0
 74
     0
 49
-1.836547291092742
 74
     0
  0
ENDTAB
  0
TABLE
  2
LAYER
  5
2
330
0
100
AcDbSymbolTable
 70
     1
  0
LAYER
  5
10
330
2
100
AcDbSymbolTableRecord
100
AcDbLayerTableRecord
  2
0
 70
     0
 62
     7
  6
CONTINUOUS
  0
ENDTAB
  0
TABLE
  2
STYLE
  5
3
330
0
100
AcDbSymbolTable
 70
     2
  0
STYLE
  5
11
330
3
100
AcDbSymbolTableRecord
100
AcDbTextStyleTableRecord
  2
STANDARD
 70
     0
 40
0.0
 41
1.0
 50
0.0
 71
     0
 42
0.2
  3
txt
  4

  0
STYLE
  5
154
330
3
100
AcDbSymbolTableRecord
100
AcDbTextStyleTableRecord
  2
FDASTYLE0
 70
     0
 40
4.150000095367432
 41
0.6600000138340222
 50
0.0
 71
     0
 42
0.2
  3
txt.shx
  4
bigfont
  0
ENDTAB
  0
TABLE
  2
VIEW
  5
6
330
0
100
AcDbSymbolTable
 70
     0
  0
ENDTAB
  0
TABLE
  2
UCS
  5
7
330
0
100
AcDbSymbolTable
 70
     0
  0
ENDTAB
  0
TABLE
  2
APPID
  5
9
330
0
100
AcDbSymbolTable
 70
     2
  0
APPID
  5
12
330
9
100
AcDbSymbolTableRecord
100
AcDbRegAppTableRecord
  2
ACAD
 70
     0
  0
APPID
  5
2A
330
9
100
AcDbSymbolTableRecord
100
AcDbRegAppTableRecord
  2
DAFUSIONOUT
 70
     0
  0
ENDTAB
  0
TABLE
  2
DIMSTYLE
  5
A
330
0
100
AcDbSymbolTable
 70
     1
  0
DIMSTYLE
105
27
330
A
100
AcDbSymbolTableRecord
100
AcDbDimStyleTableRecord
  2
STANDARD
 70
     0
  3

  4

  5

  6

  7

 40
1.0
 41
0.18
 42
0.0625
 43
0.38
 44
0.18
 45
0.0
 46
0.0
 47
0.0
 48
0.0
140
0.18
141
0.09
142
0.0
143
25.4
144
1.0
145
0.0
146
1.0
147
0.09
 71
     0
 72
     0
 73
     1
 74
     1
 75
     0
 76
     0
 77
     0
 78
     0
170
     0
171
     2
172
     0
173
     0
174
     0
175
     0
176
     0
177
     0
178
     0
270
     2
271
     4
272
     4
273
     2
274
     2
340
11
275
     0
280
     0
281
     0
282
     0
283
     1
284
     0
285
     0
286
     0
287
     3
288
     0
  0
ENDTAB
  0
TABLE
  2
BLOCK_RECORD
  5
1
330
0
100
AcDbSymbolTable
 70
     1
  0
BLOCK_RECORD
  5
1F
330
1
100
AcDbSymbolTableRecord
100
AcDbBlockTableRecord
  2
*MODEL_SPACE
  0
BLOCK_RECORD
  5
1B
330
1
100
AcDbSymbolTableRecord
100
AcDbBlockTableRecord
  2
*PAPER_SPACE
  0
ENDTAB
  0
ENDSEC
  0
SECTION
  2
BLOCKS
  0
BLOCK
  5
20
330
1F
100
AcDbEntity
  8
0
100
AcDbBlockBegin
  2
*MODEL_SPACE
 70
     0
 71
     0
 10
0.0
 20
0.0
 30
0.0
  3
*MODEL_SPACE
  1

  0
ENDBLK
  5
21
330
1F
100
AcDbEntity
  8
0
100
AcDbBlockEnd
  0
BLOCK
  5
1C
330
1B
100
AcDbEntity
 67
     1
  8
0
100
AcDbBlockBegin
  2
*PAPER_SPACE
 70
     0
 71
     0
 10
0.0
 20
0.0
 30
0.0
  3
*PAPER_SPACE
  1

  0
ENDBLK
  5
1D
330
1B
100
AcDbEntity
 67
     1
  8
0
100
AcDbBlockEnd
  0
ENDSEC
  0
SECTION
  2
ENTITIES
  0
LINE
  5
47
330
1F
100
AcDbEntity
  8
0
  6
DASHED
 62
     7
100
AcDbLine
 10
-10.28654479980469
 20
27.19999694824219
 30
0.0
 11
-6.313430786132813
 21
27.19999694824219
 31
0.0
  0
LINE
  5
48
330
1F
100
AcDbEntity
  8
0
  6
DASHED
 62
     7
100
AcDbLine
 10
-11.8999938964844
 20
17.30000305175781
 30
0.0
 11
-11.8999938964844
 21
17.2799987792969
 31
0.0
  0
LINE
  5
49
330
1F
100
AcDbEntity
  8
0
  6
DASHED
 62
     7
100
AcDbLine
 10
-4.699981689453097
 20
17.30000305175781
 30
0.0
 11
-4.699981689453097
 21
17.2799987792969
 31
0.0
  0
LINE
  5
4A
330
1F
100
AcDbEntity
  8
0
  6
DASHED
 62
     7
100
AcDbLine
 10
-20.71345520019531
 20
27.19999694824219
 30
0.0
 11
-24.68656921386719
 21
27.19999694824219
 31
0.0
  0
LINE
  5
4B
330
1F
100
AcDbEntity
  8
0
  6
DASHED
 62
     7
100
AcDbLine
 10
-19.1000061035156
 20
17.30000305175781
 30
0.0
 11
-19.1000061035156
 21
17.2799987792969
 31
0.0
  0
LINE
  5
4C
330
1F
100
AcDbEntity
  8
0
  6
DASHED
 62
     7
100
AcDbLine
 10
-26.3000183105469
 20
17.30000305175781
 30
0.0
 11
-26.3000183105469
 21
17.2799987792969
 31
0.0
  0
LINE
  5
4D
330
1F
100
AcDbEntity
  8
0
  6
DASHED
 62
     7
100
AcDbLine
 10
-26.72999572753906
 20
28.00999450683594
 30
0.0
 11
-26.72999572753906
 21
21.28999328613281
 31
0.0
  0
LINE
  5
4E
330
1F
100
AcDbEntity
  8
0
  6
DASHED
 62
     7
100
AcDbLine
 10
-24.93000793457031
 20
29.80999755859375
 30
0.0
 11
-20.44999694824219
 21
29.80999755859375
 31
0.0
  0
LINE
  5
4F
330
1F
100
AcDbEntity
  8
0
  6
DASHED
 62
     7
100
AcDbLine
 10
-18.65000152587891
 20
28.00999450683594
 30
0.0
 11
-18.65000152587891
 21
21.28999328613281
 31
0.0
  0
LINE
  5
50
330
1F
100
AcDbEntity
  8
0
  6
DASHED
 62
     7
100
AcDbLine
 10
-12.34999847412109
 20
28.00999450683594
 30
0.0
 11
-12.34999847412109
 21
21.28999328613281
 31
0.0
  0
LINE
  5
51
330
1F
100
AcDbEntity
  8
0
  6
DASHED
 62
     7
100
AcDbLine
 10
-4.269996643066406
 20
28.00999450683594
 30
0.0
 11
-4.269996643066406
 21
21.28999328613281
 31
0.0
  0
LINE
  5
52
330
1F
100
AcDbEntity
  8
0
  6
DASHED
 62
     7
100
AcDbLine
 10
-6.069999694824219
 20
29.80999755859375
 30
0.0
 11
-10.55000305175781
 21
29.80999755859375
 31
0.0
  0
ARC
  5
53
330
1F
100
AcDbEntity
  8
0
  6
DASHED
 62
     7
100
AcDbCircle
 10
1.600006103515597
 20
20.80000305175781
 30
0.0
 40
13.5
100
AcDbArc
 50
151.7009739944628
 51
179.9999640278214
  0
ARC
  5
54
330
1F
100
AcDbEntity
  8
0
  6
DASHED
 62
     7
100
AcDbCircle
 10
-18.1999816894531
 20
20.80000305175781
 30
0.0
 40
13.5
100
AcDbArc
 50
0.0
 51
28.29899003335859
  0
ARC
  5
55
330
1F
100
AcDbEntity
  8
0
  6
DASHED
 62
     7
100
AcDbCircle
 10
-32.6000061035156
 20
20.80000305175781
 30
0.0
 40
13.5
100
AcDbArc
 50
0.0
 51
28.29899003335859
  0
ARC
  5
56
330
1F
100
AcDbEntity
  8
0
  6
DASHED
 62
     7
100
AcDbCircle
 10
-12.8000183105469
 20
20.80000305175781
 30
0.0
 40
13.5
100
AcDbArc
 50
151.7009739944628
 51
179.9999640278214
  0
ARC
  5
57
330
1F
100
AcDbEntity
  8
0
  6
DASHED
 62
     7
100
AcDbCircle
 10
-24.93000793457031
 20
28.00999450683594
 30
0.0
 40
1.799999952316284
100
AcDbArc
 50
89.99998201391068
 51
179.9999640278213
  0
ARC
  5
58
330
1F
100
AcDbEntity
  8
0
  6
DASHED
 62
     7
100
AcDbCircle
 10
-20.44999694824219
 20
28.00999450683594
 30
0.0
 40
1.799999952316284
100
AcDbArc
 50
0.0
 51
89.99998201391068
  0
ARC
  5
59
330
1F
100
AcDbEntity
  8
0
  6
DASHED
 62
     7
100
AcDbCircle
 10
-10.55000305175781
 20
28.00999450683594
 30
0.0
 40
1.799999952316284
100
AcDbArc
 50
89.99998201391068
 51
179.9999640278213
  0
ARC
  5
5A
330
1F
100
AcDbEntity
  8
0
  6
DASHED
 62
     7
100
AcDbCircle
 10
-6.069999694824219
 20
28.00999450683594
 30
0.0
 40
1.799999952316284
100
AcDbArc
 50
0.0
 51
89.99998201391068
  0
LINE
  5
5B
330
1F
100
AcDbEntity
  8
0
 62
     7
100
AcDbLine
 10
-38.6000061035156
 20
20.69999694824219
 30
0.0
 11
-33.6000061035156
 21
20.69999694824219
 31
0.0
  0
LINE
  5
5C
330
1F
100
AcDbEntity
  8
0
 62
     7
100
AcDbLine
 10
-38.6000061035156
 20
5.464996337890597
 30
0.0
 11
-33.6000061035156
 21
5.464996337890597
 31
0.0
  0
LINE
  5
5D
330
1F
100
AcDbEntity
  8
0
 62
     7
100
AcDbLine
 10
2.600006103515597
 20
20.69999694824219
 30
0.0
 11
7.600006103515597
 21
20.69999694824219
 31
0.0
  0
LINE
  5
5E
330
1F
100
AcDbEntity
  8
0
 62
     7
100
AcDbLine
 10
2.600006103515597
 20
5.464996337890597
 30
0.0
 11
7.600006103515597
 21
5.464996337890597
 31
0.0
  0
LINE
  5
5F
330
1F
100
AcDbEntity
  8
0
 62
     7
100
AcDbLine
 10
-31.5
 20
19.78999328613281
 30
0.0
 11
-31.5
 21
16.69999694824219
 31
0.0
  0
LINE
  5
60
330
1F
100
AcDbEntity
  8
0
 62
     7
100
AcDbLine
 10
-26.72999572753909
 20
19.78999328613281
 30
0.0
 11
-26.72999572753909
 21
16.69999694824219
 31
0.0
  0
LINE
  5
61
330
1F
100
AcDbEntity
  8
0
 62
     7
100
AcDbLine
 10
-4.269989013671903
 20
19.78999328613281
 30
0.0
 11
-4.269989013671903
 21
16.69999694824219
 31
0.0
  0
LINE
  5
62
330
1F
100
AcDbEntity
  8
0
 62
     7
100
AcDbLine
 10
0.5
 20
19.78999328613281
 30
0.0
 11
0.5
 21
16.69999694824219
 31
0.0
  0
LINE
  5
63
330
1F
100
AcDbEntity
  8
0
 62
     7
100
AcDbLine
 10
-41.1000061035156
 20
5.464996337890597
 30
0.0
 11
-41.1000061035156
 21
-18.1000061035156
 31
0.0
  0
LINE
  5
64
330
1F
100
AcDbEntity
  8
0
 62
     7
100
AcDbLine
 10
-39.90000915527341
 20
-19.3000030517578
 30
0.0
 11
-32.1000061035156
 21
-19.3000030517578
 31
0.0
  0
LINE
  5
65
330
1F
100
AcDbEntity
  8
0
 62
     7
100
AcDbLine
 10
10.1000061035156
 20
5.464996337890597
 30
0.0
 11
10.1000061035156
 21
-18.1000061035156
 31
0.0
  0
LINE
  5
66
330
1F
100
AcDbEntity
  8
0
 62
     7
100
AcDbLine
 10
8.900009155273409
 20
-19.3000030517578
 30
0.0
 11
1.100006103515597
 21
-19.3000030517578
 31
0.0
  0
LINE
  5
67
330
1F
100
AcDbEntity
  8
0
 62
     7
100
AcDbLine
 10
-32.1000061035156
 20
-19.3000030517578
 30
0.0
 11
-32.1000061035156
 21
0.6999969482421875
 31
0.0
  0
LINE
  5
68
330
1F
100
AcDbEntity
  8
0
 62
     7
100
AcDbLine
 10
1.100006103515597
 20
-19.3000030517578
 30
0.0
 11
1.100006103515597
 21
0.6999969482421875
 31
0.0
  0
LINE
  5
69
330
1F
100
AcDbEntity
  8
0
 62
     7
100
AcDbLine
 10
-29.29998779296881
 20
-30.19000244140619
 30
0.0
 11
-15.5
 21
-30.19000244140619
 31
0.0
  0
LINE
  5
6A
330
1F
100
AcDbEntity
  8
0
 62
     7
100
AcDbLine
 10
-31.5
 20
-27.99000549316411
 30
0.0
 11
-31.5
 21
0.6999969482421875
 31
0.0
  0
LINE
  5
6B
330
1F
100
AcDbEntity
  8
0
 62
     7
100
AcDbLine
 10
-1.699996948242188
 20
-30.19000244140619
 30
0.0
 11
-15.5
 21
-30.19000244140619
 31
0.0
  0
LINE
  5
6C
330
1F
100
AcDbEntity
  8
0
 62
     7
100
AcDbLine
 10
0.5
 20
-27.99000549316411
 30
0.0
 11
0.5
 21
0.6999969482421875
 31
0.0
  0
LINE
  5
6D
330
1F
100
AcDbEntity
  8
0
 62
     7
100
AcDbLine
 10
-31.6000061035156
 20
-15.8000030517578
 30
0.0
 11
-31.5
 21
-15.8000030517578
 31
0.0
  0
LINE
  5
6E
330
1F
100
AcDbEntity
  8
0
 62
     7
100
AcDbLine
 10
0.5
 20
-15.8000030517578
 30
0.0
 11
0.6000061035155966
 21
-15.8000030517578
 31
0.0
  0
LINE
  5
6F
330
1F
100
AcDbEntity
  8
0
 62
     7
100
AcDbLine
 10
-41.10000975692111
 20
-18.10000553409741
 30
0.0
 11
-39.90001277831391
 21
-19.30000251270461
 31
0.0
  0
LINE
  5
70
330
1F
100
AcDbEntity
  8
0
 62
     7
100
AcDbLine
 10
10.10001418289264
 20
-18.10001092889399
 30
0.0
 11
8.900017204285319
 21
-19.3000079075013
 31
0.0
  0
LINE
  5
71
330
1F
100
AcDbEntity
  8
0
 62
     7
100
AcDbLine
 10
-39.90000915527341
 20
-19.3000030517578
 30
0.0
 11
-39.90000915527341
 21
0.6999969482421875
 31
0.0
  0
LINE
  5
72
330
1F
100
AcDbEntity
  8
0
 62
     7
100
AcDbLine
 10
8.9000244140625
 20
-19.3000106811523
 30
0.0
 11
8.9000244140625
 21
0.6999969482421875
 31
0.0
  0
LINE
  5
73
330
1F
100
AcDbEntity
  8
0
 62
     7
100
AcDbLine
 10
-19.1000061035156
 20
5.464996337890597
 30
0.0
 11
-19.1000061035156
 21
0.6999969482421875
 31
0.0
  0
LINE
  5
74
330
1F
100
AcDbEntity
  8
0
 62
     7
100
AcDbLine
 10
-11.8999938964844
 20
5.464996337890597
 30
0.0
 11
-11.8999938964844
 21
0.6999969482421875
 31
0.0
  0
LINE
  5
75
330
1F
100
AcDbEntity
  8
0
 62
     7
100
AcDbLine
 10
84.28762258590459
 20
23.55639474584439
 30
0.0
 11
85.18581847664248
 21
20.79203913566212
 31
0.0
  0
LINE
  5
76
330
1F
100
AcDbEntity
  8
0
 62
     7
100
AcDbLine
 10
85.49112127481459
 20
22.20059842812856
 30
0.0
 11
84.49744457067449
 21
26.87548633406772
 31
0.0
  0
LINE
  5
77
330
1F
100
AcDbEntity
  8
0
 62
     7
100
AcDbLine
 10
96.55512831255714
 20
23.64154458273376
 30
0.0
 11
95.45259752409623
 21
20.24829687557877
 31
0.0
  0
LINE
  5
78
330
1F
100
AcDbEntity
  8
0
 62
     7
100
AcDbLine
 10
-13.80000305175781
 20
-12.93043518066409
 30
0.0
 11
-13.80000305175781
 21
-11.06292724609369
 31
0.0
  0
LINE
  5
79
330
1F
100
AcDbEntity
  8
0
 62
     7
100
AcDbLine
 10
-2.800003051757813
 20
-12.93043518066409
 30
0.0
 11
-2.800003051757813
 21
-11.06292724609369
 31
0.0
  0
LINE
  5
7A
330
1F
100
AcDbEntity
  8
0
 62
     7
100
AcDbLine
 10
-13.80000305175781
 20
-25.181022644043
 30
0.0
 11
-13.80000305175781
 21
-24.04632568359369
 31
0.0
  0
LINE
  5
7B
330
1F
100
AcDbEntity
  8
0
 62
     7
100
AcDbLine
 10
-2.800003051757813
 20
-25.181022644043
 30
0.0
 11
-2.800003051757813
 21
-24.04632568359369
 31
0.0
  0
LINE
  5
7C
330
1F
100
AcDbEntity
  8
0
 62
     7
100
AcDbLine
 10
-17.19999694824219
 20
-12.93043518066409
 30
0.0
 11
-17.19999694824219
 21
-11.06292724609369
 31
0.0
  0
LINE
  5
7D
330
1F
100
AcDbEntity
  8
0
 62
     7
100
AcDbLine
 10
-28.19999694824219
 20
-12.93043518066409
 30
0.0
 11
-28.19999694824219
 21
-11.06292724609369
 31
0.0
  0
LINE
  5
7E
330
1F
100
AcDbEntity
  8
0
 62
     7
100
AcDbLine
 10
-28.19999694824219
 20
-25.181022644043
 30
0.0
 11
-28.19999694824219
 21
-24.04632568359369
 31
0.0
  0
LINE
  5
7F
330
1F
100
AcDbEntity
  8
0
 62
     7
100
AcDbLine
 10
-17.19999694824219
 20
-25.181022644043
 30
0.0
 11
-17.19999694824219
 21
-24.04632568359369
 31
0.0
  0
LINE
  5
80
330
1F
100
AcDbEntity
  8
0
 62
     7
100
AcDbLine
 10
-28.19999694824219
 20
-11.06292724609369
 30
0.0
 11
-17.19999694824219
 21
-11.06292724609369
 31
0.0
  0
LINE
  5
81
330
1F
100
AcDbEntity
  8
0
 62
     7
100
AcDbLine
 10
-29.30000305175781
 20
-12.93043518066409
 30
0.0
 11
-28.19999694824219
 21
-12.93043518066409
 31
0.0
  0
LINE
  5
82
330
1F
100
AcDbEntity
  8
0
 62
     7
100
AcDbLine
 10
-28.19999694824219
 20
-24.04632568359369
 30
0.0
 11
-17.19999694824219
 21
-24.04632568359369
 31
0.0
  0
LINE
  5
83
330
1F
100
AcDbEntity
  8
0
 62
     7
100
AcDbLine
 10
-29.30000305175781
 20
-25.181022644043
 30
0.0
 11
-28.19999694824219
 21
-25.181022644043
 31
0.0
  0
LINE
  5
84
330
1F
100
AcDbEntity
  8
0
 62
     7
100
AcDbLine
 10
-13.80000305175781
 20
-11.06292724609369
 30
0.0
 11
-2.800003051757813
 21
-11.06292724609369
 31
0.0
  0
LINE
  5
85
330
1F
100
AcDbEntity
  8
0
 62
     7
100
AcDbLine
 10
-17.19999694824219
 20
-12.93043518066409
 30
0.0
 11
-13.80000305175781
 21
-12.93043518066409
 31
0.0
  0
LINE
  5
86
330
1F
100
AcDbEntity
  8
0
 62
     7
100
AcDbLine
 10
-2.800003051757813
 20
-12.93043518066409
 30
0.0
 11
-1.699996948242188
 21
-12.93043518066409
 31
0.0
  0
LINE
  5
87
330
1F
100
AcDbEntity
  8
0
 62
     7
100
AcDbLine
 10
-13.80000305175781
 20
-24.04632568359369
 30
0.0
 11
-2.800003051757813
 21
-24.04632568359369
 31
0.0
  0
LINE
  5
88
330
1F
100
AcDbEntity
  8
0
 62
     7
100
AcDbLine
 10
-17.19999694824219
 20
-25.181022644043
 30
0.0
 11
-13.80000305175781
 21
-25.181022644043
 31
0.0
  0
LINE
  5
89
330
1F
100
AcDbEntity
  8
0
 62
     7
100
AcDbLine
 10
-2.800003051757813
 20
-25.181022644043
 30
0.0
 11
-1.699996948242188
 21
-25.181022644043
 31
0.0
  0
LINE
  5
8A
330
1F
100
AcDbEntity
  8
0
 62
     7
100
AcDbLine
 10
96.41415337449999
 20
23.10040832553761
 30
0.0
 11
95.80983601530268
 21
20.25730819943271
 31
0.0
  0
LINE
  5
8B
330
1F
100
AcDbEntity
  8
0
 62
     7
100
AcDbLine
 10
106.6880264957769
 20
16.64223905750339
 30
0.0
 11
104.7431299684751
 21
14.4822092501305
 31
0.0
  0
LINE
  5
8C
330
1F
100
AcDbEntity
  8
0
 62
     7
100
AcDbLine
 10
96.7785099782389
 20
21.32450085273081
 30
0.0
 11
98.25540469334069
 21
25.86991088109477
 31
0.0
  0
LINE
  5
8D
330
1F
100
AcDbEntity
  8
0
 62
     7
100
AcDbLine
 10
107.0806910580972
 20
17.04040239817621
 30
0.0
 11
104.4292474828768
 21
14.65302913263119
 31
0.0
  0
LINE
  5
8E
330
1F
100
AcDbEntity
  8
0
 62
     7
100
AcDbLine
 10
112.3563932038401
 20
5.912369465679461
 30
0.0
 11
109.5920484776333
 21
5.014177111368582
 31
0.0
  0
LINE
  5
8F
330
1F
100
AcDbEntity
  8
0
 62
     7
100
AcDbLine
 10
106.1156264782863
 20
14.92207910390599
 30
0.0
 11
109.6673597755511
 21
18.12007236696149
 31
0.0
  0
LINE
  5
90
330
1F
100
AcDbEntity
  8
0
 62
     7
100
AcDbLine
 10
112.8955263274445
 20
6.060852910264742
 30
0.0
 11
109.4056222093988
 21
5.319048765988839
 31
0.0
  0
LINE
  5
91
330
1F
100
AcDbEntity
  8
0
 62
     7
100
AcDbLine
 10
111.9004052765507
 20
-6.214150379088352
 30
0.0
 11
109.057312613121
 21
-5.609834606125759
 31
0.0
  0
LINE
  5
92
330
1F
100
AcDbEntity
  8
0
 62
     7
100
AcDbLine
 10
111.0005975265189
 20
4.708866359586494
 30
0.0
 11
115.6754854324581
 21
5.702543063726495
 31
0.0
  0
LINE
  5
93
330
1F
100
AcDbEntity
  8
0
 62
     7
100
AcDbLine
 10
112.4415474981232
 20
-6.35512550176847
 30
0.0
 11
109.0482925349815
 21
-5.252592355699363
 31
0.0
  0
LINE
  5
94
330
1F
100
AcDbEntity
  8
0
 62
     7
100
AcDbLine
 10
94.71237762884161
 20
-22.15639398783721
 30
0.0
 11
93.8141864533398
 21
-19.39205288962209
 31
0.0
  0
LINE
  5
95
330
1F
100
AcDbEntity
  8
0
 62
     7
100
AcDbLine
 10
103.7220800634813
 20
-15.91562654336478
 30
0.0
 11
106.9200733265368
 21
-19.46735984062948
 31
0.0
  0
LINE
  5
96
330
1F
100
AcDbEntity
  8
0
 62
     7
100
AcDbLine
 10
94.86085887090802
 20
-22.69553198795042
 30
0.0
 11
94.11905472663202
 21
-19.20562786990472
 31
0.0
  0
LINE
  5
97
330
1F
100
AcDbEntity
  8
0
 62
     7
100
AcDbLine
 10
105.4422433266429
 20
-16.48803096427224
 30
0.0
 11
103.2822163541445
 21
-14.54313698949893
 31
0.0
  0
LINE
  5
98
330
1F
100
AcDbEntity
  8
0
 62
     7
100
AcDbLine
 10
93.5088742726311
 20
-20.8005963187489
 30
0.0
 11
94.50255097677122
 21
-25.47548422468815
 31
0.0
  0
LINE
  5
99
330
1F
100
AcDbEntity
  8
0
 62
     7
100
AcDbLine
 10
82.44488231199954
 20
-22.24155430092972
 30
0.0
 11
83.54741310046033
 21
-18.84830659377471
 31
0.0
  0
LINE
  5
9A
330
1F
100
AcDbEntity
  8
0
 62
     7
100
AcDbLine
 10
82.22148284427111
 20
-19.9245002329484
 30
0.0
 11
80.7445881291693
 21
-24.46991026131242
 31
0.0
  0
LINE
  5
9B
330
1F
100
AcDbEntity
  8
0
 62
     7
100
AcDbLine
 10
72.31197103468479
 20
-15.24225601741568
 30
0.0
 11
74.2568688382509
 21
-13.08222479260559
 31
0.0
  0
LINE
  5
9C
330
1F
100
AcDbEntity
  8
0
 62
     7
100
AcDbLine
 10
71.91931298005241
 20
-15.64039990646629
 30
0.0
 11
74.57075620091401
 21
-13.25302695998781
 31
0.0
  0
LINE
  5
9D
330
1F
100
AcDbEntity
  8
0
 62
     7
100
AcDbLine
 10
67.09959149740467
 20
7.614141498136718
 30
0.0
 11
69.94269162350949
 21
7.009824138939337
 31
0.0
  0
LINE
  5
9E
330
1F
100
AcDbEntity
  8
0
 62
     7
100
AcDbLine
 10
67.99940492474048
 20
-3.308878382436603
 30
0.0
 11
63.3245170188012
 21
-4.302555086576689
 31
0.0
  0
LINE
  5
9F
330
1F
100
AcDbEntity
  8
0
 62
     7
100
AcDbLine
 10
66.55845587044649
 20
7.755118141180788
 30
0.0
 11
69.95170357760151
 21
6.652587352719962
 31
0.0
  0
LINE
  5
A0
330
1F
100
AcDbEntity
  8
0
 62
     7
100
AcDbLine
 10
110.1244969540946
 20
-6.578513257092709
 30
0.0
 11
114.6699069824586
 21
-8.055407972194502
 31
0.0
  0
LINE
  5
A1
330
1F
100
AcDbEntity
  8
0
 62
     7
100
AcDbLine
 10
105.8404058298054
 20
-16.88068860776221
 30
0.0
 11
103.4530325642604
 21
-14.2292450325418
 31
0.0
  0
LINE
  5
A2
330
1F
100
AcDbEntity
  8
0
 62
     7
100
AcDbLine
 10
66.64360809815042
 20
-4.512384398448518
 30
0.0
 11
69.40795645234903
 21
-3.614190865328624
 31
0.0
  0
LINE
  5
A3
330
1F
100
AcDbEntity
  8
0
 62
     7
100
AcDbLine
 10
72.8843732839772
 20
-13.52208884779691
 30
0.0
 11
69.33263998671239
 21
-16.72008211085242
 31
0.0
  0
LINE
  5
A4
330
1F
100
AcDbEntity
  8
0
 62
     7
100
AcDbLine
 10
66.1044814353659
 20
-4.660862945169214
 30
0.0
 11
69.59438555341151
 21
-3.919058800893197
 31
0.0
  0
LINE
  5
A5
330
1F
100
AcDbEntity
  8
0
 62
     7
100
AcDbLine
 10
68.8755031244001
 20
7.978511519260394
 30
0.0
 11
64.33009309603597
 21
9.455406234362187
 31
0.0
  0
LINE
  5
A6
330
1F
100
AcDbEntity
  8
0
 62
     7
100
AcDbLine
 10
73.15959749962653
 20
18.28069046133908
 30
0.0
 11
75.54697076517152
 21
15.62924688611861
 31
0.0
  0
LINE
  5
A7
330
1F
100
AcDbEntity
  8
0
 62
     7
100
AcDbLine
 10
75.27791828134561
 20
17.31561552320889
 30
0.0
 11
72.07992501829013
 21
20.86734882047367
 31
0.0
  0
LINE
  5
A8
330
1F
100
AcDbEntity
  8
0
 62
     7
100
AcDbLine
 10
84.1391414292294
 20
24.09552036680117
 30
0.0
 11
84.8809455735053
 21
20.60561624875561
 31
0.0
  0
LINE
  5
A9
330
1F
100
AcDbEntity
  8
0
 62
     7
100
AcDbLine
 10
-29.29999542236328
 20
31.58999633789063
 30
0.0
 11
-15.5
 21
31.58999633789063
 31
0.0
  0
LINE
  5
AA
330
1F
100
AcDbEntity
  8
0
 62
     7
100
AcDbLine
 10
-28.34998321533203
 20
31.58999633789063
 30
0.0
 11
-28.34998321533203
 21
27.25
 31
0.0
  0
LINE
  5
AB
330
1F
100
AcDbEntity
  8
0
 62
     7
100
AcDbLine
 10
-31.50000762939453
 20
29.38999938964844
 30
0.0
 11
-31.50000762939453
 21
27.25
 31
0.0
  0
LINE
  5
AC
330
1F
100
AcDbEntity
  8
0
 62
     7
100
AcDbLine
 10
-31.69998931884766
 20
27.25
 30
0.0
 11
-27.50001525878906
 21
27.25
 31
0.0
  0
LINE
  5
AD
330
1F
100
AcDbEntity
  8
0
 62
     7
100
AcDbLine
 10
-31.69998931884766
 20
27.25
 30
0.0
 11
-31.69998931884766
 21
25.25
 31
0.0
  0
LINE
  5
AE
330
1F
100
AcDbEntity
  8
0
 62
     7
100
AcDbLine
 10
-31.69998931884766
 20
23.25
 30
0.0
 11
-31.69998931884766
 21
25.25
 31
0.0
  0
LINE
  5
AF
330
1F
100
AcDbEntity
  8
0
 62
     7
100
AcDbLine
 10
-31.69998931884766
 20
23.25
 30
0.0
 11
-27.50001525878906
 21
23.25
 31
0.0
  0
LINE
  5
B0
330
1F
100
AcDbEntity
  8
0
 62
     7
100
AcDbLine
 10
-31.50000762939453
 20
23.25
 30
0.0
 11
-31.50000762939453
 21
19.78999328613281
 31
0.0
  0
LINE
  5
B1
330
1F
100
AcDbEntity
  8
0
 62
     7
100
AcDbLine
 10
-28.34998321533203
 20
23.25
 30
0.0
 11
-28.34998321533203
 21
19.78999328613281
 31
0.0
  0
LINE
  5
B2
330
1F
100
AcDbEntity
  8
0
 62
     7
100
AcDbLine
 10
-31.50000762939453
 20
19.78999328613281
 30
0.0
 11
-26.72999572753906
 21
19.78999328613281
 31
0.0
  0
LINE
  5
B3
330
1F
100
AcDbEntity
  8
0
 62
     7
100
AcDbLine
 10
-26.72999572753906
 20
21.28999328613281
 30
0.0
 11
-26.72999572753906
 21
19.78999328613281
 31
0.0
  0
LINE
  5
B4
330
1F
100
AcDbEntity
  8
0
 62
     7
100
AcDbLine
 10
-27.50001525878906
 20
22.94999694824219
 30
0.0
 11
-17.5
 21
22.94999694824219
 31
0.0
  0
LINE
  5
B5
330
1F
100
AcDbEntity
  8
0
 62
     7
100
AcDbLine
 10
-27.50001525878906
 20
22.94999694824219
 30
0.0
 11
-27.50001525878906
 21
23.25
 31
0.0
  0
LINE
  5
B6
330
1F
100
AcDbEntity
  8
0
 62
     7
100
AcDbLine
 10
-27.50001525878906
 20
27.55000305175781
 30
0.0
 11
-17.5
 21
27.55000305175781
 31
0.0
  0
LINE
  5
B7
330
1F
100
AcDbEntity
  8
0
 62
     7
100
AcDbLine
 10
-27.50001525878906
 20
27.55000305175781
 30
0.0
 11
-27.50001525878906
 21
27.25
 31
0.0
  0
LINE
  5
B8
330
1F
100
AcDbEntity
  8
0
 62
     7
100
AcDbLine
 10
-26.20097351074219
 20
26.0
 30
0.0
 11
-18.79904174804688
 21
26.0
 31
0.0
  0
LINE
  5
B9
330
1F
100
AcDbEntity
  8
0
 62
     7
100
AcDbLine
 10
-26.20097351074219
 20
24.5
 30
0.0
 11
-18.79904174804688
 21
24.5
 31
0.0
  0
LINE
  5
BA
330
1F
100
AcDbEntity
  8
0
 62
     7
100
AcDbLine
 10
-27.50002835286699
 20
25.25004862522795
 30
0.0
 11
-26.20099021131028
 21
26.00004856308186
 31
0.0
  0
LINE
  5
BB
330
1F
100
AcDbEntity
  8
0
 62
     7
100
AcDbLine
 10
-27.50000282375211
 20
25.25004931030054
 30
0.0
 11
-26.20096446327739
 21
24.50004975162389
 31
0.0
  0
LINE
  5
BC
330
1F
100
AcDbEntity
  8
0
 62
     7
100
AcDbLine
 10
-18.79901572186034
 20
26.00001786963853
 30
0.0
 11
-17.49997758030364
 21
25.25001793178461
 31
0.0
  0
LINE
  5
BD
330
1F
100
AcDbEntity
  8
0
 62
     7
100
AcDbLine
 10
-18.79905819398573
 20
24.50003662076065
 30
0.0
 11
-17.50002005242902
 21
25.25003655861457
 31
0.0
  0
LINE
  5
BE
330
1F
100
AcDbEntity
  8
0
 62
     7
100
AcDbLine
 10
-17.5
 20
23.25
 30
0.0
 11
-15.5
 21
23.25
 31
0.0
  0
LINE
  5
BF
330
1F
100
AcDbEntity
  8
0
 62
     7
100
AcDbLine
 10
-17.5
 20
22.94999694824219
 30
0.0
 11
-17.5
 21
23.25
 31
0.0
  0
LINE
  5
C0
330
1F
100
AcDbEntity
  8
0
 62
     7
100
AcDbLine
 10
-17.5
 20
27.25
 30
0.0
 11
-15.5
 21
27.25
 31
0.0
  0
LINE
  5
C1
330
1F
100
AcDbEntity
  8
0
 62
     7
100
AcDbLine
 10
-17.5
 20
27.55000305175781
 30
0.0
 11
-17.5
 21
27.25
 31
0.0
  0
LINE
  5
C2
330
1F
100
AcDbEntity
  8
0
 62
     7
100
AcDbLine
 10
-13.5
 20
27.25
 30
0.0
 11
-15.5
 21
27.25
 31
0.0
  0
LINE
  5
C3
330
1F
100
AcDbEntity
  8
0
 62
     7
100
AcDbLine
 10
-3.5
 20
27.55000305175781
 30
0.0
 11
-13.5
 21
27.55000305175781
 31
0.0
  0
LINE
  5
C4
330
1F
100
AcDbEntity
  8
0
 62
     7
100
AcDbLine
 10
-13.5
 20
27.55000305175781
 30
0.0
 11
-13.5
 21
27.25
 31
0.0
  0
LINE
  5
C5
330
1F
100
AcDbEntity
  8
0
 62
     7
100
AcDbLine
 10
-13.5
 20
23.25
 30
0.0
 11
-15.5
 21
23.25
 31
0.0
  0
LINE
  5
C6
330
1F
100
AcDbEntity
  8
0
 62
     7
100
AcDbLine
 10
-13.5
 20
22.94999694824219
 30
0.0
 11
-13.5
 21
23.25
 31
0.0
  0
LINE
  5
C7
330
1F
100
AcDbEntity
  8
0
 62
     7
100
AcDbLine
 10
-3.5
 20
22.94999694824219
 30
0.0
 11
-13.5
 21
22.94999694824219
 31
0.0
  0
LINE
  5
C8
330
1F
100
AcDbEntity
  8
0
 62
     7
100
AcDbLine
 10
-1.699996948242188
 20
31.58999633789063
 30
0.0
 11
-15.5
 21
31.58999633789063
 31
0.0
  0
LINE
  5
C9
330
1F
100
AcDbEntity
  8
0
 62
     7
100
AcDbLine
 10
-2.650001525878906
 20
31.58999633789063
 30
0.0
 11
-2.650001525878906
 21
27.25
 31
0.0
  0
LINE
  5
CA
330
1F
100
AcDbEntity
  8
0
 62
     7
100
AcDbLine
 10
-13.95999908447266
 20
31.58999633789063
 30
0.0
 11
-13.95999908447266
 21
27.25
 31
0.0
  0
LINE
  5
CB
330
1F
100
AcDbEntity
  8
0
 62
     7
100
AcDbLine
 10
-17.04000091552734
 20
31.58999633789063
 30
0.0
 11
-17.04000091552734
 21
27.25
 31
0.0
  0
LINE
  5
CC
330
1F
100
AcDbEntity
  8
0
 62
     7
100
AcDbLine
 10
-26.72999572753906
 20
21.28999328613281
 30
0.0
 11
-18.65000152587891
 21
21.28999328613281
 31
0.0
  0
LINE
  5
CD
330
1F
100
AcDbEntity
  8
0
 62
     7
100
AcDbLine
 10
-18.65000152587891
 20
21.28999328613281
 30
0.0
 11
-18.65000152587891
 21
19.78999328613281
 31
0.0
  0
LINE
  5
CE
330
1F
100
AcDbEntity
  8
0
 62
     7
100
AcDbLine
 10
-18.65000152587891
 20
19.78999328613281
 30
0.0
 11
-15.5
 21
19.78999328613281
 31
0.0
  0
LINE
  5
CF
330
1F
100
AcDbEntity
  8
0
 62
     7
100
AcDbLine
 10
-17.04000091552734
 20
23.25
 30
0.0
 11
-17.04000091552734
 21
19.78999328613281
 31
0.0
  0
LINE
  5
D0
330
1F
100
AcDbEntity
  8
0
 62
     7
100
AcDbLine
 10
-13.95999908447266
 20
23.25
 30
0.0
 11
-13.95999908447266
 21
19.78999328613281
 31
0.0
  0
LINE
  5
D1
330
1F
100
AcDbEntity
  8
0
 62
     7
100
AcDbLine
 10
-12.34999847412109
 20
19.78999328613281
 30
0.0
 11
-15.5
 21
19.78999328613281
 31
0.0
  0
LINE
  5
D2
330
1F
100
AcDbEntity
  8
0
 62
     7
100
AcDbLine
 10
-12.34999847412109
 20
21.28999328613281
 30
0.0
 11
-12.34999847412109
 21
19.78999328613281
 31
0.0
  0
LINE
  5
D3
330
1F
100
AcDbEntity
  8
0
 62
     7
100
AcDbLine
 10
-4.269996643066406
 20
21.28999328613281
 30
0.0
 11
-12.34999847412109
 21
21.28999328613281
 31
0.0
  0
LINE
  5
D4
330
1F
100
AcDbEntity
  8
0
 62
     7
100
AcDbLine
 10
-4.799034118652344
 20
26.0
 30
0.0
 11
-12.20095825195313
 21
26.0
 31
0.0
  0
LINE
  5
D5
330
1F
100
AcDbEntity
  8
0
 62
     7
100
AcDbLine
 10
-12.20098147962773
 20
26.00004687791434
 30
0.0
 11
-13.50001962118444
 21
25.25004694006043
 31
0.0
  0
LINE
  5
D6
330
1F
100
AcDbEntity
  8
0
 62
     7
100
AcDbLine
 10
-12.20092506658904
 20
24.50002365262543
 30
0.0
 11
-13.49996320814577
 21
25.25002359047934
 31
0.0
  0
LINE
  5
D7
330
1F
100
AcDbEntity
  8
0
 62
     7
100
AcDbLine
 10
-4.799034118652344
 20
24.5
 30
0.0
 11
-12.20095825195313
 21
24.5
 31
0.0
  0
LINE
  5
D8
330
1F
100
AcDbEntity
  8
0
 62
     7
100
AcDbLine
 10
-3.499985559788172
 20
25.25006236280188
 30
0.0
 11
-4.799023920262869
 21
26.00006192147851
 31
0.0
  0
LINE
  5
D9
330
1F
100
AcDbEntity
  8
0
 62
     7
100
AcDbLine
 10
-3.499966802356539
 20
25.24994999445963
 30
0.0
 11
-4.799005927671544
 21
24.49994985317645
 31
0.0
  0
LINE
  5
DA
330
1F
100
AcDbEntity
  8
0
 62
     7
100
AcDbLine
 10
-3.5
 20
27.55000305175781
 30
0.0
 11
-3.5
 21
27.25
 31
0.0
  0
LINE
  5
DB
330
1F
100
AcDbEntity
  8
0
 62
     7
100
AcDbLine
 10
0.7000045776367188
 20
27.25
 30
0.0
 11
-3.5
 21
27.25
 31
0.0
  0
LINE
  5
DC
330
1F
100
AcDbEntity
  8
0
 62
     7
100
AcDbLine
 10
0.5
 20
29.38999938964844
 30
0.0
 11
0.5
 21
27.25
 31
0.0
  0
LINE
  5
DD
330
1F
100
AcDbEntity
  8
0
 62
     7
100
AcDbLine
 10
0.7000045776367188
 20
27.25
 30
0.0
 11
0.7000045776367188
 21
25.25
 31
0.0
  0
LINE
  5
DE
330
1F
100
AcDbEntity
  8
0
 62
     7
100
AcDbLine
 10
0.7000045776367188
 20
23.25
 30
0.0
 11
-3.5
 21
23.25
 31
0.0
  0
LINE
  5
DF
330
1F
100
AcDbEntity
  8
0
 62
     7
100
AcDbLine
 10
0.7000045776367188
 20
23.25
 30
0.0
 11
0.7000045776367188
 21
25.25
 31
0.0
  0
LINE
  5
E0
330
1F
100
AcDbEntity
  8
0
 62
     7
100
AcDbLine
 10
0.5
 20
23.25
 30
0.0
 11
0.5
 21
19.78999328613281
 31
0.0
  0
LINE
  5
E1
330
1F
100
AcDbEntity
  8
0
 62
     7
100
AcDbLine
 10
-2.650001525878906
 20
23.25
 30
0.0
 11
-2.650001525878906
 21
19.78999328613281
 31
0.0
  0
LINE
  5
E2
330
1F
100
AcDbEntity
  8
0
 62
     7
100
AcDbLine
 10
-3.5
 20
22.94999694824219
 30
0.0
 11
-3.5
 21
23.25
 31
0.0
  0
LINE
  5
E3
330
1F
100
AcDbEntity
  8
0
 62
     7
100
AcDbLine
 10
-4.269996643066406
 20
21.28999328613281
 30
0.0
 11
-4.269996643066406
 21
19.78999328613281
 31
0.0
  0
LINE
  5
E4
330
1F
100
AcDbEntity
  8
0
 62
     7
100
AcDbLine
 10
0.5
 20
19.78999328613281
 30
0.0
 11
-4.269996643066406
 21
19.78999328613281
 31
0.0
  0
LINE
  5
E5
330
1F
100
AcDbEntity
  8
0
 62
     7
100
AcDbLine
 10
-19.09999990463257
 20
5.464996814727783
 30
0.0
 11
-19.09999990463257
 21
26.02499771118164
 31
0.0
  0
LINE
  5
E6
330
1F
100
AcDbEntity
  8
0
 62
     7
100
AcDbLine
 10
-26.29999923706055
 20
26.02499771118164
 30
0.0
 11
-26.29999923706055
 21
17.19999694824219
 31
0.0
  0
LINE
  5
E7
330
1F
100
AcDbEntity
  8
0
 62
     7
100
AcDbLine
 10
-32.10000133514581
 20
17.19999402364311
 30
0.0
 11
-32.100003560392
 21
20.70000356038557
 31
0.0
  0
LINE
  5
E8
330
1F
100
AcDbEntity
  8
0
 62
     7
100
AcDbLine
 10
-41.10000038146973
 20
19.09999656677246
 30
0.0
 11
-41.10000038146973
 21
5.464996814727783
 31
0.0
  0
LINE
  5
E9
330
1F
100
AcDbEntity
  8
0
 62
     7
100
AcDbLine
 10
-41.10000038146973
 20
5.464996814727783
 30
0.0
 11
-38.60000038146973
 21
5.464996814727783
 31
0.0
  0
LINE
  5
EA
330
1F
100
AcDbEntity
  8
0
 62
     7
100
AcDbLine
 10
-33.60000038146973
 20
5.464996814727783
 30
0.0
 11
-19.09999990463257
 21
5.464996814727783
 31
0.0
  0
LINE
  5
EB
330
1F
100
AcDbEntity
  8
0
 62
     7
100
AcDbLine
 10
-39.5
 20
20.69999694824219
 30
0.0
 11
-38.60000038146973
 21
20.69999694824219
 31
0.0
  0
LINE
  5
EC
330
1F
100
AcDbEntity
  8
0
 62
     7
100
AcDbLine
 10
-33.60000038146973
 20
20.70000267028809
 30
0.0
 11
-32.10000419616699
 21
20.70000267028809
 31
0.0
  0
LINE
  5
ED
330
1F
100
AcDbEntity
  8
0
 62
     7
100
AcDbLine
 10
-31.6000010172545
 20
16.69999434153473
 30
0.0
 11
-26.799998919172
 21
16.69999739329396
 31
0.0
  0
LINE
  5
EE
330
1F
100
AcDbEntity
  8
0
 62
     7
100
AcDbLine
 10
-26.29999923706055
 20
26.02499771118164
 30
0.0
 11
-19.09999990463257
 21
26.02499771118164
 31
0.0
  0
LINE
  5
EF
330
1F
100
AcDbEntity
  8
0
 62
     7
100
AcDbLine
 10
-39.50000110654395
 20
20.69999728030626
 30
0.0
 11
-41.1000009442912
 21
19.09999730768911
 31
0.0
  0
LINE
  5
F0
330
1F
100
AcDbEntity
  8
0
 62
     7
100
AcDbLine
 10
-11.90000009536743
 20
5.464996814727783
 30
0.0
 11
-11.90000009536743
 21
26.02499771118164
 31
0.0
  0
LINE
  5
F1
330
1F
100
AcDbEntity
  8
0
 62
     7
100
AcDbLine
 10
-4.700000762939453
 20
26.02499771118164
 30
0.0
 11
-4.700000762939453
 21
17.19999694824219
 31
0.0
  0
LINE
  5
F2
330
1F
100
AcDbEntity
  8
0
 62
     7
100
AcDbLine
 10
1.100001335145862
 20
17.19999402364311
 30
0.0
 11
1.100003560392054
 21
20.70000356038557
 31
0.0
  0
LINE
  5
F3
330
1F
100
AcDbEntity
  8
0
 62
     7
100
AcDbLine
 10
10.10000038146973
 20
19.09999656677246
 30
0.0
 11
10.10000038146973
 21
5.464996814727783
 31
0.0
  0
LINE
  5
F4
330
1F
100
AcDbEntity
  8
0
 62
     7
100
AcDbLine
 10
10.10000038146973
 20
5.464996814727783
 30
0.0
 11
7.600000381469727
 21
5.464996814727783
 31
0.0
  0
LINE
  5
F5
330
1F
100
AcDbEntity
  8
0
 62
     7
100
AcDbLine
 10
2.600000381469727
 20
5.464996814727783
 30
0.0
 11
-11.90000009536743
 21
5.464996814727783
 31
0.0
  0
LINE
  5
F6
330
1F
100
AcDbEntity
  8
0
 62
     7
100
AcDbLine
 10
-4.700000762939453
 20
26.02499771118164
 30
0.0
 11
-11.90000009536743
 21
26.02499771118164
 31
0.0
  0
LINE
  5
F7
330
1F
100
AcDbEntity
  8
0
 62
     7
100
AcDbLine
 10
0.600001017254499
 20
16.69999434153471
 30
0.0
 11
-4.200001080828031
 21
16.69999739329393
 31
0.0
  0
LINE
  5
F8
330
1F
100
AcDbEntity
  8
0
 62
     7
100
AcDbLine
 10
2.600000381469727
 20
20.70000267028809
 30
0.0
 11
1.100004196166992
 21
20.70000267028809
 31
0.0
  0
LINE
  5
F9
330
1F
100
AcDbEntity
  8
0
 62
     7
100
AcDbLine
 10
8.5
 20
20.69999694824219
 30
0.0
 11
7.600000381469727
 21
20.69999694824219
 31
0.0
  0
LINE
  5
FA
330
1F
100
AcDbEntity
  8
0
 62
     7
100
AcDbLine
 10
8.500001106544119
 20
20.69999728030626
 30
0.0
 11
10.1000009442914
 21
19.09999730768911
 31
0.0
  0
ARC
  5
FB
330
1F
100
AcDbEntity
  8
0
 62
     7
100
AcDbCircle
 10
-29.29998779296881
 20
-27.99000549316411
 30
0.0
 40
2.200000047683716
100
AcDbArc
 50
179.9999776881997
 51
269.9999733624896
  0
ARC
  5
FC
330
1F
100
AcDbEntity
  8
0
 62
     7
100
AcDbCircle
 10
-1.699996948242188
 20
-27.99000549316411
 30
0.0
 40
2.200000047683716
100
AcDbArc
 50
269.9999633445769
 51
360.0
  0
ARC
  5
FD
330
1F
100
AcDbEntity
  8
0
 62
     7
100
AcDbCircle
 10
-31.6000061035156
 20
-16.3000030517578
 30
0.0
 40
0.5
100
AcDbArc
 50
89.99998201391099
 51
179.999964027822
  0
ARC
  5
FE
330
1F
100
AcDbEntity
  8
0
 62
     7
100
AcDbCircle
 10
0.6000061035155966
 20
-16.3000030517578
 30
0.0
 40
0.5
100
AcDbArc
 50
0.0
 51
89.99998201391099
  0
CIRCLE
  5
FF
330
1F
100
AcDbEntity
  8
0
 62
     7
100
AcDbCircle
 10
89.5
 20
0.6999969482421875
 30
0.0
 40
4.764999866485596
  0
ARC
  5
100
330
1F
100
AcDbEntity
  8
0
 62
     7
100
AcDbCircle
 10
89.98923492431641
 20
6.206787109375
 30
0.0
 40
24.29999923706055
100
AcDbArc
 50
60.94562086967287
 51
90.62957519122412
  0
ARC
  5
101
330
1F
100
AcDbEntity
  8
0
 62
     7
100
AcDbCircle
 10
89.49997711181641
 20
25.25
 30
0.0
 40
5.260000228881836
100
AcDbArc
 50
87.57846138708771
 51
161.9999430363583
  0
ARC
  5
102
330
1F
100
AcDbEntity
  8
0
 62
     7
100
AcDbCircle
 10
89.06133270263671
 20
22.9594421386719
 30
0.0
 40
3.650000095367432
100
AcDbArc
 50
191.9999680042176
 51
213.3662067469869
  0
CIRCLE
  5
103
330
1F
100
AcDbEntity
  8
0
 62
     7
100
AcDbCircle
 10
89.49997711181641
 20
25.25
 30
0.0
 40
2.0
  0
ARC
  5
104
330
1F
100
AcDbEntity
  8
0
 62
     7
100
AcDbCircle
 10
101.7954406738281
 20
21.93885803222659
 30
0.0
 40
5.510000228881836
100
AcDbArc
 50
90.05371511211118
 51
161.9999430363583
  0
CIRCLE
  5
105
330
1F
100
AcDbEntity
  8
0
 62
     7
100
AcDbCircle
 10
89.5
 20
0.6999969482421875
 30
0.0
 40
20.0
  0
CIRCLE
  5
106
330
1F
100
AcDbEntity
  8
0
 62
     7
100
AcDbCircle
 10
89.5
 20
0.6999969482421875
 30
0.0
 40
20.54999923706055
  0
ARC
  5
107
330
1F
100
AcDbEntity
  8
0
 62
     7
100
AcDbCircle
 10
92.6770858764648
 20
5.224395751953097
 30
0.0
 40
24.29999923706055
100
AcDbArc
 50
30.9456234499414
 51
60.62957435639807
  0
ARC
  5
108
330
1F
100
AcDbEntity
  8
0
 62
     7
100
AcDbCircle
 10
101.7749786376953
 20
21.9609375
 30
0.0
 40
5.260000228881836
100
AcDbArc
 50
57.57846055226177
 51
131.9999490317213
  0
ARC
  5
109
330
1F
100
AcDbEntity
  8
0
 62
     7
100
AcDbCircle
 10
100.2498245239258
 20
20.19657897949219
 30
0.0
 40
3.650000095367432
100
AcDbArc
 50
161.999970357115
 51
183.3662090998846
  0
CIRCLE
  5
10A
330
1F
100
AcDbEntity
  8
0
 62
     7
100
AcDbCircle
 10
101.7749786376953
 20
21.9609375
 30
0.0
 40
2.0
  0
ARC
  5
10B
330
1F
100
AcDbEntity
  8
0
 62
     7
100
AcDbCircle
 10
110.7675933837891
 20
12.94566345214841
 30
0.0
 40
5.510000228881836
100
AcDbArc
 50
60.05371427728509
 51
131.9999490317214
  0
ARC
  5
10C
330
1F
100
AcDbEntity
  8
0
 62
     7
100
AcDbCircle
 10
94.5136413574219
 20
3.029708862304688
 30
0.0
 40
24.29999923706055
100
AcDbArc
 50
0.9456228285587589
 51
30.62957352157196
  0
ARC
  5
10D
330
1F
100
AcDbEntity
  8
0
 62
     7
100
AcDbCircle
 10
110.7609176635742
 20
12.97502136230469
 30
0.0
 40
5.260000228881836
100
AcDbArc
 50
27.57846142498292
 51
101.9999413667061
  0
ARC
  5
10E
330
1F
100
AcDbEntity
  8
0
 62
     7
100
AcDbCircle
 10
108.5579147338867
 20
12.20960998535159
 30
0.0
 40
3.650000095367432
100
AcDbArc
 50
131.9999626920996
 51
153.3662150952467
  0
ARC
  5
10F
330
1F
100
AcDbEntity
  8
0
 62
     7
100
AcDbCircle
 10
114.0411148071289
 20
0.6712646484375
 30
0.0
 40
5.510000228881836
100
AcDbArc
 50
30.05371344245914
 51
101.999941366706
  0
CIRCLE
  5
110
330
1F
100
AcDbEntity
  8
0
 62
     7
100
AcDbCircle
 10
110.7609176635742
 20
12.97502136230469
 30
0.0
 40
2.0
  0
ARC
  5
111
330
1F
100
AcDbEntity
  8
0
 62
     7
100
AcDbCircle
 10
95.0067901611328
 20
0.2107543945313068
 30
0.0
 40
24.29999923706055
100
AcDbArc
 50
330.94562178029
 51
360.629575194706
  0
ARC
  5
112
330
1F
100
AcDbEntity
  8
0
 62
     7
100
AcDbCircle
 10
114.0500030517578
 20
0.7000122070313068
 30
0.0
 40
5.260000228881836
100
AcDbArc
 50
357.5784614439312
 51
431.99994053188
  0
ARC
  5
113
330
1F
100
AcDbEntity
  8
0
 62
     7
100
AcDbCircle
 10
111.7594451904297
 20
1.138671875
 30
0.0
 40
3.650000095367432
100
AcDbArc
 50
101.9999686874627
 51
123.3662074302315
  0
CIRCLE
  5
114
330
1F
100
AcDbEntity
  8
0
 62
     7
100
AcDbCircle
 10
114.0500030517578
 20
0.7000122070313068
 30
0.0
 40
2.0
  0
ARC
  5
115
330
1F
100
AcDbEntity
  8
0
 62
     7
100
AcDbCircle
 10
110.7388610839844
 20
-11.59544372558591
 30
0.0
 40
5.510000228881836
100
AcDbArc
 50
0.0537123975246621
 51
71.99994053188006
  0
ARC
  5
116
330
1F
100
AcDbEntity
  8
0
 62
     7
100
AcDbCircle
 10
101.7750244140625
 20
-20.560920715332
 30
0.0
 40
5.260000228881836
100
AcDbArc
 50
297.5784640431473
 51
371.9999431310962
  0
ARC
  5
117
330
1F
100
AcDbEntity
  8
0
 62
     7
100
AcDbCircle
 10
89.4712677001953
 20
-23.84111785888671
 30
0.0
 40
5.510000228881836
100
AcDbArc
 50
300.0537109379815
 51
371.9999431310962
  0
ARC
  5
118
330
1F
100
AcDbEntity
  8
0
 62
     7
100
AcDbCircle
 10
101.0096206665039
 20
-18.3579177856445
 30
0.0
 40
3.650000095367432
100
AcDbArc
 50
41.99996701781075
 51
63.36621259076875
  0
ARC
  5
119
330
1F
100
AcDbEntity
  8
0
 62
     7
100
AcDbCircle
 10
91.829704284668
 20
-4.313644409179688
 30
0.0
 40
24.29999923706055
100
AcDbArc
 50
270.9456235257325
 51
300.6295778472837
  0
CIRCLE
  5
11A
330
1F
100
AcDbEntity
  8
0
 62
     7
100
AcDbCircle
 10
101.7750244140625
 20
-20.560920715332
 30
0.0
 40
2.0
  0
ARC
  5
11B
330
1F
100
AcDbEntity
  8
0
 62
     7
100
AcDbCircle
 10
89.9386672973633
 20
-21.5594482421875
 30
0.0
 40
3.650000095367432
100
AcDbArc
 50
11.99996789053187
 51
33.3662117559426
  0
ARC
  5
11C
330
1F
100
AcDbEntity
  8
0
 62
     7
100
AcDbCircle
 10
77.2045593261719
 20
-20.5388641357422
 30
0.0
 40
5.510000228881836
100
AcDbArc
 50
270.0537101031555
 51
341.9999431500444
  0
CIRCLE
  5
11D
330
1F
100
AcDbEntity
  8
0
 62
     7
100
AcDbCircle
 10
89.50002288818359
 20
-23.8500061035156
 30
0.0
 40
2.0
  0
ARC
  5
11E
330
1F
100
AcDbEntity
  8
0
 62
     7
100
AcDbCircle
 10
89.50002288818359
 20
-23.8500061035156
 30
0.0
 40
5.260000228881836
100
AcDbArc
 50
267.5784632083211
 51
341.9999431500443
  0
ARC
  5
11F
330
1F
100
AcDbEntity
  8
0
 62
     7
100
AcDbCircle
 10
89.01076507568359
 20
-4.806793212890597
 30
0.0
 40
24.29999923706055
100
AcDbArc
 50
240.9456226909064
 51
270.6295770124576
  0
ARC
  5
120
330
1F
100
AcDbEntity
  8
0
 62
     7
100
AcDbCircle
 10
68.23240661621091
 20
-11.54566955566409
 30
0.0
 40
5.510000228881836
100
AcDbArc
 50
240.0537092683295
 51
311.9999440227659
  0
ARC
  5
121
330
1F
100
AcDbEntity
  8
0
 62
     7
100
AcDbCircle
 10
77.2250213623047
 20
-20.5609436035156
 30
0.0
 40
5.260000228881836
100
AcDbArc
 50
237.5784623734952
 51
311.9999440227657
  0
ARC
  5
122
330
1F
100
AcDbEntity
  8
0
 62
     7
100
AcDbCircle
 10
78.75017547607421
 20
-18.7965850830078
 30
0.0
 40
3.650000095367432
100
AcDbArc
 50
341.9999687632538
 51
363.3662122017771
  0
ARC
  5
123
330
1F
100
AcDbEntity
  8
0
 62
     7
100
AcDbCircle
 10
86.3229141235352
 20
-3.824401855468693
 30
0.0
 40
24.29999923706055
100
AcDbArc
 50
210.9456286862695
 51
240.6295761776316
  0
CIRCLE
  5
124
330
1F
100
AcDbEntity
  8
0
 62
     7
100
AcDbCircle
 10
77.2250213623047
 20
-20.5609436035156
 30
0.0
 40
2.0
  0
ARC
  5
125
330
1F
100
AcDbEntity
  8
0
 62
     7
100
AcDbCircle
 10
68.2611389160156
 20
12.99543762207031
 30
0.0
 40
5.510000228881836
100
AcDbArc
 50
180.053707598677
 51
251.9999423531135
  0
CIRCLE
  5
126
330
1F
100
AcDbEntity
  8
0
 62
     7
100
AcDbCircle
 10
64.94999694824219
 20
0.6999816894530966
 30
0.0
 40
2.0
  0
ARC
  5
127
330
1F
100
AcDbEntity
  8
0
 62
     7
100
AcDbCircle
 10
83.9932098388672
 20
1.189239501953097
 30
0.0
 40
24.29999923706055
100
AcDbArc
 50
150.9456233741511
 51
180.6295708655138
  0
ARC
  5
128
330
1F
100
AcDbEntity
  8
0
 62
     7
100
AcDbCircle
 10
67.24055480957031
 20
0.2613372802734091
 30
0.0
 40
3.650000095367432
100
AcDbArc
 50
281.9999705086965
 51
303.3662126665595
  0
ARC
  5
129
330
1F
100
AcDbEntity
  8
0
 62
     7
100
AcDbCircle
 10
64.94999694824219
 20
0.6999816894530966
 30
0.0
 40
5.260000228881836
100
AcDbArc
 50
177.5784570613769
 51
251.999938710648
  0
ARC
  5
12A
330
1F
100
AcDbEntity
  8
0
 62
     7
100
AcDbCircle
 10
108.99658203125
 20
-10.0498352050781
 30
0.0
 40
3.650000095367432
100
AcDbArc
 50
71.99996785263677
 51
93.36621342559485
  0
ARC
  5
12B
330
1F
100
AcDbEntity
  8
0
 62
     7
100
AcDbCircle
 10
101.7456741333008
 20
-20.5675964355469
 30
0.0
 40
5.510000228881836
100
AcDbArc
 50
330.0537117728076
 51
401.9999431121485
  0
CIRCLE
  5
12C
330
1F
100
AcDbEntity
  8
0
 62
     7
100
AcDbCircle
 10
110.7609405517578
 20
-11.5749816894531
 30
0.0
 40
2.0
  0
ARC
  5
12D
330
1F
100
AcDbEntity
  8
0
 62
     7
100
AcDbCircle
 10
110.7609405517578
 20
-11.5749816894531
 30
0.0
 40
5.260000228881836
100
AcDbArc
 50
327.5784614628788
 51
401.9999431121486
  0
ARC
  5
12E
330
1F
100
AcDbEntity
  8
0
 62
     7
100
AcDbCircle
 10
94.0244064331055
 20
-2.477081298828097
 30
0.0
 40
24.29999923706055
100
AcDbArc
 50
300.9456243605585
 51
330.6295752670152
  0
ARC
  5
12F
330
1F
100
AcDbEntity
  8
0
 62
     7
100
AcDbCircle
 10
70.44209289550781
 20
-10.80961608886719
 30
0.0
 40
3.650000095367432
100
AcDbArc
 50
311.9999679284277
 51
333.3662117938383
  0
ARC
  5
130
330
1F
100
AcDbEntity
  8
0
 62
     7
100
AcDbCircle
 10
64.9588928222656
 20
0.7287292480469034
 30
0.0
 40
5.510000228881836
100
AcDbArc
 50
210.0537152636926
 51
281.9999431879396
  0
CIRCLE
  5
131
330
1F
100
AcDbEntity
  8
0
 62
     7
100
AcDbCircle
 10
68.23908996582031
 20
-11.57502746582031
 30
0.0
 40
2.0
  0
ARC
  5
132
330
1F
100
AcDbEntity
  8
0
 62
     7
100
AcDbCircle
 10
68.23908996582031
 20
-11.57502746582031
 30
0.0
 40
5.260000228881836
100
AcDbArc
 50
207.5784547084799
 51
281.9999431879395
  0
ARC
  5
133
330
1F
100
AcDbEntity
  8
0
 62
     7
100
AcDbCircle
 10
84.4863586425781
 20
-1.629714965820313
 30
0.0
 40
24.29999923706055
100
AcDbArc
 50
180.9456210212543
 51
210.6295685126162
  0
ARC
  5
134
330
1F
100
AcDbEntity
  8
0
 62
     7
100
AcDbCircle
 10
70.00341796875
 20
11.4498291015625
 30
0.0
 40
3.650000095367432
100
AcDbArc
 50
251.99996967387
 51
273.3662152468286
  0
ARC
  5
135
330
1F
100
AcDbEntity
  8
0
 62
     7
100
AcDbCircle
 10
77.25432586669921
 20
21.96759033203131
 30
0.0
 40
5.510000228881836
100
AcDbArc
 50
150.0537099515741
 51
221.9999447060111
  0
CIRCLE
  5
136
330
1F
100
AcDbEntity
  8
0
 62
     7
100
AcDbCircle
 10
68.23905944824219
 20
12.9749755859375
 30
0.0
 40
2.0
  0
ARC
  5
137
330
1F
100
AcDbEntity
  8
0
 62
     7
100
AcDbCircle
 10
68.23905944824219
 20
12.9749755859375
 30
0.0
 40
5.260000228881836
100
AcDbArc
 50
147.5784630567399
 51
221.999944706011
  0
ARC
  5
138
330
1F
100
AcDbEntity
  8
0
 62
     7
100
AcDbCircle
 10
84.9755935668945
 20
3.8770751953125
 30
0.0
 40
24.29999923706055
100
AcDbArc
 50
120.9456293695142
 51
150.6295768608762
  0
ARC
  5
139
330
1F
100
AcDbEntity
  8
0
 62
     7
100
AcDbCircle
 10
89.5287322998047
 20
25.24110412597659
 30
0.0
 40
5.510000228881836
100
AcDbArc
 50
120.0537159469372
 51
191.9999370409956
  0
CIRCLE
  5
13A
330
1F
100
AcDbEntity
  8
0
 62
     7
100
AcDbCircle
 10
77.2249755859375
 20
21.9609069824219
 30
0.0
 40
2.0
  0
ARC
  5
13B
330
1F
100
AcDbEntity
  8
0
 62
     7
100
AcDbCircle
 10
87.170295715332
 20
5.713638305664091
 30
0.0
 40
24.29999923706055
100
AcDbArc
 50
90.94562170449895
 51
120.6295691958611
  0
ARC
  5
13C
330
1F
100
AcDbEntity
  8
0
 62
     7
100
AcDbCircle
 10
77.99037933349609
 20
19.7579040527344
 30
0.0
 40
3.650000095367432
100
AcDbArc
 50
221.9999620088549
 51
243.3662144120025
  0
ARC
  5
13D
330
1F
100
AcDbEntity
  8
0
 62
     7
100
AcDbCircle
 10
77.2249755859375
 20
21.9609069824219
 30
0.0
 40
5.260000228881836
100
AcDbArc
 50
117.5784553917247
 51
191.9999370409958
  0
ARC
  5
13E
330
1F
100
AcDbEntity
  8
0
 62
     7
100
AcDbCircle
 10
-29.29999542236328
 20
29.38999938964844
 30
0.0
 40
2.200000047683716
100
AcDbArc
 50
89.99998201391067
 51
179.9999640278213
  0
ARC
  5
13F
330
1F
100
AcDbEntity
  8
0
 62
     7
100
AcDbCircle
 10
-1.699996948242188
 20
29.38999938964844
 30
0.0
 40
2.200000047683716
100
AcDbArc
 50
0.0
 51
89.99998201391067
  0
ARC
  5
140
330
1F
100
AcDbEntity
  8
0
 62
     7
100
AcDbCircle
 10
-31.60000228881836
 20
17.19999313354492
 30
0.0
 40
0.5
100
AcDbArc
 50
180.0000359721797
 51
270.0000384766578
  0
ARC
  5
141
330
1F
100
AcDbEntity
  8
0
 62
     7
100
AcDbCircle
 10
-26.79999923706055
 20
17.19999694824219
 30
0.0
 40
0.5
100
AcDbArc
 50
270.0000384766578
 51
360.0
  0
ARC
  5
142
330
1F
100
AcDbEntity
  8
0
 62
     7
100
AcDbCircle
 10
-4.200000762939453
 20
17.19999694824219
 30
0.0
 40
0.5
100
AcDbArc
 50
179.9999949910439
 51
269.9999633445769
  0
ARC
  5
143
330
1F
100
AcDbEntity
  8
0
 62
     7
100
AcDbCircle
 10
0.6000022888183594
 20
17.19999313354492
 30
0.0
 40
0.5
100
AcDbArc
 50
269.9999633445769
 51
359.9999635723241
  0
LINE
  5
144
330
1F
100
AcDbEntity
  8
0
  6
DIVIDE
 62
     9
100
AcDbLine
 10
-37.95185852050781
 20
20.69999694824219
 30
0.0
 11
-37.95185852050781
 21
5.464996337890597
 31
0.0
  0
LINE
  5
145
330
1F
100
AcDbEntity
  8
0
  6
DIVIDE
 62
     9
100
AcDbLine
 10
-34.24815368652341
 20
20.69999694824219
 30
0.0
 11
-34.24815368652341
 21
5.464996337890597
 31
0.0
  0
LINE
  5
146
330
1F
100
AcDbEntity
  8
0
  6
DIVIDE
 62
     9
100
AcDbLine
 10
3.248153686523409
 20
20.69999694824219
 30
0.0
 11
3.248153686523409
 21
5.464996337890597
 31
0.0
  0
LINE
  5
147
330
1F
100
AcDbEntity
  8
0
  6
DIVIDE
 62
     9
100
AcDbLine
 10
6.951858520507813
 20
20.69999694824219
 30
0.0
 11
6.951858520507813
 21
5.464996337890597
 31
0.0
  0
LINE
  5
148
330
1F
100
AcDbEntity
  8
0
  6
DIVIDE
 62
     9
100
AcDbLine
 10
-33.60000038146973
 20
20.70000267028809
 30
0.0
 11
-33.60000038146973
 21
5.464996814727783
 31
0.0
  0
LINE
  5
149
330
1F
100
AcDbEntity
  8
0
  6
DIVIDE
 62
     9
100
AcDbLine
 10
-38.60000038146973
 20
20.69999694824219
 30
0.0
 11
-38.60000038146973
 21
5.464996337890625
 31
0.0
  0
LINE
  5
14A
330
1F
100
AcDbEntity
  8
0
  6
DIVIDE
 62
     9
100
AcDbLine
 10
2.600000381469727
 20
20.70000267028809
 30
0.0
 11
2.600000381469727
 21
5.464996814727783
 31
0.0
  0
LINE
  5
14B
330
1F
100
AcDbEntity
  8
0
  6
DIVIDE
 62
     9
100
AcDbLine
 10
7.600000381469727
 20
20.69999694824219
 30
0.0
 11
7.600000381469727
 21
5.464996337890625
 31
0.0
  0
LINE
  5
14C
330
1F
100
AcDbEntity
  8
0
  6
CENTER
 62
     7
100
AcDbLine
 10
-43.0
 20
0.6999969482421875
 30
0.0
 11
12.0
 21
0.6999969482421875
 31
0.0
  0
LINE
  5
14D
330
1F
100
AcDbEntity
  8
0
  6
CENTER
 62
     7
100
AcDbLine
 10
5.100006103515597
 20
24.0824890136719
 30
0.0
 11
5.100006103515597
 21
3.644393920898409
 31
0.0
  0
LINE
  5
14E
330
1F
100
AcDbEntity
  8
0
  6
CENTER
 62
     7
100
AcDbLine
 10
-36.1000061035156
 20
24.0824890136719
 30
0.0
 11
-36.1000061035156
 21
3.539398193359403
 31
0.0
  0
LINE
  5
14F
330
1F
100
AcDbEntity
  8
0
  6
CENTER
 62
     7
100
AcDbLine
 10
122.0
 20
0.6999969482421875
 30
0.0
 11
57.0
 21
0.6999969482421875
 31
0.0
  0
LINE
  5
150
330
1F
100
AcDbEntity
  8
0
  6
CENTER
 62
     7
100
AcDbLine
 10
89.5
 20
33.19999694824219
 30
0.0
 11
89.5
 21
-31.8000030517578
 31
0.0
  0
LINE
  5
151
330
1F
100
AcDbEntity
  8
0
  6
CENTER
 62
     7
100
AcDbLine
 10
-34.50000762939453
 20
25.25
 30
0.0
 11
3.5
 21
25.25
 31
0.0
  0
CIRCLE
  5
152
330
1F
100
AcDbEntity
  8
0
  6
CENTER
 62
     7
100
AcDbCircle
 10
89.5
 20
0.6999969482421875
 30
0.0
 40
24.53499984741211
  0
CIRCLE
  5
153
330
1F
100
AcDbEntity
  8
0
  6
CENTER
 62
     7
100
AcDbCircle
 10
89.5
 20
0.6999969482421875
 30
0.0
 40
24.53499984741211
  0
TEXT
  5
155
330
1F
100
AcDbEntity
  8
0
 62
     7
100
AcDbText
 10
143.5321421659354
 20
-102.3750183582306
 30
0.0
 40
4.150000095367432
  1
ＣＮ４１２
 41
0.6600000138340222
  7
FDASTYLE0
 72
     5
 11
163.0964288747672
 21
-102.3750183582306
 31
0.0
100
AcDbText
  0
VIEWPORT
  5
2B
330
1B
100
AcDbEntity
 67
     1
  8
0
100
AcDbViewport
 10
55.93749988024145
 20
-34.5875107049942
 30
0.0
 40
593.6249992814487
 41
406.7250459194183
 68
     1
 69
     1
1001
ACAD
1000
MVIEW
1002
{
1070
    16
1010
0.0
1020
0.0
1030
0.0
1010
0.0
1020
0.0
1030
1.0
1040
0.0
1040
406.7250459194183
1040
55.93749988024145
1040
-34.5875107049942
1040
50.0
1040
0.0
1040
0.0
1070
     0
1070
   100
1070
     0
1070
     1
1070
     0
1070
     0
1070
     0
1070
     0
1040
0.0
1040
0.0
1040
0.0
1040
0.5
1040
0.5
1040
0.0
1040
0.0
1070
     0
1002
{
1002
}
1002
}
  0
ENDSEC
  0
SECTION
  2
OBJECTS
  0
DICTIONARY
  5
C
330
0
100
AcDbDictionary
  3
ACAD_GROUP
350
D
  3
ACAD_LAYOUT
350
1A
  3
ACAD_MLINESTYLE
350
17
  3
ACAD_PLOTSETTINGS
350
19
  3
ACDBHEADERROUNDTRIPXREC
350
156
  0
DICTIONARY
  5
D
102
{ACAD_REACTORS
330
C
102
}
330
C
100
AcDbDictionary
  0
DICTIONARY
  5
1A
102
{ACAD_REACTORS
330
C
102
}
330
C
100
AcDbDictionary
  0
DICTIONARY
  5
17
102
{ACAD_REACTORS
330
C
102
}
330
C
100
AcDbDictionary
  3
STANDARD
350
18
  0
DICTIONARY
  5
19
102
{ACAD_REACTORS
330
C
102
}
330
C
100
AcDbDictionary
  0
DICTIONARY
  5
156
102
{ACAD_REACTORS
330
C
102
}
330
C
100
AcDbDictionary
  3
CEPSNTYPE
350
15F
  3
DIMSTYLEDATA
350
175
  3
FINGERPRINTGUID
350
160
  3
HYPERLINKBASE
350
159
  3
INSUNITS
350
15E
  3
LAYOUTDICT
350
15B
  3
LWETCUNION
350
15D
  3
PLOTSETDICT
350
15C
  3
PSVPSCALE
350
162
  3
PUCSBASE
350
165
  3
PUCSORGBACK
350
16B
  3
PUCSORGBOTTOM
350
167
  3
PUCSORGFRONT
350
16A
  3
PUCSORGLEFT
350
168
  3
PUCSORGRIGHT
350
169
  3
PUCSORGTOP
350
166
  3
PUCSORTHOREF
350
163
  3
PUCSORTHOVIEW
350
164
  3
STYLESHEET
350
15A
  3
TSTACKALIGN
350
157
  3
TSTACKSIZE
350
158
  3
UCSBASE
350
16E
  3
UCSORGBACK
350
174
  3
UCSORGBOTTOM
350
170
  3
UCSORGFRONT
350
173
  3
UCSORGLEFT
350
171
  3
UCSORGRIGHT
350
172
  3
UCSORGTOP
350
16F
  3
UCSORTHOREF
350
16C
  3
UCSORTHOVIEW
350
16D
  3
VERSIONGUID
350
161
  0
MLINESTYLE
  5
18
102
{ACAD_REACTORS
330
17
102
}
330
17
100
AcDbMlineStyle
  2
Standard
 70
     0
  3

 62
   256
 51
90.0
 52
90.0
 71
     2
 49
0.5
 62
   256
  6
BYLAYER
 49
-0.5
 62
   256
  6
BYLAYER
  0
XRECORD
  5
15F
102
{ACAD_REACTORS
330
156
102
}
330
156
100
AcDbXrecord
 90
        0
  0
XRECORD
  5
175
102
{ACAD_REACTORS
330
156
102
}
330
156
100
AcDbXrecord
1000
DSTYLE
1002
{
1070
   171
 70
     2
1070
   143
 40
25.4
1070
   274
 70
     2
1070
   141
 40
0.09
1070
   271
 70
     4
1070
    43
 40
0.38
1070
    44
 40
0.18
1070
   278
 70
    46
1070
    42
 40
0.0625
1070
   147
 40
0.09
1070
    77
 70
     3
1070
   272
 70
     4
1070
    73
 70
     1
1070
   172
 70
     0
1070
    74
 70
     1
1070
   283
 70
     1
1070
   340
340
11
1070
   140
 40
0.18
1070
   284
 70
     0
1070
    78
 70
     0
1002
}
  0
XRECORD
  5
160
102
{ACAD_REACTORS
330
156
102
}
330
156
100
AcDbXrecord
  1
{9FE083E7-E406-42E5-BD8D-DEF4CCEFB14E}
  0
XRECORD
  5
159
102
{ACAD_REACTORS
330
156
102
}
330
156
100
AcDbXrecord
  1

  0
XRECORD
  5
15E
102
{ACAD_REACTORS
330
156
102
}
330
156
100
AcDbXrecord
 90
        4
  0
XRECORD
  5
15B
102
{ACAD_REACTORS
330
156
102
}
330
156
100
AcDbXrecord
340
1A
  0
XRECORD
  5
15D
102
{ACAD_REACTORS
330
156
102
}
330
156
100
AcDbXrecord
 90
    10781
  0
XRECORD
  5
15C
102
{ACAD_REACTORS
330
156
102
}
330
156
100
AcDbXrecord
340
19
  0
XRECORD
  5
162
102
{ACAD_REACTORS
330
156
102
}
330
156
100
AcDbXrecord
 40
0.0
  0
XRECORD
  5
165
102
{ACAD_REACTORS
330
156
102
}
330
156
100
AcDbXrecord
340
0
  0
XRECORD
  5
16B
102
{ACAD_REACTORS
330
156
102
}
330
156
100
AcDbXrecord
 10
0.0
 20
0.0
 30
0.0
  0
XRECORD
  5
167
102
{ACAD_REACTORS
330
156
102
}
330
156
100
AcDbXrecord
 10
0.0
 20
0.0
 30
0.0
  0
XRECORD
  5
16A
102
{ACAD_REACTORS
330
156
102
}
330
156
100
AcDbXrecord
 10
0.0
 20
0.0
 30
0.0
  0
XRECORD
  5
168
102
{ACAD_REACTORS
330
156
102
}
330
156
100
AcDbXrecord
 10
0.0
 20
0.0
 30
0.0
  0
XRECORD
  5
169
102
{ACAD_REACTORS
330
156
102
}
330
156
100
AcDbXrecord
 10
0.0
 20
0.0
 30
0.0
  0
XRECORD
  5
166
102
{ACAD_REACTORS
330
156
102
}
330
156
100
AcDbXrecord
 10
0.0
 20
0.0
 30
0.0
  0
XRECORD
  5
163
102
{ACAD_REACTORS
330
156
102
}
330
156
100
AcDbXrecord
340
0
  0
XRECORD
  5
164
102
{ACAD_REACTORS
330
156
102
}
330
156
100
AcDbXrecord
 70
     0
  0
XRECORD
  5
15A
102
{ACAD_REACTORS
330
156
102
}
330
156
100
AcDbXrecord
  1

  0
XRECORD
  5
157
102
{ACAD_REACTORS
330
156
102
}
330
156
100
AcDbXrecord
 90
        1
  0
XRECORD
  5
158
102
{ACAD_REACTORS
330
156
102
}
330
156
100
AcDbXrecord
 90
       70
  0
XRECORD
  5
16E
102
{ACAD_REACTORS
330
156
102
}
330
156
100
AcDbXrecord
340
0
  0
XRECORD
  5
174
102
{ACAD_REACTORS
330
156
102
}
330
156
100
AcDbXrecord
 10
0.0
 20
0.0
 30
0.0
  0
XRECORD
  5
170
102
{ACAD_REACTORS
330
156
102
}
330
156
100
AcDbXrecord
 10
0.0
 20
0.0
 30
0.0
  0
XRECORD
  5
173
102
{ACAD_REACTORS
330
156
102
}
330
156
100
AcDbXrecord
 10
0.0
 20
0.0
 30
0.0
  0
XRECORD
  5
171
102
{ACAD_REACTORS
330
156
102
}
330
156
100
AcDbXrecord
 10
0.0
 20
0.0
 30
0.0
  0
XRECORD
  5
172
102
{ACAD_REACTORS
330
156
102
}
330
156
100
AcDbXrecord
 10
0.0
 20
0.0
 30
0.0
  0
XRECORD
  5
16F
102
{ACAD_REACTORS
330
156
102
}
330
156
100
AcDbXrecord
 10
0.0
 20
0.0
 30
0.0
  0
XRECORD
  5
16C
102
{ACAD_REACTORS
330
156
102
}
330
156
100
AcDbXrecord
340
0
  0
XRECORD
  5
16D
102
{ACAD_REACTORS
330
156
102
}
330
156
100
AcDbXrecord
 70
     0
  0
XRECORD
  5
161
102
{ACAD_REACTORS
330
156
102
}
330
156
100
AcDbXrecord
  1
{FAEB1C32-E019-11D5-929B-00C0DF256EC4}
  0
ENDSEC
  0
EOF
