  0
SECTION
  2
HEADER
  9
$ACADVER
  1
AC1014
  9
$ACADMAINTVER
 70
     9
  9
$DWGCODEPAGE
  3
ANSI_932
  9
$INSBASE
 10
0.0
 20
0.0
 30
0.0
  9
$EXTMIN
 10
-238.5416565219413
 20
-252.9500489234925
 30
0.0
  9
$EXTMAX
 10
366.5833283026717
 20
176.2750427722932
 30
0.0
  9
$LIMMIN
 10
-210.0
 20
-148.5
  9
$LIMMAX
 10
210.0
 20
148.5
  9
$ORTHOMODE
 70
     0
  9
$REGENMODE
 70
     1
  9
$FILLMODE
 70
     1
  9
$QTEXTMODE
 70
     0
  9
$MIRRTEXT
 70
     1
  9
$DRAGMODE
 70
     2
  9
$LTSCALE
 40
1.0
  9
$OSMODE
 70
    37
  9
$ATTMODE
 70
     1
  9
$TEXTSIZE
 40
0.2
  9
$TRACEWID
 40
0.05
  9
$TEXTSTYLE
  7
STANDARD
  9
$CLAYER
  8
0
  9
$CELTYPE
  6
BYLAYER
  9
$CECOLOR
 62
   256
  9
$CELTSCALE
 40
1.0
  9
$DELOBJ
 70
     1
  9
$DISPSILH
 70
     0
  9
$DIMSCALE
 40
1.0
  9
$DIMASZ
 40
2.5
  9
$DIMEXO
 40
0.0625
  9
$DIMDLI
 40
0.38
  9
$DIMRND
 40
0.0
  9
$DIMDLE
 40
0.0
  9
$DIMEXE
 40
0.18
  9
$DIMTP
 40
0.0
  9
$DIMTM
 40
0.0
  9
$DIMTXT
 40
0.18
  9
$DIMCEN
 40
0.09
  9
$DIMTSZ
 40
0.0
  9
$DIMTOL
 70
     0
  9
$DIMLIM
 70
     0
  9
$DIMTIH
 70
     1
  9
$DIMTOH
 70
     1
  9
$DIMSE1
 70
     0
  9
$DIMSE2
 70
     0
  9
$DIMTAD
 70
     3
  9
$DIMZIN
 70
     0
  9
$DIMBLK
  1

  9
$DIMASO
 70
     1
  9
$DIMSHO
 70
     1
  9
$DIMPOST
  1

  9
$DIMAPOST
  1

  9
$DIMALT
 70
     0
  9
$DIMALTD
 70
     2
  9
$DIMALTF
 40
25.4
  9
$DIMLFAC
 40
1.0
  9
$DIMTOFL
 70
     0
  9
$DIMTVP
 40
0.0
  9
$DIMTIX
 70
     0
  9
$DIMSOXD
 70
     0
  9
$DIMSAH
 70
     0
  9
$DIMBLK1
  1

  9
$DIMBLK2
  1

  9
$DIMSTYLE
  2
STANDARD
  9
$DIMCLRD
 70
     0
  9
$DIMCLRE
 70
     0
  9
$DIMCLRT
 70
     0
  9
$DIMTFAC
 40
1.0
  9
$DIMGAP
 40
0.09
  9
$DIMJUST
 70
     0
  9
$DIMSD1
 70
     0
  9
$DIMSD2
 70
     0
  9
$DIMTOLJ
 70
     1
  9
$DIMTZIN
 70
     0
  9
$DIMALTZ
 70
     0
  9
$DIMALTTZ
 70
     0
  9
$DIMFIT
 70
     3
  9
$DIMUPT
 70
     0
  9
$DIMUNIT
 70
     2
  9
$DIMDEC
 70
     4
  9
$DIMTDEC
 70
     4
  9
$DIMALTU
 70
     2
  9
$DIMALTTD
 70
     2
  9
$DIMTXSTY
  7
STANDARD
  9
$DIMAUNIT
 70
     0
  9
$LUNITS
 70
     2
  9
$LUPREC
 70
     4
  9
$SKETCHINC
 40
0.1
  9
$FILLETRAD
 40
0.5
  9
$AUNITS
 70
     0
  9
$AUPREC
 70
     0
  9
$MENU
  1
.
  9
$ELEVATION
 40
0.0
  9
$PELEVATION
 40
0.0
  9
$THICKNESS
 40
0.0
  9
$LIMCHECK
 70
     0
  9
$CHAMFERA
 40
0.5
  9
$CHAMFERB
 40
0.5
  9
$CHAMFERC
 40
1.0
  9
$CHAMFERD
 40
0.0
  9
$SKPOLY
 70
     0
  9
$TDCREATE
 40
2454068.486050463
  9
$TDUPDATE
 40
2454068.486050475
  9
$TDINDWG
 40
0.0000000116
  9
$TDUSRTIMER
 40
0.0000000116
  9
$USRTIMER
 70
     1
  9
$ANGBASE
 50
0.0
  9
$ANGDIR
 70
     0
  9
$PDMODE
 70
     0
  9
$PDSIZE
 40
1.0
  9
$PLINEWID
 40
0.0
  9
$COORDS
 70
     1
  9
$SPLFRAME
 70
     0
  9
$SPLINETYPE
 70
     6
  9
$SPLINESEGS
 70
     8
  9
$ATTDIA
 70
     0
  9
$ATTREQ
 70
     1
  9
$HANDLING
 70
     1
  9
$HANDSEED
  5
212
  9
$SURFTAB1
 70
     6
  9
$SURFTAB2
 70
     6
  9
$SURFTYPE
 70
     6
  9
$SURFU
 70
     6
  9
$SURFV
 70
     6
  9
$UCSNAME
  2

  9
$UCSORG
 10
0.0
 20
0.0
 30
0.0
  9
$UCSXDIR
 10
1.0
 20
0.0
 30
0.0
  9
$UCSYDIR
 10
0.0
 20
1.0
 30
0.0
  9
$PUCSNAME
  2

  9
$PUCSORG
 10
0.0
 20
0.0
 30
0.0
  9
$PUCSXDIR
 10
1.0
 20
0.0
 30
0.0
  9
$PUCSYDIR
 10
0.0
 20
1.0
 30
0.0
  9
$USERI1
 70
     0
  9
$USERI2
 70
     0
  9
$USERI3
 70
     0
  9
$USERI4
 70
     0
  9
$USERI5
 70
     0
  9
$USERR1
 40
0.0
  9
$USERR2
 40
0.0
  9
$USERR3
 40
0.0
  9
$USERR4
 40
0.0
  9
$USERR5
 40
0.0
  9
$WORLDVIEW
 70
     1
  9
$SHADEDGE
 70
     3
  9
$SHADEDIF
 70
    70
  9
$TILEMODE
 70
     1
  9
$MAXACTVP
 70
    64
  9
$PINSBASE
 10
0.0
 20
0.0
 30
0.0
  9
$PLIMCHECK
 70
     0
  9
$PEXTMIN
 10
1.000000000000000E+20
 20
1.000000000000000E+20
 30
1.000000000000000E+20
  9
$PEXTMAX
 10
-1.000000000000000E+20
 20
-1.000000000000000E+20
 30
-1.000000000000000E+20
  9
$PLIMMIN
 10
0.0
 20
0.0
  9
$PLIMMAX
 10
12.0
 20
9.0
  9
$UNITMODE
 70
     0
  9
$VISRETAIN
 70
     0
  9
$PLINEGEN
 70
     1
  9
$PSLTSCALE
 70
     0
  9
$TREEDEPTH
 70
  3020
  9
$PICKSTYLE
 70
     1
  9
$CMLSTYLE
  2
STANDARD
  9
$CMLJUST
 70
     0
  9
$CMLSCALE
 40
1.0
  9
$PROXYGRAPHICS
 70
     0
  9
$MEASUREMENT
 70
     1
  0
ENDSEC
  0
SECTION
  2
CLASSES
  0
CLASS
  1
ACDBDICTIONARYWDFLT
  2
AcDbDictionaryWithDefault
  3
ObjectDBX Classes
 90
        0
280
     0
281
     0
  0
CLASS
  1
XRECORD
  2
AcDbXrecord
  3
AutoCAD 2000
 90
        0
280
     0
281
     0
  0
CLASS
  1
LWPOLYLINE
  2
AcDbPolyline
  3
AutoCAD 2000
 90
        0
280
     0
281
     1
  0
CLASS
  1
HATCH
  2
AcDbHatch
  3
AutoCAD 2000
 90
        0
280
     0
281
     1
  0
CLASS
  1
ACDBPLACEHOLDER
  2
AcDbPlaceHolder
  3
ObjectDBX Classes
 90
        0
280
     0
281
     0
  0
CLASS
  1
LAYOUT
  2
AcDbLayout
  3
ObjectDBX Classes
 90
        0
280
     0
281
     0
  0
ENDSEC
  0
SECTION
  2
TABLES
  0
TABLE
  2
VPORT
  5
8
330
0
100
AcDbSymbolTable
 70
     1
  0
VPORT
  5
29
330
8
100
AcDbSymbolTableRecord
100
AcDbViewportTableRecord
  2
*ACTIVE
 70
     0
 10
0.0
 20
0.0
 11
1.0
 21
1.0
 12
0.0
 22
0.0
 13
0.0
 23
0.0
 14
0.5
 24
0.5
 15
0.5
 25
0.5
 16
0.0
 26
0.0
 36
1.0
 17
64.02305019953839
 27
-38.33750307559964
 37
0.0
 40
145.9365311765671
 41
1.409838992144815
 42
50.0
 43
0.0
 44
0.0
 50
0.0
 51
0.0
 71
     0
 72
  1000
 73
     1
 74
     1
 75
     0
 76
     0
 77
     0
 78
     0
  0
ENDTAB
  0
TABLE
  2
LTYPE
  5
5
330
0
100
AcDbSymbolTable
 70
    28
  0
LTYPE
  5
14
330
5
100
AcDbSymbolTableRecord
100
AcDbLinetypeTableRecord
  2
BYBLOCK
 70
     0
  3

 72
    65
 73
     0
 40
0.0
  0
LTYPE
  5
15
330
5
100
AcDbSymbolTableRecord
100
AcDbLinetypeTableRecord
  2
BYLAYER
 70
     0
  3

 72
    65
 73
     0
 40
0.0
  0
LTYPE
  5
16
330
5
100
AcDbSymbolTableRecord
100
AcDbLinetypeTableRecord
  2
CONTINUOUS
 70
     0
  3
Solid line
 72
    65
 73
     0
 40
0.0
  0
LTYPE
  5
2C
330
5
100
AcDbSymbolTableRecord
100
AcDbLinetypeTableRecord
  2
HIDDENX2
 70
     0
  3
CADPAC LINETYPE
 72
    65
 73
     2
 40
7.713498622589498
 49
5.785123966942123
 74
     0
 49
-1.928374655647374
 74
     0
  0
LTYPE
  5
2D
330
5
100
AcDbSymbolTableRecord
100
AcDbLinetypeTableRecord
  2
HIDDEN
 70
     0
  3
CADPAC LINETYPE
 72
    65
 73
     2
 40
5.785123966942123
 49
3.856749311294749
 74
     0
 49
-1.928374655647374
 74
     0
  0
LTYPE
  5
2E
330
5
100
AcDbSymbolTableRecord
100
AcDbLinetypeTableRecord
  2
HIDDEN2
 70
     0
  3
CADPAC LINETYPE
 72
    65
 73
     2
 40
4.820936639118436
 49
2.892561983471062
 74
     0
 49
-1.928374655647374
 74
     0
  0
LTYPE
  5
2F
330
5
100
AcDbSymbolTableRecord
100
AcDbLinetypeTableRecord
  2
DASHED
 70
     0
  3
CADPAC LINETYPE
 72
    65
 73
     2
 40
4.628099173553665
 49
2.314049586776832
 74
     0
 49
-2.314049586776832
 74
     0
  0
LTYPE
  5
30
330
5
100
AcDbSymbolTableRecord
100
AcDbLinetypeTableRecord
  2
DASHED2
 70
     0
  3
CADPAC LINETYPE
 72
    65
 73
     2
 40
2.699724517906276
 49
2.314049586776832
 74
     0
 49
-0.3856749311294436
 74
     0
  0
LTYPE
  5
31
330
5
100
AcDbSymbolTableRecord
100
AcDbLinetypeTableRecord
  2
DASHEDX2
 70
     0
  3
CADPAC LINETYPE
 72
    65
 73
     2
 40
2.699724517906276
 49
2.314049586776832
 74
     0
 49
-0.3856749311294436
 74
     0
  0
LTYPE
  5
32
330
5
100
AcDbSymbolTableRecord
100
AcDbLinetypeTableRecord
  2
DOTX2
 70
     0
  3
CADPAC LINETYPE
 72
    65
 73
     2
 40
0.4820936639118045
 49
0.0
 74
     0
 49
-0.4820936639118045
 74
     0
  0
LTYPE
  5
33
330
5
100
AcDbSymbolTableRecord
100
AcDbLinetypeTableRecord
  2
DOT
 70
     0
  3
CADPAC LINETYPE
 72
    65
 73
     2
 40
0.3856749311294436
 49
0.0
 74
     0
 49
-0.3856749311294436
 74
     0
  0
LTYPE
  5
34
330
5
100
AcDbSymbolTableRecord
100
AcDbLinetypeTableRecord
  2
DOT2
 70
     0
  3
CADPAC LINETYPE
 72
    65
 73
     2
 40
0.2892561983470827
 49
0.0
 74
     0
 49
-0.2892561983470827
 74
     0
  0
LTYPE
  5
35
330
5
100
AcDbSymbolTableRecord
100
AcDbLinetypeTableRecord
  2
CENTERX2
 70
     0
  3
CADPAC LINETYPE
 72
    65
 73
     4
 40
11.57024793388425
 49
4.820936639118436
 74
     0
 49
-2.410468319559218
 74
     0
 49
1.928374655647374
 74
     0
 49
-2.410468319559218
 74
     0
  0
LTYPE
  5
36
330
5
100
AcDbSymbolTableRecord
100
AcDbLinetypeTableRecord
  2
CENTER
 70
     0
  3
CADPAC LINETYPE
 72
    65
 73
     4
 40
8.870523415977923
 49
3.856749311294749
 74
     0
 49
-1.928374655647374
 74
     0
 49
1.157024793388425
 74
     0
 49
-1.928374655647374
 74
     0
  0
LTYPE
  5
37
330
5
100
AcDbSymbolTableRecord
100
AcDbLinetypeTableRecord
  2
CENTER2
 70
     0
  3
CADPAC LINETYPE
 72
    65
 73
     4
 40
6.170798898071598
 49
2.892561983471062
 74
     0
 49
-1.446280991735531
 74
     0
 49
0.3856749311294749
 74
     0
 49
-1.446280991735531
 74
     0
  0
LTYPE
  5
38
330
5
100
AcDbSymbolTableRecord
100
AcDbLinetypeTableRecord
  2
DASHDOTX2
 70
     0
  3
CADPAC LINETYPE
 72
    65
 73
     4
 40
5.39944903581258
 49
4.628099173553693
 74
     0
 49
-0.3856749311294436
 74
     0
 49
0.0
 74
     0
 49
-0.3856749311294436
 74
     0
  0
LTYPE
  5
39
330
5
100
AcDbSymbolTableRecord
100
AcDbLinetypeTableRecord
  2
DASHDOT
 70
     0
  3
CADPAC LINETYPE
 72
    65
 73
     4
 40
6.556473829200996
 49
4.628099173553693
 74
     0
 49
-0.3856749311294436
 74
     0
 49
1.157024793388416
 74
     0
 49
-0.3856749311294436
 74
     0
  0
LTYPE
  5
3A
330
5
100
AcDbSymbolTableRecord
100
AcDbLinetypeTableRecord
  2
DASHDOT2
 70
     0
  3
CADPAC LINETYPE
 72
    65
 73
     4
 40
4.165289256198276
 49
3.47107438016527
 74
     0
 49
-0.2892561983470827
 74
     0
 49
0.1157024793388416
 74
     0
 49
-0.2892561983470827
 74
     0
  0
LTYPE
  5
3B
330
5
100
AcDbSymbolTableRecord
100
AcDbLinetypeTableRecord
  2
DIVIDEX2
 70
     0
  3
CADPAC LINETYPE
 72
    65
 73
     6
 40
5.785123966942024
 49
4.628099173553693
 74
     0
 49
-0.3856749311294436
 74
     0
 49
0.0
 74
     0
 49
-0.3856749311294436
 74
     0
 49
0.0
 74
     0
 49
-0.3856749311294436
 74
     0
  0
LTYPE
  5
3C
330
5
100
AcDbSymbolTableRecord
100
AcDbLinetypeTableRecord
  2
DIVIDE
 70
     0
  3
CADPAC LINETYPE
 72
    65
 73
     6
 40
8.099173553718856
 49
4.628099173553693
 74
     0
 49
-0.3856749311294436
 74
     0
 49
1.157024793388416
 74
     0
 49
-0.3856749311294436
 74
     0
 49
1.157024793388416
 74
     0
 49
-0.3856749311294436
 74
     0
  0
LTYPE
  5
3D
330
5
100
AcDbSymbolTableRecord
100
AcDbLinetypeTableRecord
  2
DIVIDE2
 70
     0
  3
CADPAC LINETYPE
 72
    65
 73
     6
 40
6.074380165289142
 49
3.47107438016527
 74
     0
 49
-0.2892561983470827
 74
     0
 49
0.8677685950413121
 74
     0
 49
-0.2892561983470827
 74
     0
 49
0.8677685950413121
 74
     0
 49
-0.2892561983470827
 74
     0
  0
LTYPE
  5
3E
330
5
100
AcDbSymbolTableRecord
100
AcDbLinetypeTableRecord
  2
BORDERX2
 70
     0
  3
CADPAC LINETYPE
 72
    65
 73
     6
 40
16.87327823691453
 49
4.820936639118436
 74
     0
 49
-2.410468319559218
 74
     0
 49
4.820936639118436
 74
     0
 49
-2.410468319559218
 74
     0
 49
0.0
 74
     0
 49
-2.410468319559218
 74
     0
  0
LTYPE
  5
3F
330
5
100
AcDbSymbolTableRecord
100
AcDbLinetypeTableRecord
  2
BORDER
 70
     0
  3
CADPAC LINETYPE
 72
    65
 73
     6
 40
13.49862258953162
 49
3.856749311294749
 74
     0
 49
-1.928374655647374
 74
     0
 49
3.856749311294749
 74
     0
 49
-1.928374655647374
 74
     0
 49
0.0
 74
     0
 49
-1.928374655647374
 74
     0
  0
LTYPE
  5
40
330
5
100
AcDbSymbolTableRecord
100
AcDbLinetypeTableRecord
  2
BORDER2
 70
     0
  3
CADPAC LINETYPE
 72
    65
 73
     6
 40
5.013774104683094
 49
2.314049586776832
 74
     0
 49
-0.3856749311294436
 74
     0
 49
0.0
 74
     0
 49
-0.3856749311294436
 74
     0
 49
0.0
 74
     0
 49
-1.928374655647374
 74
     0
  0
LTYPE
  5
41
330
5
100
AcDbSymbolTableRecord
100
AcDbLinetypeTableRecord
  2
PHANTOMX2
 70
     0
  3
CADPAC LINETYPE
 72
    65
 73
     6
 40
14.46280991735531
 49
4.820936639118436
 74
     0
 49
-1.928374655647374
 74
     0
 49
1.928374655647374
 74
     0
 49
-1.928374655647374
 74
     0
 49
1.928374655647374
 74
     0
 49
-1.928374655647374
 74
     0
  0
LTYPE
  5
42
330
5
100
AcDbSymbolTableRecord
100
AcDbLinetypeTableRecord
  2
PHANTOM
 70
     0
  3
CADPAC LINETYPE
 72
    65
 73
     6
 40
11.95592286501372
 49
3.856749311294749
 74
     0
 49
-1.928374655647374
 74
     0
 49
1.157024793388425
 74
     0
 49
-1.928374655647374
 74
     0
 49
1.157024793388425
 74
     0
 49
-1.928374655647374
 74
     0
  0
LTYPE
  5
43
330
5
100
AcDbSymbolTableRecord
100
AcDbLinetypeTableRecord
  2
PHANTOM2
 70
     0
  3
CADPAC LINETYPE
 72
    65
 73
     6
 40
10.22038567493108
 49
2.892561983471062
 74
     0
 49
-1.928374655647374
 74
     0
 49
0.7713498622589499
 74
     0
 49
-1.928374655647374
 74
     0
 49
0.7713498622589499
 74
     0
 49
-1.928374655647374
 74
     0
  0
LTYPE
  5
44
330
5
100
AcDbSymbolTableRecord
100
AcDbLinetypeTableRecord
  2
ACAD_ISO06W100
 70
     0
  3
CADPAC LINETYPE
 72
    65
 73
     8
 40
6.170798898071467
 49
4.628099173553693
 74
     0
 49
-0.3856749311294436
 74
     0
 49
0.0
 74
     0
 49
-0.3856749311294436
 74
     0
 49
0.0
 74
     0
 49
-0.3856749311294436
 74
     0
 49
0.0
 74
     0
 49
-0.3856749311294436
 74
     0
  0
LTYPE
  5
45
330
5
100
AcDbSymbolTableRecord
100
AcDbLinetypeTableRecord
  2
ACAD_ISO13W100
 70
     0
  3
CADPAC LINETYPE
 72
    65
 73
     8
 40
15.426997245179
 49
3.856749311294749
 74
     0
 49
-1.928374655647374
 74
     0
 49
3.856749311294749
 74
     0
 49
-1.928374655647374
 74
     0
 49
0.0
 74
     0
 49
-1.928374655647374
 74
     0
 49
0.0
 74
     0
 49
-1.928374655647374
 74
     0
  0
LTYPE
  5
46
330
5
100
AcDbSymbolTableRecord
100
AcDbLinetypeTableRecord
  2
ACAD_ISO14W100
 70
     0
  3
CADPAC LINETYPE
 72
    65
 73
     8
 40
11.57024793388425
 49
3.856749311294749
 74
     0
 49
-1.928374655647374
 74
     0
 49
0.0
 74
     0
 49
-1.928374655647374
 74
     0
 49
0.0
 74
     0
 49
-1.928374655647374
 74
     0
 49
0.0
 74
     0
 49
-1.928374655647374
 74
     0
  0
ENDTAB
  0
TABLE
  2
LAYER
  5
2
330
0
100
AcDbSymbolTable
 70
     1
  0
LAYER
  5
10
330
2
100
AcDbSymbolTableRecord
100
AcDbLayerTableRecord
  2
0
 70
     0
 62
     7
  6
CONTINUOUS
  0
ENDTAB
  0
TABLE
  2
STYLE
  5
3
330
0
100
AcDbSymbolTable
 70
     2
  0
STYLE
  5
11
330
3
100
AcDbSymbolTableRecord
100
AcDbTextStyleTableRecord
  2
STANDARD
 70
     0
 40
0.0
 41
1.0
 50
0.0
 71
     0
 42
0.2
  3
txt
  4

  0
STYLE
  5
1F0
330
3
100
AcDbSymbolTableRecord
100
AcDbTextStyleTableRecord
  2
FDASTYLE0
 70
     0
 40
4.150000095367432
 41
0.6600000138340222
 50
0.0
 71
     0
 42
0.2
  3
txt.shx
  4
bigfont
  0
ENDTAB
  0
TABLE
  2
VIEW
  5
6
330
0
100
AcDbSymbolTable
 70
     0
  0
ENDTAB
  0
TABLE
  2
UCS
  5
7
330
0
100
AcDbSymbolTable
 70
     0
  0
ENDTAB
  0
TABLE
  2
APPID
  5
9
330
0
100
AcDbSymbolTable
 70
     2
  0
APPID
  5
12
330
9
100
AcDbSymbolTableRecord
100
AcDbRegAppTableRecord
  2
ACAD
 70
     0
  0
APPID
  5
2A
330
9
100
AcDbSymbolTableRecord
100
AcDbRegAppTableRecord
  2
DAFUSIONOUT
 70
     0
  0
ENDTAB
  0
TABLE
  2
DIMSTYLE
  5
A
330
0
100
AcDbSymbolTable
 70
     1
  0
DIMSTYLE
105
27
330
A
100
AcDbSymbolTableRecord
100
AcDbDimStyleTableRecord
  2
STANDARD
 70
     0
  3

  4

  5

  6

  7

 40
1.0
 41
0.18
 42
0.0625
 43
0.38
 44
0.18
 45
0.0
 46
0.0
 47
0.0
 48
0.0
140
0.18
141
0.09
142
0.0
143
25.4
144
1.0
145
0.0
146
1.0
147
0.09
 71
     0
 72
     0
 73
     1
 74
     1
 75
     0
 76
     0
 77
     0
 78
     0
170
     0
171
     2
172
     0
173
     0
174
     0
175
     0
176
     0
177
     0
178
     0
270
     2
271
     4
272
     4
273
     2
274
     2
340
11
275
     0
280
     0
281
     0
282
     0
283
     1
284
     0
285
     0
286
     0
287
     3
288
     0
  0
ENDTAB
  0
TABLE
  2
BLOCK_RECORD
  5
1
330
0
100
AcDbSymbolTable
 70
     1
  0
BLOCK_RECORD
  5
1F
330
1
100
AcDbSymbolTableRecord
100
AcDbBlockTableRecord
  2
*MODEL_SPACE
  0
BLOCK_RECORD
  5
1B
330
1
100
AcDbSymbolTableRecord
100
AcDbBlockTableRecord
  2
*PAPER_SPACE
  0
ENDTAB
  0
ENDSEC
  0
SECTION
  2
BLOCKS
  0
BLOCK
  5
20
330
1F
100
AcDbEntity
  8
0
100
AcDbBlockBegin
  2
*MODEL_SPACE
 70
     0
 71
     0
 10
0.0
 20
0.0
 30
0.0
  3
*MODEL_SPACE
  1

  0
ENDBLK
  5
21
330
1F
100
AcDbEntity
  8
0
100
AcDbBlockEnd
  0
BLOCK
  5
1C
330
1B
100
AcDbEntity
 67
     1
  8
0
100
AcDbBlockBegin
  2
*PAPER_SPACE
 70
     0
 71
     0
 10
0.0
 20
0.0
 30
0.0
  3
*PAPER_SPACE
  1

  0
ENDBLK
  5
1D
330
1B
100
AcDbEntity
 67
     1
  8
0
100
AcDbBlockEnd
  0
ENDSEC
  0
SECTION
  2
ENTITIES
  0
LINE
  5
47
330
1F
100
AcDbEntity
  8
0
 62
     7
100
AcDbLine
 10
100.3466864983694
 20
17.01871827112768
 30
0.0
 11
98.49216985345609
 21
18.25786579590996
 31
0.0
  0
LINE
  5
48
330
1F
100
AcDbEntity
  8
0
 62
     7
100
AcDbLine
 10
105.9122612333068
 20
22.55808143487533
 30
0.0
 11
106.8250156112724
 21
17.96936061170371
 31
0.0
  0
LINE
  5
49
330
1F
100
AcDbEntity
  8
0
 62
     7
100
AcDbLine
 10
107.4533956173331
 20
27.1123120346287
 30
0.0
 11
107.5509408868775
 21
26.62191941601634
 31
0.0
  0
LINE
  5
4A
330
1F
100
AcDbEntity
  8
0
 62
     7
100
AcDbLine
 10
108.2447544785509
 20
19.08876637984037
 30
0.0
 11
107.0056062172477
 21
20.94328253262628
 31
0.0
  0
LINE
  5
4B
330
1F
100
AcDbEntity
  8
0
 62
     7
100
AcDbLine
 10
115.5063869919225
 20
22.07690918933955
 30
0.0
 11
114.593633635071
 21
17.48818816305553
 31
0.0
  0
LINE
  5
4C
330
1F
100
AcDbEntity
  8
0
 62
     7
100
AcDbLine
 10
118.6730089690413
 20
25.69470828760129
 30
0.0
 11
118.5754638086224
 21
25.2043156472825
 31
0.0
  0
LINE
  5
4D
330
1F
100
AcDbEntity
  8
0
 62
     7
100
AcDbLine
 10
116.3340837155415
 20
17.97905751205749
 30
0.0
 11
115.8989525735626
 21
20.16660853174017
 31
0.0
  0
LINE
  5
4E
330
1F
100
AcDbEntity
  8
0
 62
     7
100
AcDbLine
 10
124.186436908101
 20
17.96084691180479
 30
0.0
 11
121.5871352366144
 21
14.07071707231211
 31
0.0
  0
LINE
  5
4F
330
1F
100
AcDbEntity
  8
0
 62
     7
100
AcDbLine
 10
128.4964859243544
 20
20.09144366831438
 30
0.0
 11
128.2187008068098
 21
19.67570886285438
 31
0.0
  0
LINE
  5
50
330
1F
100
AcDbEntity
  8
0
 62
     7
100
AcDbLine
 10
123.3829719877955
 20
13.8581609002141
 30
0.0
 11
123.8181027206884
 21
16.04571200126901
 31
0.0
  0
LINE
  5
51
330
1F
100
AcDbEntity
  8
0
 62
     7
100
AcDbLine
 10
130.630595479708
 20
10.83642534648408
 30
0.0
 11
126.7404656402153
 21
8.237123674997577
 31
0.0
  0
LINE
  5
52
330
1F
100
AcDbEntity
  8
0
 62
     7
100
AcDbLine
 10
135.4279204490625
 20
11.15544730598197
 30
0.0
 11
135.0121856436026
 21
10.87766218843748
 31
0.0
  0
LINE
  5
53
330
1F
100
AcDbEntity
  8
0
 62
     7
100
AcDbLine
 10
128.3182866761691
 20
7.353474465748491
 30
0.0
 11
129.5574345694202
 21
9.207990864458907
 31
0.0
  0
LINE
  5
54
330
1F
100
AcDbEntity
  8
0
 62
     7
100
AcDbLine
 10
133.8578585398086
 20
1.788247326256141
 30
0.0
 11
129.2691375295904
 21
0.875493888636754
 31
0.0
  0
LINE
  5
55
330
1F
100
AcDbEntity
  8
0
 62
     7
100
AcDbLine
 10
138.4120858469017
 20
0.2471269745473137
 30
0.0
 11
137.9216932082998
 21
0.1495818054968083
 31
0.0
  0
LINE
  5
56
330
1F
100
AcDbEntity
  8
0
 62
     7
100
AcDbLine
 10
130.3886797024183
 20
-0.5447162863173105
 30
0.0
 11
132.243195773415
 21
0.6944320973919957
 31
0.0
  0
LINE
  5
57
330
1F
100
AcDbEntity
  8
0
 62
     7
100
AcDbLine
 10
133.3768879409069
 20
-7.806192148987208
 30
0.0
 11
128.7881668800556
 21
-6.893438965917
 31
0.0
  0
LINE
  5
58
330
1F
100
AcDbEntity
  8
0
 62
     7
100
AcDbLine
 10
136.9946826938309
 20
-10.9728364374885
 30
0.0
 11
136.5042900498179
 21
-10.87529129564149
 31
0.0
  0
LINE
  5
59
330
1F
100
AcDbEntity
  8
0
 62
     7
100
AcDbLine
 10
129.2789690697616
 20
-8.63397577849463
 30
0.0
 11
131.4665200614077
 21
-8.198844495566561
 31
0.0
  0
LINE
  5
5A
330
1F
100
AcDbEntity
  8
0
 62
     7
100
AcDbLine
 10
129.2609092837558
 20
-16.48625011510279
 30
0.0
 11
125.3707792721136
 21
-13.88694870125613
 31
0.0
  0
LINE
  5
5B
330
1F
100
AcDbEntity
  8
0
 62
     7
100
AcDbLine
 10
131.3915041776117
 20
-20.79632967021169
 30
0.0
 11
130.9757693537543
 21
-20.51854458020088
 31
0.0
  0
LINE
  5
5C
330
1F
100
AcDbEntity
  8
0
 62
     7
100
AcDbLine
 10
125.1581332825218
 20
-15.68280398558346
 30
0.0
 11
127.3456844064151
 21
-16.11793460365996
 31
0.0
  0
LINE
  5
5D
330
1F
100
AcDbEntity
  8
0
 62
     7
100
AcDbLine
 10
122.1365143467777
 20
-22.93048560365935
 30
0.0
 11
119.5372124185258
 21
-19.04035593573173
 31
0.0
  0
LINE
  5
5E
330
1F
100
AcDbEntity
  8
0
 62
     7
100
AcDbLine
 10
122.4555259937501
 20
-27.72782682993737
 30
0.0
 11
122.1777408487653
 21
-27.31209204281247
 31
0.0
  0
LINE
  5
5F
330
1F
100
AcDbEntity
  8
0
 62
     7
100
AcDbLine
 10
118.6535246729169
 20
-20.61811528104553
 30
0.0
 11
120.508041153695
 21
-21.85726305147369
 31
0.0
  0
LINE
  5
60
330
1F
100
AcDbEntity
  8
0
 62
     7
100
AcDbLine
 10
113.0882969372171
 20
-26.15782123282153
 30
0.0
 11
112.1755432039352
 21
-21.56910028141422
 31
0.0
  0
LINE
  5
61
330
1F
100
AcDbEntity
  8
0
 62
     7
100
AcDbLine
 10
111.5471723729937
 20
-30.71206509322981
 30
0.0
 11
111.4496271723461
 21
-30.2216724609131
 31
0.0
  0
LINE
  5
62
330
1F
100
AcDbEntity
  8
0
 62
     7
100
AcDbLine
 10
110.7553691371261
 20
-22.688574035553
 30
0.0
 11
111.9945176432414
 21
-24.54309002476062
 31
0.0
  0
LINE
  5
63
330
1F
100
AcDbEntity
  8
0
 62
     7
100
AcDbLine
 10
103.4937495009859
 20
-25.67687725242368
 30
0.0
 11
104.4065024432114
 21
-21.08815614366546
 31
0.0
  0
LINE
  5
64
330
1F
100
AcDbEntity
  8
0
 62
     7
100
AcDbLine
 10
100.32709345431
 20
-29.29469313152657
 30
0.0
 11
100.4246385704181
 21
-28.80430048239379
 31
0.0
  0
LINE
  5
65
330
1F
100
AcDbEntity
  8
0
 62
     7
100
AcDbLine
 10
102.6660764850403
 20
-21.5789407722571
 30
0.0
 11
103.101207934355
 21
-23.76649173080681
 31
0.0
  0
LINE
  5
66
330
1F
100
AcDbEntity
  8
0
 62
     7
100
AcDbLine
 10
94.81356397834328
 20
-21.56083399180449
 30
0.0
 11
97.41286513455009
 21
-17.67070380801289
 31
0.0
  0
LINE
  5
67
330
1F
100
AcDbEntity
  8
0
 62
     7
100
AcDbLine
 10
90.5034835118685
 20
-23.6914238799761
 30
0.0
 11
90.7812685743455
 21
-23.27568903772129
 31
0.0
  0
LINE
  5
68
330
1F
100
AcDbEntity
  8
0
 62
     7
100
AcDbLine
 10
95.61713846070381
 20
-17.45814177595602
 30
0.0
 11
95.18200802138493
 21
-19.6456929354064
 31
0.0
  0
LINE
  5
69
330
1F
100
AcDbEntity
  8
0
 62
     7
100
AcDbLine
 10
88.36926193878854
 20
-14.43628430736484
 30
0.0
 11
92.25939143515106
 21
-11.83698212234765
 31
0.0
  0
LINE
  5
6A
330
1F
100
AcDbEntity
  8
0
 62
     7
100
AcDbLine
 10
83.57192536241251
 20
-14.75529633226549
 30
0.0
 11
83.98766013120232
 21
-14.4775111598403
 31
0.0
  0
LINE
  5
6B
330
1F
100
AcDbEntity
  8
0
 62
     7
100
AcDbLine
 10
90.68171000781832
 20
-10.95346225943854
 30
0.0
 11
89.44256236021313
 21
-12.80797882228421
 31
0.0
  0
LINE
  5
6C
330
1F
100
AcDbEntity
  8
0
 62
     7
100
AcDbLine
 10
85.14198488543408
 20
-5.387905996234167
 30
0.0
 11
89.73070576741668
 21
-4.475151913930858
 31
0.0
  0
LINE
  5
6D
330
1F
100
AcDbEntity
  8
0
 62
     7
100
AcDbLine
 10
80.5877543849798
 20
-3.846771318767793
 30
0.0
 11
81.0781470098772
 21
-3.749226080820591
 31
0.0
  0
LINE
  5
6E
330
1F
100
AcDbEntity
  8
0
 62
     7
100
AcDbLine
 10
88.6111971317508
 20
-3.055166825747904
 30
0.0
 11
86.7566812653662
 21
-4.294315515680694
 31
0.0
  0
LINE
  5
6F
330
1F
100
AcDbEntity
  8
0
 62
     7
100
AcDbLine
 10
85.62309133715941
 20
4.206734445873394
 30
0.0
 11
90.21181252050404
 21
3.293981878619405
 31
0.0
  0
LINE
  5
70
330
1F
100
AcDbEntity
  8
0
 62
     7
100
AcDbLine
 10
82.00529913610448
 20
7.373393214455206
 30
0.0
 11
82.4956917932082
 21
7.275848138419889
 31
0.0
  0
LINE
  5
71
330
1F
100
AcDbEntity
  8
0
 62
     7
100
AcDbLine
 10
89.72088264961532
 20
5.034298576018244
 30
0.0
 11
87.53333173052141
 21
4.599166928346136
 31
0.0
  0
LINE
  5
72
330
1F
100
AcDbEntity
  8
0
 62
     7
100
AcDbLine
 10
89.73933063553957
 20
12.88686242001452
 30
0.0
 11
93.6294609914805
 21
10.2875615214474
 31
0.0
  0
LINE
  5
73
330
1F
100
AcDbEntity
  8
0
 62
     7
100
AcDbLine
 10
87.60874152877315
 20
17.19695120832444
 30
0.0
 11
88.02447638942547
 21
16.91916617338112
 31
0.0
  0
LINE
  5
74
330
1F
100
AcDbEntity
  8
0
 62
     7
100
AcDbLine
 10
93.84183501339943
 20
12.08332032100788
 30
0.0
 11
91.6542838120326
 21
12.5184505495983
 31
0.0
  0
LINE
  5
75
330
1F
100
AcDbEntity
  8
0
 62
     7
100
AcDbLine
 10
96.8639507898563
 20
19.33099977661959
 30
0.0
 11
99.46325323163872
 21
15.44087045182221
 31
0.0
  0
LINE
  5
76
330
1F
100
AcDbEntity
  8
0
 62
     7
100
AcDbLine
 10
96.54494743296011
 20
24.12832857159867
 30
0.0
 11
96.82273263282551
 21
23.71259382114391
 31
0.0
  0
LINE
  5
77
330
1F
100
AcDbEntity
  8
0
 62
     7
100
AcDbLine
 10
-22.05000305175781
 20
23.86000061035159
 30
0.0
 11
-14.06578063964841
 21
23.86000061035159
 31
0.0
  0
LINE
  5
78
330
1F
100
AcDbEntity
  8
0
 62
     7
100
AcDbLine
 10
-14.50000263007993
 20
22.61001683992643
 30
0.0
 11
-14.00000463390154
 21
22.90263564921932
 31
0.0
  0
LINE
  5
79
330
1F
100
AcDbEntity
  8
0
 62
     7
100
AcDbLine
 10
-14.0
 20
22.9026184082031
 30
0.0
 11
-12.15000915527341
 21
22.9026184082031
 31
0.0
  0
LINE
  5
7A
330
1F
100
AcDbEntity
  8
0
 62
     7
100
AcDbLine
 10
-12.1499938964844
 20
22.9026184082031
 30
0.0
 11
-12.1499938964844
 21
22.61000061035159
 31
0.0
  0
LINE
  5
7B
330
1F
100
AcDbEntity
  8
0
 62
     7
100
AcDbLine
 10
-14.0
 20
23.8979797363281
 30
0.0
 11
-12.15000915527341
 21
23.8979797363281
 31
0.0
  0
LINE
  5
7C
330
1F
100
AcDbEntity
  8
0
 62
     7
100
AcDbLine
 10
-12.1499938964844
 20
23.8979797363281
 30
0.0
 11
-12.1499938964844
 21
23.86000061035159
 31
0.0
  0
LINE
  5
7D
330
1F
100
AcDbEntity
  8
0
 62
     7
100
AcDbLine
 10
-14.06580823969856
 20
23.86002119154708
 30
0.0
 11
-14.00002646206326
 21
23.89800031437667
 31
0.0
  0
LINE
  5
7E
330
1F
100
AcDbEntity
  8
0
 62
     7
100
AcDbLine
 10
-12.15000915527341
 20
23.86000061035159
 30
0.0
 11
-10.5
 21
23.86000061035159
 31
0.0
  0
LINE
  5
7F
330
1F
100
AcDbEntity
  8
0
 62
     7
100
AcDbLine
 10
-22.05000305175781
 20
21.36000061035159
 30
0.0
 11
-14.06578063964841
 21
21.36000061035159
 31
0.0
  0
LINE
  5
80
330
1F
100
AcDbEntity
  8
0
 62
     7
100
AcDbLine
 10
-14.49999597726023
 20
22.61001395411529
 30
0.0
 11
-14.00001116541279
 21
22.31740282628996
 31
0.0
  0
LINE
  5
81
330
1F
100
AcDbEntity
  8
0
 62
     7
100
AcDbLine
 10
-14.0
 20
22.3173828125
 30
0.0
 11
-12.15000915527341
 21
22.3173828125
 31
0.0
  0
LINE
  5
82
330
1F
100
AcDbEntity
  8
0
 62
     7
100
AcDbLine
 10
-12.1499938964844
 20
22.3173828125
 30
0.0
 11
-12.1499938964844
 21
22.61000061035159
 31
0.0
  0
LINE
  5
83
330
1F
100
AcDbEntity
  8
0
 62
     7
100
AcDbLine
 10
-14.0
 20
21.322021484375
 30
0.0
 11
-12.15000915527341
 21
21.322021484375
 31
0.0
  0
LINE
  5
84
330
1F
100
AcDbEntity
  8
0
 62
     7
100
AcDbLine
 10
-12.1499938964844
 20
21.322021484375
 30
0.0
 11
-12.1499938964844
 21
21.36000061035159
 31
0.0
  0
LINE
  5
85
330
1F
100
AcDbEntity
  8
0
 62
     7
100
AcDbLine
 10
-14.06576309481434
 20
21.35997927133246
 30
0.0
 11
-14.00000773818732
 21
21.32201542113015
 31
0.0
  0
LINE
  5
86
330
1F
100
AcDbEntity
  8
0
 62
     7
100
AcDbLine
 10
-12.15000915527341
 20
21.36000061035159
 30
0.0
 11
-10.5
 21
21.36000061035159
 31
0.0
  0
LINE
  5
87
330
1F
100
AcDbEntity
  8
0
 62
     7
100
AcDbLine
 10
-21.80000305175781
 20
21.36000061035159
 30
0.0
 11
-14.06578063964841
 21
21.36000061035159
 31
0.0
  0
LINE
  5
88
330
1F
100
AcDbEntity
  8
0
 62
     7
100
AcDbLine
 10
-14.49999597726023
 20
22.61001395411529
 30
0.0
 11
-14.00001116541279
 21
22.31740282628996
 31
0.0
  0
LINE
  5
89
330
1F
100
AcDbEntity
  8
0
 62
     7
100
AcDbLine
 10
-14.0
 20
22.3173828125
 30
0.0
 11
-12.15000915527341
 21
22.3173828125
 31
0.0
  0
LINE
  5
8A
330
1F
100
AcDbEntity
  8
0
 62
     7
100
AcDbLine
 10
-12.1499938964844
 20
22.3173828125
 30
0.0
 11
-12.1499938964844
 21
22.61000061035159
 31
0.0
  0
LINE
  5
8B
330
1F
100
AcDbEntity
  8
0
 62
     7
100
AcDbLine
 10
-14.0
 20
21.322021484375
 30
0.0
 11
-12.15000915527341
 21
21.322021484375
 31
0.0
  0
LINE
  5
8C
330
1F
100
AcDbEntity
  8
0
 62
     7
100
AcDbLine
 10
-12.1499938964844
 20
21.322021484375
 30
0.0
 11
-12.1499938964844
 21
21.36000061035159
 31
0.0
  0
LINE
  5
8D
330
1F
100
AcDbEntity
  8
0
 62
     7
100
AcDbLine
 10
-14.06576309481434
 20
21.35997927133246
 30
0.0
 11
-14.00000773818732
 21
21.32201542113015
 31
0.0
  0
LINE
  5
8E
330
1F
100
AcDbEntity
  8
0
 62
     7
100
AcDbLine
 10
-12.15000915527341
 20
21.36000061035159
 30
0.0
 11
-10.5
 21
21.36000061035159
 31
0.0
  0
LINE
  5
8F
330
1F
100
AcDbEntity
  8
0
 62
     7
100
AcDbLine
 10
-21.80000305175781
 20
23.86000061035159
 30
0.0
 11
-14.06578063964841
 21
23.86000061035159
 31
0.0
  0
LINE
  5
90
330
1F
100
AcDbEntity
  8
0
 62
     7
100
AcDbLine
 10
-14.50002159947854
 20
22.61001587964057
 30
0.0
 11
-14.00002357943748
 21
22.90263464815934
 31
0.0
  0
LINE
  5
91
330
1F
100
AcDbEntity
  8
0
 62
     7
100
AcDbLine
 10
-14.0
 20
22.9026184082031
 30
0.0
 11
-12.15000915527341
 21
22.9026184082031
 31
0.0
  0
LINE
  5
92
330
1F
100
AcDbEntity
  8
0
 62
     7
100
AcDbLine
 10
-12.1499938964844
 20
22.9026184082031
 30
0.0
 11
-12.1499938964844
 21
22.61000061035159
 31
0.0
  0
LINE
  5
93
330
1F
100
AcDbEntity
  8
0
 62
     7
100
AcDbLine
 10
-14.0
 20
23.8979797363281
 30
0.0
 11
-12.15000915527341
 21
23.8979797363281
 31
0.0
  0
LINE
  5
94
330
1F
100
AcDbEntity
  8
0
 62
     7
100
AcDbLine
 10
-12.1499938964844
 20
23.8979797363281
 30
0.0
 11
-12.1499938964844
 21
23.86000061035159
 31
0.0
  0
LINE
  5
95
330
1F
100
AcDbEntity
  8
0
 62
     7
100
AcDbLine
 10
-14.06575922310475
 20
23.85996999003578
 30
0.0
 11
-13.99997743747588
 21
23.89794909902025
 31
0.0
  0
LINE
  5
96
330
1F
100
AcDbEntity
  8
0
 62
     7
100
AcDbLine
 10
-12.15000915527341
 20
23.86000061035159
 30
0.0
 11
-10.5
 21
23.86000061035159
 31
0.0
  0
LINE
  5
97
330
1F
100
AcDbEntity
  8
0
 62
     7
100
AcDbLine
 10
1.050003051757813
 20
23.86000061035159
 30
0.0
 11
-6.934219360351591
 21
23.86000061035159
 31
0.0
  0
LINE
  5
98
330
1F
100
AcDbEntity
  8
0
 62
     7
100
AcDbLine
 10
-6.500010322543943
 20
22.61001812813484
 30
0.0
 11
-6.999995134391241
 21
22.90262925596011
 31
0.0
  0
LINE
  5
99
330
1F
100
AcDbEntity
  8
0
 62
     7
100
AcDbLine
 10
-7.0
 20
22.9026184082031
 30
0.0
 11
-8.850006103515597
 21
22.9026184082031
 31
0.0
  0
LINE
  5
9A
330
1F
100
AcDbEntity
  8
0
 62
     7
100
AcDbLine
 10
-8.850006103515597
 20
22.9026184082031
 30
0.0
 11
-8.850006103515597
 21
22.61000061035159
 31
0.0
  0
LINE
  5
9B
330
1F
100
AcDbEntity
  8
0
 62
     7
100
AcDbLine
 10
-7.0
 20
23.8979797363281
 30
0.0
 11
-8.850006103515597
 21
23.8979797363281
 31
0.0
  0
LINE
  5
9C
330
1F
100
AcDbEntity
  8
0
 62
     7
100
AcDbLine
 10
-8.850006103515597
 20
23.8979797363281
 30
0.0
 11
-8.850006103515597
 21
23.86000061035159
 31
0.0
  0
LINE
  5
9D
330
1F
100
AcDbEntity
  8
0
 62
     7
100
AcDbLine
 10
-6.934224552113051
 20
23.85999647252726
 30
0.0
 11
-7.000006337741866
 21
23.89797558151176
 31
0.0
  0
LINE
  5
9E
330
1F
100
AcDbEntity
  8
0
 62
     7
100
AcDbLine
 10
-8.850006103515597
 20
23.86000061035159
 30
0.0
 11
-10.5
 21
23.86000061035159
 31
0.0
  0
LINE
  5
9F
330
1F
100
AcDbEntity
  8
0
 62
     7
100
AcDbLine
 10
1.050003051757813
 20
21.36000061035159
 30
0.0
 11
-6.934219360351591
 21
21.36000061035159
 31
0.0
  0
LINE
  5
A0
330
1F
100
AcDbEntity
  8
0
 62
     7
100
AcDbLine
 10
-6.500006556860569
 20
22.61000574087495
 30
0.0
 11
-7.000011161541266
 21
22.31738311876276
 31
0.0
  0
LINE
  5
A1
330
1F
100
AcDbEntity
  8
0
 62
     7
100
AcDbLine
 10
-7.0
 20
22.3173828125
 30
0.0
 11
-8.850006103515597
 21
22.3173828125
 31
0.0
  0
LINE
  5
A2
330
1F
100
AcDbEntity
  8
0
 62
     7
100
AcDbLine
 10
-8.850006103515597
 20
22.3173828125
 30
0.0
 11
-8.850006103515597
 21
22.61000061035159
 31
0.0
  0
LINE
  5
A3
330
1F
100
AcDbEntity
  8
0
 62
     7
100
AcDbLine
 10
-7.0
 20
21.322021484375
 30
0.0
 11
-8.850006103515597
 21
21.322021484375
 31
0.0
  0
LINE
  5
A4
330
1F
100
AcDbEntity
  8
0
 62
     7
100
AcDbLine
 10
-8.850006103515597
 20
21.322021484375
 30
0.0
 11
-8.850006103515597
 21
21.36000061035159
 31
0.0
  0
LINE
  5
A5
330
1F
100
AcDbEntity
  8
0
 62
     7
100
AcDbLine
 10
-6.934214210086651
 20
21.35998735830427
 30
0.0
 11
-6.999995995715494
 21
21.32200824931977
 31
0.0
  0
LINE
  5
A6
330
1F
100
AcDbEntity
  8
0
 62
     7
100
AcDbLine
 10
-8.850006103515597
 20
21.36000061035159
 30
0.0
 11
-10.5
 21
21.36000061035159
 31
0.0
  0
LINE
  5
A7
330
1F
100
AcDbEntity
  8
0
 62
     7
100
AcDbLine
 10
0.8000030517578125
 20
21.36000061035159
 30
0.0
 11
-6.934219360351591
 21
21.36000061035159
 31
0.0
  0
LINE
  5
A8
330
1F
100
AcDbEntity
  8
0
 62
     7
100
AcDbLine
 10
-6.500006556860569
 20
22.61000574087495
 30
0.0
 11
-7.000011161541266
 21
22.31738311876276
 31
0.0
  0
LINE
  5
A9
330
1F
100
AcDbEntity
  8
0
 62
     7
100
AcDbLine
 10
-7.0
 20
22.3173828125
 30
0.0
 11
-8.850006103515597
 21
22.3173828125
 31
0.0
  0
LINE
  5
AA
330
1F
100
AcDbEntity
  8
0
 62
     7
100
AcDbLine
 10
-8.850006103515597
 20
22.3173828125
 30
0.0
 11
-8.850006103515597
 21
22.61000061035159
 31
0.0
  0
LINE
  5
AB
330
1F
100
AcDbEntity
  8
0
 62
     7
100
AcDbLine
 10
-7.0
 20
21.322021484375
 30
0.0
 11
-8.850006103515597
 21
21.322021484375
 31
0.0
  0
LINE
  5
AC
330
1F
100
AcDbEntity
  8
0
 62
     7
100
AcDbLine
 10
-8.850006103515597
 20
21.322021484375
 30
0.0
 11
-8.850006103515597
 21
21.36000061035159
 31
0.0
  0
LINE
  5
AD
330
1F
100
AcDbEntity
  8
0
 62
     7
100
AcDbLine
 10
-6.934214210086651
 20
21.35998735830427
 30
0.0
 11
-6.999995995715494
 21
21.32200824931977
 31
0.0
  0
LINE
  5
AE
330
1F
100
AcDbEntity
  8
0
 62
     7
100
AcDbLine
 10
-8.850006103515597
 20
21.36000061035159
 30
0.0
 11
-10.5
 21
21.36000061035159
 31
0.0
  0
LINE
  5
AF
330
1F
100
AcDbEntity
  8
0
 62
     7
100
AcDbLine
 10
0.8000030517578125
 20
23.86000061035159
 30
0.0
 11
-6.934219360351591
 21
23.86000061035159
 31
0.0
  0
LINE
  5
B0
330
1F
100
AcDbEntity
  8
0
 62
     7
100
AcDbLine
 10
-6.500005543013884
 20
22.60998996071038
 30
0.0
 11
-6.999990447743301
 21
22.90260092982811
 31
0.0
  0
LINE
  5
B1
330
1F
100
AcDbEntity
  8
0
 62
     7
100
AcDbLine
 10
-7.0
 20
22.9026184082031
 30
0.0
 11
-8.850006103515597
 21
22.9026184082031
 31
0.0
  0
LINE
  5
B2
330
1F
100
AcDbEntity
  8
0
 62
     7
100
AcDbLine
 10
-8.850006103515597
 20
22.9026184082031
 30
0.0
 11
-8.850006103515597
 21
22.61000061035159
 31
0.0
  0
LINE
  5
B3
330
1F
100
AcDbEntity
  8
0
 62
     7
100
AcDbLine
 10
-7.0
 20
23.8979797363281
 30
0.0
 11
-8.850006103515597
 21
23.8979797363281
 31
0.0
  0
LINE
  5
B4
330
1F
100
AcDbEntity
  8
0
 62
     7
100
AcDbLine
 10
-8.850006103515597
 20
23.8979797363281
 30
0.0
 11
-8.850006103515597
 21
23.86000061035159
 31
0.0
  0
LINE
  5
B5
330
1F
100
AcDbEntity
  8
0
 62
     7
100
AcDbLine
 10
-6.934224552113051
 20
23.85999647252726
 30
0.0
 11
-7.000006337741866
 21
23.89797558151176
 31
0.0
  0
LINE
  5
B6
330
1F
100
AcDbEntity
  8
0
 62
     7
100
AcDbLine
 10
-8.850006103515597
 20
23.86000061035159
 30
0.0
 11
-10.5
 21
23.86000061035159
 31
0.0
  0
LINE
  5
B7
330
1F
100
AcDbEntity
  8
0
 62
     7
100
AcDbLine
 10
-22.3500061035156
 20
23.55999755859381
 30
0.0
 11
-22.3500061035156
 21
21.6600036621094
 31
0.0
  0
LINE
  5
B8
330
1F
100
AcDbEntity
  8
0
 62
     7
100
AcDbLine
 10
1.350006103515597
 20
23.55999755859381
 30
0.0
 11
1.350006103515597
 21
21.6600036621094
 31
0.0
  0
LINE
  5
B9
330
1F
100
AcDbEntity
  8
0
 62
     7
100
AcDbLine
 10
-22.3499711349584
 20
23.5599690904661
 30
0.0
 11
-22.04996910439931
 21
23.85997094400719
 31
0.0
  0
LINE
  5
BA
330
1F
100
AcDbEntity
  8
0
 62
     7
100
AcDbLine
 10
-22.34998578267107
 20
21.66000041702279
 30
0.0
 11
-22.04999184430926
 21
21.36000665567411
 31
0.0
  0
LINE
  5
BB
330
1F
100
AcDbEntity
  8
0
 62
     7
100
AcDbLine
 10
1.350013327039193
 20
23.55997924786141
 30
0.0
 11
1.050019388677384
 21
23.85997300921
 31
0.0
  0
LINE
  5
BC
330
1F
100
AcDbEntity
  8
0
 62
     7
100
AcDbLine
 10
1.350033369543667
 20
21.65997407523614
 30
0.0
 11
1.050031338984667
 21
21.35997222169502
 31
0.0
  0
LINE
  5
BD
330
1F
100
AcDbEntity
  8
0
 62
     7
100
AcDbLine
 10
-22.05000305175781
 20
23.86000061035159
 30
0.0
 11
-22.05000305175781
 21
21.36000061035159
 31
0.0
  0
LINE
  5
BE
330
1F
100
AcDbEntity
  8
0
 62
     7
100
AcDbLine
 10
1.050003051757813
 20
23.86000061035159
 30
0.0
 11
1.050003051757813
 21
21.36000061035159
 31
0.0
  0
LINE
  5
BF
330
1F
100
AcDbEntity
  8
0
 62
     7
100
AcDbLine
 10
-20.1000061035156
 20
27.30000305175781
 30
0.0
 11
-0.8999938964844034
 21
27.30000305175781
 31
0.0
  0
LINE
  5
C0
330
1F
100
AcDbEntity
  8
0
 62
     7
100
AcDbLine
 10
1.100006103515597
 20
25.30000305175781
 30
0.0
 11
1.100006103515597
 21
23.80998229980469
 31
0.0
  0
LINE
  5
C1
330
1F
100
AcDbEntity
  8
0
 62
     7
100
AcDbLine
 10
-22.1000061035156
 20
25.30000305175781
 30
0.0
 11
-22.1000061035156
 21
23.80995178222659
 31
0.0
  0
LINE
  5
C2
330
1F
100
AcDbEntity
  8
0
 62
     7
100
AcDbLine
 10
-33.5
 20
-1.800003051757813
 30
0.0
 11
-33.5
 21
-18.69999694824219
 31
0.0
  0
LINE
  5
C3
330
1F
100
AcDbEntity
  8
0
 62
     7
100
AcDbLine
 10
-22.1000061035156
 20
-28.90000152587891
 30
0.0
 11
-22.1000061035156
 21
-1.800003051757813
 31
0.0
  0
LINE
  5
C4
330
1F
100
AcDbEntity
  8
0
 62
     7
100
AcDbLine
 10
1.100006103515597
 20
-1.800003051757813
 30
0.0
 11
1.100006103515597
 21
-28.90000152587891
 31
0.0
  0
LINE
  5
C5
330
1F
100
AcDbEntity
  8
0
 62
     7
100
AcDbLine
 10
-0.8999938964844034
 20
-30.90000152587891
 30
0.0
 11
-20.1000061035156
 21
-30.90000152587891
 31
0.0
  0
LINE
  5
C6
330
1F
100
AcDbEntity
  8
0
 62
     7
100
AcDbLine
 10
-31.8999938964844
 20
-20.30000305175781
 30
0.0
 11
-22.1000061035156
 21
-20.30000305175781
 31
0.0
  0
LINE
  5
C7
330
1F
100
AcDbEntity
  8
0
 62
     7
100
AcDbLine
 10
10.8999938964844
 20
-20.30000305175781
 30
0.0
 11
1.100006103515597
 21
-20.30000305175781
 31
0.0
  0
LINE
  5
C8
330
1F
100
AcDbEntity
  8
0
 62
     7
100
AcDbLine
 10
12.5
 20
-1.800003051757813
 30
0.0
 11
12.5
 21
-18.69999694824219
 31
0.0
  0
LINE
  5
C9
330
1F
100
AcDbEntity
  8
0
 62
     7
100
AcDbLine
 10
-33.49999292454257
 20
-18.70000672271578
 30
0.0
 11
-31.89998256694182
 21
-20.30001708031642
 31
0.0
  0
LINE
  5
CA
330
1F
100
AcDbEntity
  8
0
 62
     7
100
AcDbLine
 10
10.89999508766348
 20
-20.30000359332487
 30
0.0
 11
12.50000274786578
 21
-18.69999593312258
 31
0.0
  0
LINE
  5
CB
330
1F
100
AcDbEntity
  8
0
 62
     7
100
AcDbLine
 10
-31.89997863769531
 20
-1.800003051757813
 30
0.0
 11
-31.89997863769531
 21
-20.30000305175781
 31
0.0
  0
LINE
  5
CC
330
1F
100
AcDbEntity
  8
0
 62
     7
100
AcDbLine
 10
10.8999938964844
 20
-20.30000305175781
 30
0.0
 11
10.8999938964844
 21
-1.800003051757813
 31
0.0
  0
LINE
  5
CD
330
1F
100
AcDbEntity
  8
0
 62
     7
100
AcDbLine
 10
-20.80000305175781
 20
-3.846817016601591
 30
0.0
 11
-19.5
 21
-3.846817016601591
 31
0.0
  0
LINE
  5
CE
330
1F
100
AcDbEntity
  8
0
 62
     7
100
AcDbLine
 10
-19.5
 20
-3.846817016601591
 30
0.0
 11
-19.5
 21
-1.800003051757813
 31
0.0
  0
LINE
  5
CF
330
1F
100
AcDbEntity
  8
0
 62
     7
100
AcDbLine
 10
-11.80000305175781
 20
-1.800003051757813
 30
0.0
 11
-11.80000305175781
 21
-3.846817016601591
 31
0.0
  0
LINE
  5
D0
330
1F
100
AcDbEntity
  8
0
 62
     7
100
AcDbLine
 10
-11.80000305175781
 20
-3.846817016601591
 30
0.0
 11
-9.199996948242188
 21
-3.846817016601591
 31
0.0
  0
LINE
  5
D1
330
1F
100
AcDbEntity
  8
0
 62
     7
100
AcDbLine
 10
-9.199996948242188
 20
-1.800003051757813
 30
0.0
 11
-9.199996948242188
 21
-3.846817016601591
 31
0.0
  0
LINE
  5
D2
330
1F
100
AcDbEntity
  8
0
 62
     7
100
AcDbLine
 10
-1.5
 20
-1.800003051757813
 30
0.0
 11
-1.5
 21
-3.846817016601591
 31
0.0
  0
LINE
  5
D3
330
1F
100
AcDbEntity
  8
0
 62
     7
100
AcDbLine
 10
-1.5
 20
-3.846817016601591
 30
0.0
 11
-0.1999969482421875
 21
-3.846817016601591
 31
0.0
  0
LINE
  5
D4
330
1F
100
AcDbEntity
  8
0
 62
     7
100
AcDbLine
 10
-1.5
 20
-12.2553405761719
 30
0.0
 11
-1.5
 21
-14.7553405761719
 31
0.0
  0
LINE
  5
D5
330
1F
100
AcDbEntity
  8
0
 62
     7
100
AcDbLine
 10
-1.5
 20
-14.7553405761719
 30
0.0
 11
-0.1999969482421875
 21
-14.7553405761719
 31
0.0
  0
LINE
  5
D6
330
1F
100
AcDbEntity
  8
0
 62
     7
100
AcDbLine
 10
-1.5
 20
-12.2553405761719
 30
0.0
 11
-9.199996948242188
 21
-12.2553405761719
 31
0.0
  0
LINE
  5
D7
330
1F
100
AcDbEntity
  8
0
 62
     7
100
AcDbLine
 10
-9.199996948242188
 20
-12.2553405761719
 30
0.0
 11
-9.199996948242188
 21
-14.7553405761719
 31
0.0
  0
LINE
  5
D8
330
1F
100
AcDbEntity
  8
0
 62
     7
100
AcDbLine
 10
-9.199996948242188
 20
-14.7553405761719
 30
0.0
 11
-11.80000305175781
 21
-14.7553405761719
 31
0.0
  0
LINE
  5
D9
330
1F
100
AcDbEntity
  8
0
 62
     7
100
AcDbLine
 10
-11.80000305175781
 20
-14.7553405761719
 30
0.0
 11
-11.80000305175781
 21
-12.2553405761719
 31
0.0
  0
LINE
  5
DA
330
1F
100
AcDbEntity
  8
0
 62
     7
100
AcDbLine
 10
-11.80000305175781
 20
-12.2553405761719
 30
0.0
 11
-19.5
 21
-12.2553405761719
 31
0.0
  0
LINE
  5
DB
330
1F
100
AcDbEntity
  8
0
 62
     7
100
AcDbLine
 10
-19.5
 20
-12.2553405761719
 30
0.0
 11
-19.5
 21
-14.7553405761719
 31
0.0
  0
LINE
  5
DC
330
1F
100
AcDbEntity
  8
0
 62
     7
100
AcDbLine
 10
-19.5
 20
-14.7553405761719
 30
0.0
 11
-20.80000305175781
 21
-14.7553405761719
 31
0.0
  0
LINE
  5
DD
330
1F
100
AcDbEntity
  8
0
 62
     7
100
AcDbLine
 10
-20.80000305175781
 20
-23.6914901733398
 30
0.0
 11
-19.5
 21
-23.6914901733398
 31
0.0
  0
LINE
  5
DE
330
1F
100
AcDbEntity
  8
0
 62
     7
100
AcDbLine
 10
-19.5
 20
-23.6914901733398
 30
0.0
 11
-19.5
 21
-21.891487121582
 31
0.0
  0
LINE
  5
DF
330
1F
100
AcDbEntity
  8
0
 62
     7
100
AcDbLine
 10
-19.5
 20
-21.891487121582
 30
0.0
 11
-11.80000305175781
 21
-21.891487121582
 31
0.0
  0
LINE
  5
E0
330
1F
100
AcDbEntity
  8
0
 62
     7
100
AcDbLine
 10
-11.80000305175781
 20
-21.891487121582
 30
0.0
 11
-11.80000305175781
 21
-23.6914901733398
 31
0.0
  0
LINE
  5
E1
330
1F
100
AcDbEntity
  8
0
 62
     7
100
AcDbLine
 10
-9.199996948242188
 20
-21.891487121582
 30
0.0
 11
-9.199996948242188
 21
-23.6914901733398
 31
0.0
  0
LINE
  5
E2
330
1F
100
AcDbEntity
  8
0
 62
     7
100
AcDbLine
 10
-9.199996948242188
 20
-23.6914901733398
 30
0.0
 11
-11.80000305175781
 21
-23.6914901733398
 31
0.0
  0
LINE
  5
E3
330
1F
100
AcDbEntity
  8
0
 62
     7
100
AcDbLine
 10
-9.199996948242188
 20
-21.891487121582
 30
0.0
 11
-1.5
 21
-21.891487121582
 31
0.0
  0
LINE
  5
E4
330
1F
100
AcDbEntity
  8
0
 62
     7
100
AcDbLine
 10
-1.5
 20
-21.891487121582
 30
0.0
 11
-1.5
 21
-23.6914901733398
 31
0.0
  0
LINE
  5
E5
330
1F
100
AcDbEntity
  8
0
 62
     7
100
AcDbLine
 10
-1.5
 20
-23.6914901733398
 30
0.0
 11
-0.1999969482421875
 21
-23.6914901733398
 31
0.0
  0
LINE
  5
E6
330
1F
100
AcDbEntity
  8
0
 62
     7
100
AcDbLine
 10
-0.1999969482421875
 20
-29.2947692871094
 30
0.0
 11
-1.5
 21
-29.2947692871094
 31
0.0
  0
LINE
  5
E7
330
1F
100
AcDbEntity
  8
0
 62
     7
100
AcDbLine
 10
-1.5
 20
-29.2947692871094
 30
0.0
 11
-1.5
 21
-28.3947677612305
 31
0.0
  0
LINE
  5
E8
330
1F
100
AcDbEntity
  8
0
 62
     7
100
AcDbLine
 10
-1.5
 20
-28.3947677612305
 30
0.0
 11
-9.199996948242188
 21
-28.3947677612305
 31
0.0
  0
LINE
  5
E9
330
1F
100
AcDbEntity
  8
0
 62
     7
100
AcDbLine
 10
-9.199996948242188
 20
-28.3947677612305
 30
0.0
 11
-9.199996948242188
 21
-29.2947692871094
 31
0.0
  0
LINE
  5
EA
330
1F
100
AcDbEntity
  8
0
 62
     7
100
AcDbLine
 10
-9.199996948242188
 20
-29.2947692871094
 30
0.0
 11
-11.80000305175781
 21
-29.2947692871094
 31
0.0
  0
LINE
  5
EB
330
1F
100
AcDbEntity
  8
0
 62
     7
100
AcDbLine
 10
-11.80000305175781
 20
-29.2947692871094
 30
0.0
 11
-11.80000305175781
 21
-28.3947677612305
 31
0.0
  0
LINE
  5
EC
330
1F
100
AcDbEntity
  8
0
 62
     7
100
AcDbLine
 10
-11.80000305175781
 20
-28.3947677612305
 30
0.0
 11
-19.5
 21
-28.3947677612305
 31
0.0
  0
LINE
  5
ED
330
1F
100
AcDbEntity
  8
0
 62
     7
100
AcDbLine
 10
-19.5
 20
-28.3947677612305
 30
0.0
 11
-19.5
 21
-29.2947692871094
 31
0.0
  0
LINE
  5
EE
330
1F
100
AcDbEntity
  8
0
 62
     7
100
AcDbLine
 10
-19.5
 20
-29.2947692871094
 30
0.0
 11
-20.80000305175781
 21
-29.2947692871094
 31
0.0
  0
LINE
  5
EF
330
1F
100
AcDbEntity
  8
0
 62
     7
100
AcDbLine
 10
-22.1000061035156
 20
18.61000061035159
 30
0.0
 11
-18.03999328613281
 21
18.61000061035159
 31
0.0
  0
LINE
  5
F0
330
1F
100
AcDbEntity
  8
0
 62
     7
100
AcDbLine
 10
-13.25999450683591
 20
18.61000061035159
 30
0.0
 11
-7.740005493164091
 21
18.61000061035159
 31
0.0
  0
LINE
  5
F1
330
1F
100
AcDbEntity
  8
0
 62
     7
100
AcDbLine
 10
-2.960006713867188
 20
18.61000061035159
 30
0.0
 11
1.100006103515597
 21
18.61000061035159
 31
0.0
  0
LINE
  5
F2
330
1F
100
AcDbEntity
  8
0
 62
     7
100
AcDbLine
 10
-19.5
 20
27.30000305175781
 30
0.0
 11
-19.5
 21
23.86000061035159
 31
0.0
  0
LINE
  5
F3
330
1F
100
AcDbEntity
  8
0
 62
     7
100
AcDbLine
 10
-1.5
 20
27.30000305175781
 30
0.0
 11
-1.5
 21
23.86000061035159
 31
0.0
  0
LINE
  5
F4
330
1F
100
AcDbEntity
  8
0
 62
     7
100
AcDbLine
 10
-11.80000305175781
 20
27.30000305175781
 30
0.0
 11
-11.80000305175781
 21
23.86000061035159
 31
0.0
  0
LINE
  5
F5
330
1F
100
AcDbEntity
  8
0
 62
     7
100
AcDbLine
 10
-9.199996948242188
 20
27.30000305175781
 30
0.0
 11
-9.199996948242188
 21
23.86000061035159
 31
0.0
  0
LINE
  5
F6
330
1F
100
AcDbEntity
  8
0
 62
     7
100
AcDbLine
 10
-19.5
 20
21.36000061035159
 30
0.0
 11
-19.5
 21
18.61000061035159
 31
0.0
  0
LINE
  5
F7
330
1F
100
AcDbEntity
  8
0
 62
     7
100
AcDbLine
 10
-11.80000305175781
 20
21.36000061035159
 30
0.0
 11
-11.80000305175781
 21
18.61000061035159
 31
0.0
  0
LINE
  5
F8
330
1F
100
AcDbEntity
  8
0
 62
     7
100
AcDbLine
 10
-9.199996948242188
 20
21.36000061035159
 30
0.0
 11
-9.199996948242188
 21
18.61000061035159
 31
0.0
  0
LINE
  5
F9
330
1F
100
AcDbEntity
  8
0
 62
     7
100
AcDbLine
 10
-1.5
 20
21.36000061035159
 30
0.0
 11
-1.5
 21
18.61000061035159
 31
0.0
  0
LINE
  5
FA
330
1F
100
AcDbEntity
  8
0
 62
     7
100
AcDbLine
 10
-18.03999328613281
 20
21.17048645019531
 30
0.0
 11
-18.03999328613281
 21
16.73338317871091
 31
0.0
  0
LINE
  5
FB
330
1F
100
AcDbEntity
  8
0
 62
     7
100
AcDbLine
 10
-13.25999450683591
 20
21.1466064453125
 30
0.0
 11
-13.25999450683591
 21
18.61000061035159
 31
0.0
  0
LINE
  5
FC
330
1F
100
AcDbEntity
  8
0
 62
     7
100
AcDbLine
 10
-7.740005493164091
 20
21.1466064453125
 30
0.0
 11
-7.740005493164091
 21
18.61000061035159
 31
0.0
  0
LINE
  5
FD
330
1F
100
AcDbEntity
  8
0
 62
     7
100
AcDbLine
 10
-2.960006713867188
 20
21.17048645019531
 30
0.0
 11
-2.960006713867188
 21
16.73338317871091
 31
0.0
  0
LINE
  5
FE
330
1F
100
AcDbEntity
  8
0
 62
     7
100
AcDbLine
 10
1.100006103515597
 20
21.40997314453131
 30
0.0
 11
1.100006103515597
 21
16.69999694824219
 31
0.0
  0
LINE
  5
FF
330
1F
100
AcDbEntity
  8
0
 62
     7
100
AcDbLine
 10
-22.1000061035156
 20
21.41001892089841
 30
0.0
 11
-22.1000061035156
 21
16.69999694824219
 31
0.0
  0
LINE
  5
100
330
1F
100
AcDbEntity
  8
0
 62
     7
100
AcDbLine
 10
-33.5
 20
2.964996337890597
 30
0.0
 11
-33.5
 21
-1.800003051757813
 31
0.0
  0
LINE
  5
101
330
1F
100
AcDbEntity
  8
0
 62
     7
100
AcDbLine
 10
-30.0
 20
2.964996337890597
 30
0.0
 11
-25.0
 21
2.964996337890597
 31
0.0
  0
LINE
  5
102
330
1F
100
AcDbEntity
  8
0
 62
     7
100
AcDbLine
 10
-30.0
 20
16.69999694824219
 30
0.0
 11
-25.0
 21
16.69999694824219
 31
0.0
  0
LINE
  5
103
330
1F
100
AcDbEntity
  8
0
 62
     7
100
AcDbLine
 10
-13.5
 20
2.964996337890597
 30
0.0
 11
-13.5
 21
-1.800003051757813
 31
0.0
  0
LINE
  5
104
330
1F
100
AcDbEntity
  8
0
 62
     7
100
AcDbLine
 10
4.0
 20
2.964996337890597
 30
0.0
 11
9.0
 21
2.964996337890597
 31
0.0
  0
LINE
  5
105
330
1F
100
AcDbEntity
  8
0
 62
     7
100
AcDbLine
 10
12.5
 20
2.964996337890597
 30
0.0
 11
12.5
 21
-1.800003051757813
 31
0.0
  0
LINE
  5
106
330
1F
100
AcDbEntity
  8
0
 62
     7
100
AcDbLine
 10
4.0
 20
16.69999694824219
 30
0.0
 11
9.0
 21
16.69999694824219
 31
0.0
  0
LINE
  5
107
330
1F
100
AcDbEntity
  8
0
 62
     7
100
AcDbLine
 10
-7.5
 20
2.964996337890597
 30
0.0
 11
-7.5
 21
-1.800003051757813
 31
0.0
  0
LINE
  5
108
330
1F
100
AcDbEntity
  8
0
 62
     7
100
AcDbLine
 10
-7.5
 20
19.89999771118164
 30
0.0
 11
-7.5
 21
2.964996814727783
 31
0.0
  0
LINE
  5
109
330
1F
100
AcDbEntity
  8
0
 62
     7
100
AcDbLine
 10
12.5
 20
15.09999656677246
 30
0.0
 11
12.5
 21
2.964996814727783
 31
0.0
  0
LINE
  5
10A
330
1F
100
AcDbEntity
  8
0
 62
     7
100
AcDbLine
 10
-2.799999713897705
 20
16.69999694824219
 30
0.0
 11
4.0
 21
16.69999694824219
 31
0.0
  0
LINE
  5
10B
330
1F
100
AcDbEntity
  8
0
 62
     7
100
AcDbLine
 10
-7.5
 20
2.964996814727783
 30
0.0
 11
4.0
 21
2.964996814727783
 31
0.0
  0
LINE
  5
10C
330
1F
100
AcDbEntity
  8
0
 62
     7
100
AcDbLine
 10
-7.5
 20
20.06999588012695
 30
0.0
 11
-5.349999904632568
 21
20.06999588012695
 31
0.0
  0
LINE
  5
10D
330
1F
100
AcDbEntity
  8
0
 62
     7
100
AcDbLine
 10
-3.199999809265137
 20
20.06999588012695
 30
0.0
 11
-5.349999904632568
 21
20.06999588012695
 31
0.0
  0
LINE
  5
10E
330
1F
100
AcDbEntity
  8
0
 62
     7
100
AcDbLine
 10
-3.199999809265137
 20
19.89999771118164
 30
0.0
 11
-3.199999809265137
 21
17.09999656677246
 31
0.0
  0
LINE
  5
10F
330
1F
100
AcDbEntity
  8
0
 62
     7
100
AcDbLine
 10
10.89999809960932
 20
16.69999549366324
 30
0.0
 11
12.49999851055372
 21
15.09999508271883
 31
0.0
  0
LINE
  5
110
330
1F
100
AcDbEntity
  8
0
 62
     7
100
AcDbLine
 10
-13.5
 20
19.89999771118164
 30
0.0
 11
-13.5
 21
2.964996814727783
 31
0.0
  0
LINE
  5
111
330
1F
100
AcDbEntity
  8
0
 62
     7
100
AcDbLine
 10
-33.5
 20
15.09999656677246
 30
0.0
 11
-33.5
 21
2.964996814727783
 31
0.0
  0
LINE
  5
112
330
1F
100
AcDbEntity
  8
0
 62
     7
100
AcDbLine
 10
-18.20000076293945
 20
16.69999694824219
 30
0.0
 11
-25.0
 21
16.69999694824219
 31
0.0
  0
LINE
  5
113
330
1F
100
AcDbEntity
  8
0
 62
     7
100
AcDbLine
 10
-13.5
 20
2.964996814727783
 30
0.0
 11
-25.0
 21
2.964996814727783
 31
0.0
  0
LINE
  5
114
330
1F
100
AcDbEntity
  8
0
 62
     7
100
AcDbLine
 10
-13.5
 20
20.06999588012695
 30
0.0
 11
-15.64999961853027
 21
20.06999588012695
 31
0.0
  0
LINE
  5
115
330
1F
100
AcDbEntity
  8
0
 62
     7
100
AcDbLine
 10
-17.80000019073486
 20
20.06999588012695
 30
0.0
 11
-15.64999961853027
 21
20.06999588012695
 31
0.0
  0
LINE
  5
116
330
1F
100
AcDbEntity
  8
0
 62
     7
100
AcDbLine
 10
-17.80000019073486
 20
19.89999771118164
 30
0.0
 11
-17.80000019073486
 21
17.09999656677246
 31
0.0
  0
LINE
  5
117
330
1F
100
AcDbEntity
  8
0
 62
     7
100
AcDbLine
 10
-31.89999725667232
 20
16.69999633660021
 30
0.0
 11
-33.49999749902932
 21
15.09999609424321
 31
0.0
  0
LINE
  5
118
330
1F
100
AcDbEntity
  8
0
 62
     7
100
AcDbLine
 10
-30.0
 20
16.69999694824219
 30
0.0
 11
-31.89999961853027
 21
16.69999694824219
 31
0.0
  0
LINE
  5
119
330
1F
100
AcDbEntity
  8
0
 62
     7
100
AcDbLine
 10
-30.0
 20
2.964996814727783
 30
0.0
 11
-33.5
 21
2.964996814727783
 31
0.0
  0
LINE
  5
11A
330
1F
100
AcDbEntity
  8
0
 62
     7
100
AcDbLine
 10
9.0
 20
2.964996814727783
 30
0.0
 11
12.5
 21
2.964996814727783
 31
0.0
  0
LINE
  5
11B
330
1F
100
AcDbEntity
  8
0
 62
     7
100
AcDbLine
 10
9.0
 20
16.69999694824219
 30
0.0
 11
10.89999961853027
 21
16.69999694824219
 31
0.0
  0
CIRCLE
  5
11C
330
1F
100
AcDbEntity
  8
0
 62
     7
100
AcDbCircle
 10
100.15869140625
 20
20.7519226074219
 30
0.0
 40
1.25
  0
ARC
  5
11D
330
1F
100
AcDbEntity
  8
0
 62
     7
100
AcDbCircle
 10
107.682975769043
 20
7.413528442382813
 30
0.0
 40
19.70000076293945
100
AcDbArc
 50
89.0510911532775
 51
114.7401429613691
  0
ARC
  5
11E
330
1F
100
AcDbEntity
  8
0
 62
     7
100
AcDbCircle
 10
107.9429550170898
 20
23.11138916015631
 30
0.0
 40
4.0
100
AcDbArc
 50
67.215509131502
 51
89.05109115327747
  0
ARC
  5
11F
330
1F
100
AcDbEntity
  8
0
 62
     7
100
AcDbCircle
 10
100.15869140625
 20
20.7519226074219
 30
0.0
 40
3.0
100
AcDbArc
 50
191.2499995729722
 51
236.2500042403059
  0
ARC
  5
120
330
1F
100
AcDbEntity
  8
0
 62
     7
100
AcDbCircle
 10
102.1202621459961
 20
21.14207458496091
 30
0.0
 40
5.0
100
AcDbArc
 50
133.0273734074314
 51
191.2499686097499
  0
ARC
  5
121
330
1F
100
AcDbEntity
  8
0
 62
     7
100
AcDbCircle
 10
100.4837112426758
 20
23.0368957519531
 30
0.0
 40
2.5
100
AcDbArc
 50
112.103116205854
 51
135.2413519061344
  0
ARC
  5
122
330
1F
100
AcDbEntity
  8
0
 62
     7
100
AcDbCircle
 10
110.5020217895508
 20
-6.758850097656193
 30
0.0
 40
25.0
100
AcDbArc
 50
94.15586525591829
 51
109.5711104390168
  0
ARC
  5
123
330
1F
100
AcDbEntity
  8
0
 62
     7
100
AcDbCircle
 10
108.5453109741211
 20
20.1701965332031
 30
0.0
 40
2.0
100
AcDbArc
 50
274.1559012280979
 51
291.1681744127398
  0
ARC
  5
124
330
1F
100
AcDbEntity
  8
0
 62
     7
100
AcDbCircle
 10
101.457649230957
 20
18.68128967285159
 30
0.0
 40
2.0
100
AcDbArc
 50
236.2500042403061
 51
289.5711532413852
  0
ARC
  5
125
330
1F
100
AcDbEntity
  8
0
 62
     7
100
AcDbCircle
 10
109.8350372314453
 20
23.33831787109381
 30
0.0
 40
4.0
100
AcDbArc
 50
124.8281684409379
 51
191.2499686097501
  0
CIRCLE
  5
126
330
1F
100
AcDbEntity
  8
0
 62
     7
100
AcDbCircle
 10
109.5
 20
22.61000061035159
 30
0.0
 40
1.25
  0
ARC
  5
127
330
1F
100
AcDbEntity
  8
0
 62
     7
100
AcDbCircle
 10
111.3471374511719
 20
7.407531738281307
 30
0.0
 40
19.70000076293945
100
AcDbArc
 50
66.55106832904312
 51
92.24012013713478
  0
ARC
  5
128
330
1F
100
AcDbEntity
  8
0
 62
     7
100
AcDbCircle
 10
117.5946502685547
 20
21.81095886230469
 30
0.0
 40
4.0
100
AcDbArc
 50
44.7154726468894
 51
66.55106149885391
  0
ARC
  5
129
330
1F
100
AcDbEntity
  8
0
 62
     7
100
AcDbCircle
 10
109.5
 20
22.61000061035159
 30
0.0
 40
3.0
100
AcDbArc
 50
168.7499594458933
 51
213.7499641132275
  0
ARC
  5
12A
330
1F
100
AcDbEntity
  8
0
 62
     7
100
AcDbCircle
 10
111.4615707397461
 20
22.2198181152344
 30
0.0
 40
5.0
100
AcDbArc
 50
110.5273505831969
 51
168.7499594458932
  0
ARC
  5
12B
330
1F
100
AcDbEntity
  8
0
 62
     7
100
AcDbCircle
 10
110.6747283935547
 20
24.59669494628909
 30
0.0
 40
2.5
100
AcDbArc
 50
89.60309338161953
 51
112.7413290818998
  0
ARC
  5
12C
330
1F
100
AcDbEntity
  8
0
 62
     7
100
AcDbCircle
 10
108.528076171875
 20
-6.764831542968693
 30
0.0
 40
25.0
100
AcDbArc
 50
71.65584243168398
 51
87.07108761478247
  0
ARC
  5
12D
330
1F
100
AcDbEntity
  8
0
 62
     7
100
AcDbCircle
 10
117.0256118774414
 20
18.86314392089841
 30
0.0
 40
2.0
100
AcDbArc
 50
251.6558784038631
 51
268.6681447583159
  0
ARC
  5
12E
330
1F
100
AcDbEntity
  8
0
 62
     7
100
AcDbCircle
 10
109.9076766967773
 20
20.1999206542969
 30
0.0
 40
2.0
100
AcDbArc
 50
213.7499814160716
 51
267.0711235869619
  0
ARC
  5
12F
330
1F
100
AcDbEntity
  8
0
 62
     7
100
AcDbCircle
 10
119.429557800293
 20
21.29655456542969
 30
0.0
 40
4.0
100
AcDbArc
 50
102.3281456167035
 51
168.7499594458935
  0
CIRCLE
  5
130
330
1F
100
AcDbEntity
  8
0
 62
     7
100
AcDbCircle
 10
118.8413009643555
 20
20.75190734863281
 30
0.0
 40
1.25
  0
ARC
  5
131
330
1F
100
AcDbEntity
  8
0
 62
     7
100
AcDbCircle
 10
114.730094909668
 20
5.999786376953097
 30
0.0
 40
19.70000076293945
100
AcDbArc
 50
44.05106941047088
 51
69.7401246336571
  0
ARC
  5
132
330
1F
100
AcDbEntity
  8
0
 62
     7
100
AcDbCircle
 10
126.0139999389648
 20
16.91600036621091
 30
0.0
 40
4.0
100
AcDbArc
 50
22.21547372831717
 51
44.05106258028184
  0
ARC
  5
133
330
1F
100
AcDbEntity
  8
0
 62
     7
100
AcDbCircle
 10
118.8413009643555
 20
20.75190734863281
 30
0.0
 40
3.0
100
AcDbArc
 50
146.2499639424154
 51
191.2499686097497
  0
ARC
  5
134
330
1F
100
AcDbEntity
  8
0
 62
     7
100
AcDbCircle
 10
120.5042343139648
 20
19.64076232910159
 30
0.0
 40
5.0
100
AcDbArc
 50
88.02735507971929
 51
146.2499639424158
  0
ARC
  5
135
330
1F
100
AcDbEntity
  8
0
 62
     7
100
AcDbCircle
 10
120.686882019043
 20
22.1378173828125
 30
0.0
 40
2.5
100
AcDbArc
 50
67.10309787814194
 51
90.24133357842231
  0
ARC
  5
136
330
1F
100
AcDbEntity
  8
0
 62
     7
100
AcDbCircle
 10
106.7020950317383
 20
-6.014968872070313
 30
0.0
 40
25.0
100
AcDbArc
 50
49.1558435131117
 51
64.57109211130482
  0
ARC
  5
137
330
1F
100
AcDbEntity
  8
0
 62
     7
100
AcDbCircle
 10
124.3601989746094
 20
14.41032409667969
 30
0.0
 40
2.0
100
AcDbArc
 50
229.1558829003856
 51
246.168149254838
  0
ARC
  5
138
330
1F
100
AcDbEntity
  8
0
 62
     7
100
AcDbCircle
 10
118.2956466674805
 20
18.3692626953125
 30
0.0
 40
2.0
100
AcDbArc
 50
191.2499859125944
 51
244.5711280834843
  0
ARC
  5
139
330
1F
100
AcDbEntity
  8
0
 62
     7
100
AcDbCircle
 10
127.5123748779297
 20
15.7385559082031
 30
0.0
 40
4.0
100
AcDbArc
 50
79.82815011322586
 51
146.2499639424158
  0
CIRCLE
  5
13A
330
1F
100
AcDbEntity
  8
0
 62
     7
100
AcDbCircle
 10
126.7604751586914
 20
15.4604797363281
 30
0.0
 40
1.25
  0
ARC
  5
13B
330
1F
100
AcDbEntity
  8
0
 62
     7
100
AcDbCircle
 10
117.3168182373047
 20
3.404586791992188
 30
0.0
 40
19.70000076293945
100
AcDbArc
 50
21.5510704918986
 51
47.24012571508484
  0
ARC
  5
13C
330
1F
100
AcDbEntity
  8
0
 62
     7
100
AcDbCircle
 10
131.9192428588867
 20
9.171691894531307
 30
0.0
 40
4.0
100
AcDbArc
 50
359.7154748097457
 51
381.5510636617094
  0
ARC
  5
13D
330
1F
100
AcDbEntity
  8
0
 62
     7
100
AcDbCircle
 10
126.7604751586914
 20
15.4604797363281
 30
0.0
 40
3.0
100
AcDbArc
 50
123.7499684389381
 51
168.7499731062718
  0
ARC
  5
13E
330
1F
100
AcDbEntity
  8
0
 62
     7
100
AcDbCircle
 10
127.8716049194336
 20
13.79754638671881
 30
0.0
 40
5.0
100
AcDbArc
 50
65.52735957624154
 51
123.749968438938
  0
ARC
  5
13F
330
1F
100
AcDbEntity
  8
0
 62
     7
100
AcDbCircle
 10
128.9959335327148
 20
16.03462219238281
 30
0.0
 40
2.5
100
AcDbArc
 50
44.60309895956958
 51
67.74133807494459
  0
ARC
  5
140
330
1F
100
AcDbEntity
  8
0
 62
     7
100
AcDbCircle
 10
105.3020706176758
 20
-4.6234130859375
 30
0.0
 40
25.0
100
AcDbArc
 50
26.65584459453945
 51
42.07109319273256
  0
ARC
  5
141
330
1F
100
AcDbEntity
  8
0
 62
     7
100
AcDbCircle
 10
129.4324493408203
 20
7.489639282226591
 30
0.0
 40
2.0
100
AcDbArc
 50
206.6558873969083
 51
223.6681537513608
  0
ARC
  5
142
330
1F
100
AcDbEntity
  8
0
 62
     7
100
AcDbCircle
 10
125.3445587158203
 20
13.468017578125
 30
0.0
 40
2.0
100
AcDbArc
 50
168.7499731062718
 51
222.0711152771628
  0
ARC
  5
143
330
1F
100
AcDbEntity
  8
0
 62
     7
100
AcDbCircle
 10
132.8529739379883
 20
7.510482788085909
 30
0.0
 40
4.0
100
AcDbArc
 50
57.3281546097483
 51
123.7499684389382
  0
CIRCLE
  5
144
330
1F
100
AcDbEntity
  8
0
 62
     7
100
AcDbCircle
 10
132.0518951416016
 20
7.541305541992188
 30
0.0
 40
1.25
  0
ARC
  5
145
330
1F
100
AcDbEntity
  8
0
 62
     7
100
AcDbCircle
 10
118.7135009765625
 20
0.0170440673828125
 30
0.0
 40
19.70000076293945
100
AcDbArc
 50
359.0510715733271
 51
384.7401267965126
  0
ARC
  5
146
330
1F
100
AcDbEntity
  8
0
 62
     7
100
AcDbCircle
 10
134.4113616943359
 20
-0.2429504394530966
 30
0.0
 40
4.0
100
AcDbArc
 50
337.2154758911731
 51
359.0510647431379
  0
ARC
  5
147
330
1F
100
AcDbEntity
  8
0
 62
     7
100
AcDbCircle
 10
132.0518951416016
 20
7.541305541992188
 30
0.0
 40
3.0
100
AcDbArc
 50
101.2499729354603
 51
146.2499776027939
  0
ARC
  5
148
330
1F
100
AcDbEntity
  8
0
 62
     7
100
AcDbCircle
 10
132.4420700073242
 20
5.579742431640597
 30
0.0
 40
5.0
100
AcDbArc
 50
43.02736065766926
 51
101.2499729354604
  0
ARC
  5
149
330
1F
100
AcDbEntity
  8
0
 62
     7
100
AcDbCircle
 10
134.3369064331055
 20
7.216278076171903
 30
0.0
 40
2.5
100
AcDbArc
 50
22.10310004099735
 51
45.24133915637223
  0
ARC
  5
14A
330
1F
100
AcDbEntity
  8
0
 62
     7
100
AcDbCircle
 10
104.5411376953125
 20
-2.802017211914091
 30
0.0
 40
25.0
100
AcDbArc
 50
4.155845675967165
 51
19.57109427416033
  0
ARC
  5
14B
330
1F
100
AcDbEntity
  8
0
 62
     7
100
AcDbCircle
 10
131.4701690673828
 20
-0.8453063964844034
 30
0.0
 40
2.0
100
AcDbArc
 50
184.1558918934304
 51
201.1681582478829
  0
ARC
  5
14C
330
1F
100
AcDbEntity
  8
0
 62
     7
100
AcDbCircle
 10
129.9812774658203
 20
6.242355346679688
 30
0.0
 40
2.0
100
AcDbArc
 50
146.2499776027942
 51
199.5711197736851
  0
ARC
  5
14D
330
1F
100
AcDbEntity
  8
0
 62
     7
100
AcDbCircle
 10
134.638298034668
 20
-2.135025024414091
 30
0.0
 40
4.0
100
AcDbArc
 50
34.82815569117589
 51
101.2499729354605
  0
CIRCLE
  5
14E
330
1F
100
AcDbEntity
  8
0
 62
     7
100
AcDbCircle
 10
133.9099960327148
 20
-1.799987792968693
 30
0.0
 40
1.25
  0
ARC
  5
14F
330
1F
100
AcDbEntity
  8
0
 62
     7
100
AcDbCircle
 10
118.7075119018555
 20
-3.647125244140597
 30
0.0
 40
19.70000076293945
100
AcDbArc
 50
336.5510726547548
 51
362.2401278779404
  0
ARC
  5
150
330
1F
100
AcDbEntity
  8
0
 62
     7
100
AcDbCircle
 10
133.1109466552734
 20
-9.894638061523409
 30
0.0
 40
4.0
100
AcDbArc
 50
314.715476972601
 51
336.5510658245657
  0
ARC
  5
151
330
1F
100
AcDbEntity
  8
0
 62
     7
100
AcDbCircle
 10
133.9099960327148
 20
-1.799987792968693
 30
0.0
 40
3.0
100
AcDbArc
 50
78.74997743198271
 51
123.7499820993165
  0
ARC
  5
152
330
1F
100
AcDbEntity
  8
0
 62
     7
100
AcDbCircle
 10
133.5198059082031
 20
-3.761550903320313
 30
0.0
 40
5.0
100
AcDbArc
 50
20.52736173909715
 51
78.7499774319827
  0
ARC
  5
153
330
1F
100
AcDbEntity
  8
0
 62
     7
100
AcDbCircle
 10
135.8966827392578
 20
-2.974716186523409
 30
0.0
 40
2.5
100
AcDbArc
 50
359.6031011224259
 51
382.7413402377999
  0
ARC
  5
154
330
1F
100
AcDbEntity
  8
0
 62
     7
100
AcDbCircle
 10
104.5351486206055
 20
-0.8280639648436932
 30
0.0
 40
25.0
100
AcDbArc
 50
341.6558467573955
 51
357.0710953555888
  0
ARC
  5
155
330
1F
100
AcDbEntity
  8
0
 62
     7
100
AcDbCircle
 10
130.1631317138672
 20
-9.325592041015597
 30
0.0
 40
2.0
100
AcDbArc
 50
161.6558790871082
 51
178.6681454415607
  0
ARC
  5
156
330
1F
100
AcDbEntity
  8
0
 62
     7
100
AcDbCircle
 10
131.4999084472656
 20
-2.207672119140597
 30
0.0
 40
2.0
100
AcDbArc
 50
123.7499820993164
 51
177.0711242702063
  0
ARC
  5
157
330
1F
100
AcDbEntity
  8
0
 62
     7
100
AcDbCircle
 10
132.5965423583984
 20
-11.72953796386719
 30
0.0
 40
4.0
100
AcDbArc
 50
12.3281567726039
 51
78.74997743198274
  0
CIRCLE
  5
158
330
1F
100
AcDbEntity
  8
0
 62
     7
100
AcDbCircle
 10
132.0518951416016
 20
-11.14129638671869
 30
0.0
 40
1.25
  0
ARC
  5
159
330
1F
100
AcDbEntity
  8
0
 62
     7
100
AcDbCircle
 10
117.2997665405273
 20
-7.030090332031193
 30
0.0
 40
19.70000076293945
100
AcDbArc
 50
314.0510737361826
 51
339.7401289593688
  0
ARC
  5
15A
330
1F
100
AcDbEntity
  8
0
 62
     7
100
AcDbCircle
 10
128.2159805297852
 20
-18.3139953613281
 30
0.0
 40
4.0
100
AcDbArc
 50
292.2154814691234
 51
314.0510669059934
  0
ARC
  5
15B
330
1F
100
AcDbEntity
  8
0
 62
     7
100
AcDbCircle
 10
132.0518951416016
 20
-11.14129638671869
 30
0.0
 40
3.0
100
AcDbArc
 50
56.24997851341049
 51
101.2499865958386
  0
ARC
  5
15C
330
1F
100
AcDbEntity
  8
0
 62
     7
100
AcDbCircle
 10
130.9407501220703
 20
-12.80421447753909
 30
0.0
 40
5.0
100
AcDbArc
 50
358.0273628205254
 51
416.2499785134103
  0
ARC
  5
15D
330
1F
100
AcDbEntity
  8
0
 62
     7
100
AcDbCircle
 10
133.4378051757813
 20
-12.98686218261719
 30
0.0
 40
2.5
100
AcDbArc
 50
337.1031022038539
 51
360.2413413192275
  0
ARC
  5
15E
330
1F
100
AcDbEntity
  8
0
 62
     7
100
AcDbCircle
 10
105.2850112915039
 20
0.9979248046875
 30
0.0
 40
25.0
100
AcDbArc
 50
319.1558478388233
 51
334.5710964370164
  0
ARC
  5
15F
330
1F
100
AcDbEntity
  8
0
 62
     7
100
AcDbCircle
 10
125.710319519043
 20
-16.66017150878909
 30
0.0
 40
2.0
100
AcDbArc
 50
139.1558835836302
 51
156.1681499380825
  0
ARC
  5
160
330
1F
100
AcDbEntity
  8
0
 62
     7
100
AcDbCircle
 10
129.6692504882813
 20
-10.59564208984369
 30
0.0
 40
2.0
100
AcDbArc
 50
101.2499865958389
 51
154.5711287667291
  0
ARC
  5
161
330
1F
100
AcDbEntity
  8
0
 62
     7
100
AcDbCircle
 10
127.0385513305664
 20
-19.81236267089841
 30
0.0
 40
4.0
100
AcDbArc
 50
349.8281578540321
 51
416.2499785134103
  0
CIRCLE
  5
162
330
1F
100
AcDbEntity
  8
0
 62
     7
100
AcDbCircle
 10
126.7604675292969
 20
-19.06047058105469
 30
0.0
 40
1.25
  0
ARC
  5
163
330
1F
100
AcDbEntity
  8
0
 62
     7
100
AcDbCircle
 10
114.7045745849609
 20
-9.6168212890625
 30
0.0
 40
19.70000076293945
100
AcDbArc
 50
291.5510748176104
 51
317.2401300407965
  0
ARC
  5
164
330
1F
100
AcDbEntity
  8
0
 62
     7
100
AcDbCircle
 10
120.4716720581055
 20
-24.21923828125
 30
0.0
 40
4.0
100
AcDbArc
 50
269.7154859656455
 51
291.5510679874213
  0
ARC
  5
165
330
1F
100
AcDbEntity
  8
0
 62
     7
100
AcDbCircle
 10
126.7604675292969
 20
-19.06047058105469
 30
0.0
 40
3.0
100
AcDbArc
 50
33.74997959483812
 51
78.74999109236117
  0
ARC
  5
166
330
1F
100
AcDbEntity
  8
0
 62
     7
100
AcDbCircle
 10
125.0975341796875
 20
-20.17158508300781
 30
0.0
 40
5.0
100
AcDbArc
 50
335.5273639019534
 51
393.7499795948382
  0
ARC
  5
167
330
1F
100
AcDbEntity
  8
0
 62
     7
100
AcDbCircle
 10
127.3346176147461
 20
-21.29591369628911
 30
0.0
 40
2.5
100
AcDbArc
 50
314.6031032852814
 51
337.7413424006561
  0
ARC
  5
168
330
1F
100
AcDbEntity
  8
0
 62
     7
100
AcDbCircle
 10
106.6765747070312
 20
2.39794921875
 30
0.0
 40
25.0
100
AcDbArc
 50
296.6558489202512
 51
312.0710975184442
  0
ARC
  5
169
330
1F
100
AcDbEntity
  8
0
 62
     7
100
AcDbCircle
 10
118.7896347045898
 20
-21.7324295043945
 30
0.0
 40
2.0
100
AcDbArc
 50
116.6558880801525
 51
133.668154434605
  0
ARC
  5
16A
330
1F
100
AcDbEntity
  8
0
 62
     7
100
AcDbCircle
 10
124.7680053710938
 20
-17.64454650878909
 30
0.0
 40
2.0
100
AcDbArc
 50
78.74999109236093
 51
132.0711332632511
  0
ARC
  5
16B
330
1F
100
AcDbEntity
  8
0
 62
     7
100
AcDbCircle
 10
118.8104705810547
 20
-25.15296936035161
 30
0.0
 40
4.0
100
AcDbArc
 50
327.32815893546
 51
393.7499795948382
  0
CIRCLE
  5
16C
330
1F
100
AcDbEntity
  8
0
 62
     7
100
AcDbCircle
 10
118.8412933349609
 20
-24.3518905639648
 30
0.0
 40
1.25
  0
ARC
  5
16D
330
1F
100
AcDbEntity
  8
0
 62
     7
100
AcDbCircle
 10
111.317024230957
 20
-11.01350402832031
 30
0.0
 40
19.70000076293945
100
AcDbArc
 50
269.0510724839435
 51
294.7401311222243
  0
ARC
  5
16E
330
1F
100
AcDbEntity
  8
0
 62
     7
100
AcDbCircle
 10
111.0570297241211
 20
-26.7113494873047
 30
0.0
 40
4.0
100
AcDbArc
 50
247.2154904621679
 51
269.0510724839435
  0
ARC
  5
16F
330
1F
100
AcDbEntity
  8
0
 62
     7
100
AcDbCircle
 10
118.8412933349609
 20
-24.3518905639648
 30
0.0
 40
3.0
100
AcDbArc
 50
11.24998067626591
 51
56.24999217378865
  0
ARC
  5
170
330
1F
100
AcDbEntity
  8
0
 62
     7
100
AcDbCircle
 10
116.8797378540039
 20
-24.7420501708984
 30
0.0
 40
5.0
100
AcDbArc
 50
313.027364983381
 51
371.2499806762659
  0
ARC
  5
171
330
1F
100
AcDbEntity
  8
0
 62
     7
100
AcDbCircle
 10
118.5162734985352
 20
-26.6368865966797
 30
0.0
 40
2.5
100
AcDbArc
 50
292.1031043667093
 51
315.241343482084
  0
ARC
  5
172
330
1F
100
AcDbEntity
  8
0
 62
     7
100
AcDbCircle
 10
108.4979782104492
 20
3.158874511718807
 30
0.0
 40
25.0
100
AcDbArc
 50
274.1558465865843
 51
289.571098599872
  0
ARC
  5
173
330
1F
100
AcDbEntity
  8
0
 62
     7
100
AcDbCircle
 10
110.4546890258789
 20
-23.77015686035161
 30
0.0
 40
2.0
100
AcDbArc
 50
94.155892576675
 51
111.1681589311278
  0
ARC
  5
174
330
1F
100
AcDbEntity
  8
0
 62
     7
100
AcDbCircle
 10
117.542350769043
 20
-22.28126525878911
 30
0.0
 40
2.0
100
AcDbArc
 50
56.24999217378885
 51
109.5711377597736
  0
ARC
  5
175
330
1F
100
AcDbEntity
  8
0
 62
     7
100
AcDbCircle
 10
109.1649551391602
 20
-26.93829345703119
 30
0.0
 40
4.0
100
AcDbArc
 50
304.8281600168876
 51
371.2499806762659
  0
CIRCLE
  5
176
330
1F
100
AcDbEntity
  8
0
 62
     7
100
AcDbCircle
 10
109.4999923706055
 20
-26.2099914550781
 30
0.0
 40
1.25
  0
ARC
  5
177
330
1F
100
AcDbEntity
  8
0
 62
     7
100
AcDbCircle
 10
107.6528549194336
 20
-11.00750732421869
 30
0.0
 40
19.70000076293945
100
AcDbArc
 50
246.5510769804657
 51
272.2401287885575
  0
ARC
  5
178
330
1F
100
AcDbEntity
  8
0
 62
     7
100
AcDbCircle
 10
101.4053421020508
 20
-25.4109344482422
 30
0.0
 40
4.0
100
AcDbArc
 50
224.7154949586904
 51
246.5510769804657
  0
ARC
  5
179
330
1F
100
AcDbEntity
  8
0
 62
     7
100
AcDbCircle
 10
109.4999923706055
 20
-26.2099914550781
 30
0.0
 40
3.0
100
AcDbArc
 50
348.7499817576942
 51
393.7499932552165
  0
ARC
  5
17A
330
1F
100
AcDbEntity
  8
0
 62
     7
100
AcDbCircle
 10
107.538444519043
 20
-25.8197937011719
 30
0.0
 40
5.0
100
AcDbArc
 50
290.5273660648088
 51
348.7499817576943
  0
ARC
  5
17B
330
1F
100
AcDbEntity
  8
0
 62
     7
100
AcDbCircle
 10
108.3252792358398
 20
-28.19667053222661
 30
0.0
 40
2.5
100
AcDbArc
 50
269.6031020330423
 51
292.7413445635118
  0
ARC
  5
17C
330
1F
100
AcDbEntity
  8
0
 62
     7
100
AcDbCircle
 10
110.471923828125
 20
3.164855957031307
 30
0.0
 40
25.0
100
AcDbArc
 50
251.6558510831067
 51
267.0710962662051
  0
ARC
  5
17D
330
1F
100
AcDbEntity
  8
0
 62
     7
100
AcDbCircle
 10
101.9743957519531
 20
-22.4631195068359
 30
0.0
 40
2.0
100
AcDbArc
 50
71.65589707319715
 51
88.66816342764989
  0
ARC
  5
17E
330
1F
100
AcDbEntity
  8
0
 62
     7
100
AcDbCircle
 10
109.0923156738281
 20
-23.7998962402344
 30
0.0
 40
2.0
100
AcDbArc
 50
33.74999325521662
 51
87.07114225629582
  0
ARC
  5
17F
330
1F
100
AcDbEntity
  8
0
 62
     7
100
AcDbCircle
 10
99.57044982910161
 20
-24.89653778076171
 30
0.0
 40
4.0
100
AcDbArc
 50
282.3281610983153
 51
348.7499817576942
  0
CIRCLE
  5
180
330
1F
100
AcDbEntity
  8
0
 62
     7
100
AcDbCircle
 10
100.15869140625
 20
-24.3518905639648
 30
0.0
 40
1.25
  0
ARC
  5
181
330
1F
100
AcDbEntity
  8
0
 62
     7
100
AcDbCircle
 10
104.2698974609375
 20
-9.599761962890597
 30
0.0
 40
19.70000076293945
100
AcDbArc
 50
224.0510814769881
 51
249.7401332850798
  0
ARC
  5
182
330
1F
100
AcDbEntity
  8
0
 62
     7
100
AcDbCircle
 10
92.9859924316406
 20
-20.51596832275391
 30
0.0
 40
4.0
100
AcDbArc
 50
202.2154994552126
 51
224.0510814769881
  0
ARC
  5
183
330
1F
100
AcDbEntity
  8
0
 62
     7
100
AcDbCircle
 10
100.15869140625
 20
-24.3518905639648
 30
0.0
 40
3.0
100
AcDbArc
 50
326.2499828391219
 51
371.2499943366444
  0
ARC
  5
184
330
1F
100
AcDbEntity
  8
0
 62
     7
100
AcDbCircle
 10
98.4957733154297
 20
-23.24073791503911
 30
0.0
 40
5.0
100
AcDbArc
 50
268.027363731142
 51
326.2499828391222
  0
ARC
  5
185
330
1F
100
AcDbEntity
  8
0
 62
     7
100
AcDbCircle
 10
98.31312561035161
 20
-25.73779296875
 30
0.0
 40
2.5
100
AcDbArc
 50
247.1031065295646
 51
270.2413422298449
  0
ARC
  5
186
330
1F
100
AcDbEntity
  8
0
 62
     7
100
AcDbCircle
 10
112.2979049682617
 20
2.414993286132813
 30
0.0
 40
25.0
100
AcDbArc
 50
229.1558555796289
 51
244.5711007627276
  0
ARC
  5
187
330
1F
100
AcDbEntity
  8
0
 62
     7
100
AcDbCircle
 10
94.6398086547852
 20
-18.01031494140619
 30
0.0
 40
2.0
100
AcDbArc
 50
49.15589815462519
 51
66.16816792417215
  0
ARC
  5
188
330
1F
100
AcDbEntity
  8
0
 62
     7
100
AcDbCircle
 10
100.704345703125
 20
-21.96923828125
 30
0.0
 40
2.0
100
AcDbArc
 50
11.2499943366441
 51
64.57114675281802
  0
ARC
  5
189
330
1F
100
AcDbEntity
  8
0
 62
     7
100
AcDbCircle
 10
91.4876251220703
 20
-19.33854675292969
 30
0.0
 40
4.0
100
AcDbArc
 50
259.8281587646484
 51
326.2499828391221
  0
CIRCLE
  5
18A
330
1F
100
AcDbEntity
  8
0
 62
     7
100
AcDbCircle
 10
92.23951721191411
 20
-19.06047058105469
 30
0.0
 40
1.25
  0
ARC
  5
18B
330
1F
100
AcDbEntity
  8
0
 62
     7
100
AcDbCircle
 10
101.6831741333008
 20
-7.004562377929688
 30
0.0
 40
19.70000076293945
100
AcDbArc
 50
201.5510859735104
 51
227.2401377816021
  0
ARC
  5
18C
330
1F
100
AcDbEntity
  8
0
 62
     7
100
AcDbCircle
 10
87.08074951171869
 20
-12.77166748046869
 30
0.0
 40
4.0
100
AcDbArc
 50
179.7154866488905
 51
201.5510686706666
  0
ARC
  5
18D
330
1F
100
AcDbEntity
  8
0
 62
     7
100
AcDbCircle
 10
92.23951721191411
 20
-19.06047058105469
 30
0.0
 40
3.0
100
AcDbArc
 50
303.7499839205499
 51
348.7499954180727
  0
ARC
  5
18E
330
1F
100
AcDbEntity
  8
0
 62
     7
100
AcDbCircle
 10
91.1284027099609
 20
-17.39752197265619
 30
0.0
 40
5.0
100
AcDbArc
 50
245.5273682276643
 51
303.7499839205498
  0
ARC
  5
18F
330
1F
100
AcDbEntity
  8
0
 62
     7
100
AcDbCircle
 10
90.0040740966797
 20
-19.6346130371094
 30
0.0
 40
2.5
100
AcDbArc
 50
224.6031110260868
 51
247.7413467263675
  0
ARC
  5
190
330
1F
100
AcDbEntity
  8
0
 62
     7
100
AcDbCircle
 10
113.6979293823242
 20
1.0234375
 30
0.0
 40
25.0
100
AcDbArc
 50
206.6558600761512
 51
222.0711052592499
  0
ARC
  5
191
330
1F
100
AcDbEntity
  8
0
 62
     7
100
AcDbCircle
 10
89.5675506591797
 20
-11.0896301269531
 30
0.0
 40
2.0
100
AcDbArc
 50
26.65589923605305
 51
43.66816900559957
  0
ARC
  5
192
330
1F
100
AcDbEntity
  8
0
 62
     7
100
AcDbCircle
 10
93.6554336547852
 20
-17.0679931640625
 30
0.0
 40
2.0
100
AcDbArc
 50
348.7499954180729
 51
402.0711478342464
  0
ARC
  5
193
330
1F
100
AcDbEntity
  8
0
 62
     7
100
AcDbCircle
 10
86.1470184326172
 20
-11.1104736328125
 30
0.0
 40
4.0
100
AcDbArc
 50
237.3281632611708
 51
303.7499839205499
  0
CIRCLE
  5
194
330
1F
100
AcDbEntity
  8
0
 62
     7
100
AcDbCircle
 10
86.9480895996094
 20
-11.14129638671869
 30
0.0
 40
1.25
  0
ARC
  5
195
330
1F
100
AcDbEntity
  8
0
 62
     7
100
AcDbCircle
 10
100.286491394043
 20
-3.617019653320313
 30
0.0
 40
19.70000076293945
100
AcDbArc
 50
179.0510731671881
 51
204.7401249752805
  0
ARC
  5
196
330
1F
100
AcDbEntity
  8
0
 62
     7
100
AcDbCircle
 10
84.5886306762695
 20
-3.357025146484403
 30
0.0
 40
4.0
100
AcDbArc
 50
157.2154911454126
 51
179.0510731671883
  0
ARC
  5
197
330
1F
100
AcDbEntity
  8
0
 62
     7
100
AcDbCircle
 10
86.9480895996094
 20
-11.14129638671869
 30
0.0
 40
3.0
100
AcDbArc
 50
281.2499815868832
 51
326.2499964995003
  0
ARC
  5
198
330
1F
100
AcDbEntity
  8
0
 62
     7
100
AcDbCircle
 10
86.5579376220703
 20
-9.179718017578097
 30
0.0
 40
5.0
100
AcDbArc
 50
223.0273727241867
 51
281.2499815868832
  0
ARC
  5
199
330
1F
100
AcDbEntity
  8
0
 62
     7
100
AcDbCircle
 10
84.66310119628911
 20
-10.81626892089841
 30
0.0
 40
2.5
100
AcDbArc
 50
202.1031155226092
 51
225.2413512228894
  0
ARC
  5
19A
330
1F
100
AcDbEntity
  8
0
 62
     7
100
AcDbCircle
 10
114.4588623046875
 20
-0.7979583740234091
 30
0.0
 40
25.0
100
AcDbArc
 50
184.1558645726736
 51
199.5711097557721
  0
ARC
  5
19B
330
1F
100
AcDbEntity
  8
0
 62
     7
100
AcDbCircle
 10
87.5298233032227
 20
-2.754684448242188
 30
0.0
 40
2.0
100
AcDbArc
 50
4.155900317480775
 51
21.16817008702746
  0
ARC
  5
19C
330
1F
100
AcDbEntity
  8
0
 62
     7
100
AcDbCircle
 10
89.0187149047852
 20
-9.842330932617188
 30
0.0
 40
2.0
100
AcDbArc
 50
326.2499964995003
 51
379.5711489156734
  0
ARC
  5
19D
330
1F
100
AcDbEntity
  8
0
 62
     7
100
AcDbCircle
 10
84.361686706543
 20
-1.464950561523409
 30
0.0
 40
4.0
100
AcDbArc
 50
214.8281677576932
 51
281.2499815868832
  0
CIRCLE
  5
19E
330
1F
100
AcDbEntity
  8
0
 62
     7
100
AcDbCircle
 10
85.08998870849609
 20
-1.799987792968693
 30
0.0
 40
1.25
  0
ARC
  5
19F
330
1F
100
AcDbEntity
  8
0
 62
     7
100
AcDbCircle
 10
100.29248046875
 20
0.0471496582030966
 30
0.0
 40
19.70000076293945
100
AcDbArc
 50
156.5510776637105
 51
182.2401294718028
  0
ARC
  5
1A0
330
1F
100
AcDbEntity
  8
0
 62
     7
100
AcDbCircle
 10
85.8890380859375
 20
6.294662475585909
 30
0.0
 40
4.0
100
AcDbArc
 50
134.7154956419351
 51
156.5510776637107
  0
ARC
  5
1A1
330
1F
100
AcDbEntity
  8
0
 62
     7
100
AcDbCircle
 10
85.08998870849609
 20
-1.799987792968693
 30
0.0
 40
3.0
100
AcDbArc
 50
258.7499860834056
 51
303.7499975809283
  0
ARC
  5
1A2
330
1F
100
AcDbEntity
  8
0
 62
     7
100
AcDbCircle
 10
85.4801940917969
 20
0.1615753173828125
 30
0.0
 40
5.0
100
AcDbArc
 50
200.5273772207088
 51
258.7499860834053
  0
ARC
  5
1A3
330
1F
100
AcDbEntity
  8
0
 62
     7
100
AcDbCircle
 10
83.1033172607422
 20
-0.6252746582030966
 30
0.0
 40
2.5
100
AcDbArc
 50
179.6031027162868
 51
202.7413384165681
  0
ARC
  5
1A4
330
1F
100
AcDbEntity
  8
0
 62
     7
100
AcDbCircle
 10
114.4648513793945
 20
-2.771911621093693
 30
0.0
 40
25.0
100
AcDbArc
 50
161.6558517663514
 51
177.0710969494499
  0
ARC
  5
1A5
330
1F
100
AcDbEntity
  8
0
 62
     7
100
AcDbCircle
 10
88.83685302734369
 20
5.725616455078097
 30
0.0
 40
2.0
100
AcDbArc
 50
341.655901398909
 51
358.6681711684566
  0
ARC
  5
1A6
330
1F
100
AcDbEntity
  8
0
 62
     7
100
AcDbCircle
 10
87.5000915527344
 20
-1.392303466796903
 30
0.0
 40
2.0
100
AcDbArc
 50
303.7499975809283
 51
357.0711499971019
  0
ARC
  5
1A7
330
1F
100
AcDbEntity
  8
0
 62
     7
100
AcDbCircle
 10
86.4034423828125
 20
8.129562377929688
 30
0.0
 40
4.0
100
AcDbArc
 50
192.3281722542158
 51
258.7499860834055
  0
CIRCLE
  5
1A8
330
1F
100
AcDbEntity
  8
0
 62
     7
100
AcDbCircle
 10
86.9480895996094
 20
7.541320800781307
 30
0.0
 40
1.25
  0
ARC
  5
1A9
330
1F
100
AcDbEntity
  8
0
 62
     7
100
AcDbCircle
 10
101.7002258300781
 20
3.430114746093807
 30
0.0
 40
19.70000076293945
100
AcDbArc
 50
134.0510821602329
 51
159.7401339683244
  0
ARC
  5
1AA
330
1F
100
AcDbEntity
  8
0
 62
     7
100
AcDbCircle
 10
90.7840042114258
 20
14.7140197753906
 30
0.0
 40
4.0
100
AcDbArc
 50
112.2155001384573
 51
134.0510821602329
  0
ARC
  5
1AB
330
1F
100
AcDbEntity
  8
0
 62
     7
100
AcDbCircle
 10
86.9480895996094
 20
7.541320800781307
 30
0.0
 40
3.0
100
AcDbArc
 50
236.2499905799276
 51
281.2499952472614
  0
ARC
  5
1AC
330
1F
100
AcDbEntity
  8
0
 62
     7
100
AcDbCircle
 10
88.0592498779297
 20
9.204238891601591
 30
0.0
 40
5.0
100
AcDbArc
 50
178.0273644143866
 51
236.2499596167055
  0
ARC
  5
1AD
330
1F
100
AcDbEntity
  8
0
 62
     7
100
AcDbCircle
 10
85.56218719482421
 20
9.386871337890597
 30
0.0
 40
2.5
100
AcDbArc
 50
157.1031072128092
 51
180.2413429130904
  0
ARC
  5
1AE
330
1F
100
AcDbEntity
  8
0
 62
     7
100
AcDbCircle
 10
113.7149887084961
 20
-4.597900390625
 30
0.0
 40
25.0
100
AcDbArc
 50
139.1558562628736
 51
154.5711014459722
  0
ARC
  5
1AF
330
1F
100
AcDbEntity
  8
0
 62
     7
100
AcDbCircle
 10
93.289665222168
 20
13.0602111816406
 30
0.0
 40
2.0
100
AcDbArc
 50
319.1559024803372
 51
336.168172249884
  0
ARC
  5
1B0
330
1F
100
AcDbEntity
  8
0
 62
     7
100
AcDbCircle
 10
89.33074951171869
 20
6.995666503906307
 30
0.0
 40
2.0
100
AcDbArc
 50
281.2499952472615
 51
334.5711510785295
  0
ARC
  5
1B1
330
1F
100
AcDbEntity
  8
0
 62
     7
100
AcDbCircle
 10
91.96144104003911
 20
16.21238708496091
 30
0.0
 40
4.0
100
AcDbArc
 50
169.8281594478934
 51
236.2499596167055
  0
CIRCLE
  5
1B2
330
1F
100
AcDbEntity
  8
0
 62
     7
100
AcDbCircle
 10
92.23951721191411
 20
15.46049499511719
 30
0.0
 40
1.25
  0
ARC
  5
1B3
330
1F
100
AcDbEntity
  8
0
 62
     7
100
AcDbCircle
 10
104.2954254150391
 20
6.016845703125
 30
0.0
 40
19.70000076293945
100
AcDbArc
 50
111.5510866567552
 51
137.2401384648468
  0
ARC
  5
1B4
330
1F
100
AcDbEntity
  8
0
 62
     7
100
AcDbCircle
 10
98.5283126831055
 20
20.6192626953125
 30
0.0
 40
4.0
100
AcDbArc
 50
89.71550463497957
 51
111.5510866567552
  0
ARC
  5
1B5
330
1F
100
AcDbEntity
  8
0
 62
     7
100
AcDbCircle
 10
92.23951721191411
 20
15.46049499511719
 30
0.0
 40
3.0
100
AcDbArc
 50
213.7499950764498
 51
258.7499997437836
  0
ARC
  5
1B6
330
1F
100
AcDbEntity
  8
0
 62
     7
100
AcDbCircle
 10
93.9024658203125
 20
16.57160949707031
 30
0.0
 40
5.0
100
AcDbArc
 50
155.5273689109088
 51
213.7499641132277
  0
ARC
  5
1B7
330
1F
100
AcDbEntity
  8
0
 62
     7
100
AcDbCircle
 10
91.6653671264648
 20
17.6959228515625
 30
0.0
 40
2.5
100
AcDbArc
 50
134.6031117093316
 51
157.7413474096123
  0
ARC
  5
1B8
330
1F
100
AcDbEntity
  8
0
 62
     7
100
AcDbCircle
 10
112.3234252929688
 20
-5.9979248046875
 30
0.0
 40
25.0
100
AcDbArc
 50
116.6558607593959
 51
132.0711059424945
  0
ARC
  5
1B9
330
1F
100
AcDbEntity
  8
0
 62
     7
100
AcDbCircle
 10
100.2103576660156
 20
18.1324768066406
 30
0.0
 40
2.0
100
AcDbArc
 50
296.6559035617644
 51
313.6681733313124
  0
ARC
  5
1BA
330
1F
100
AcDbEntity
  8
0
 62
     7
100
AcDbCircle
 10
94.23199462890619
 20
14.04457092285159
 30
0.0
 40
2.0
100
AcDbArc
 50
258.7499997437839
 51
312.0711521599577
  0
ARC
  5
1BB
330
1F
100
AcDbEntity
  8
0
 62
     7
100
AcDbCircle
 10
100.1895217895508
 20
21.55299377441409
 30
0.0
 40
4.0
100
AcDbArc
 50
147.3281639444157
 51
213.7499641132274
  0
ARC
  5
1BC
330
1F
100
AcDbEntity
  8
0
 62
     7
100
AcDbCircle
 10
-13.30000305175781
 20
19.8999938964844
 30
0.0
 40
10.10000038146973
100
AcDbArc
 50
0.9644192957111457
 51
7.626417618733391
  0
ARC
  5
1BD
330
1F
100
AcDbEntity
  8
0
 62
     7
100
AcDbCircle
 10
-23.6000061035156
 20
19.8999938964844
 30
0.0
 40
10.10000038146973
100
AcDbArc
 50
0.9644192957111457
 51
7.48642008508927
  0
ARC
  5
1BE
330
1F
100
AcDbEntity
  8
0
 62
     7
100
AcDbCircle
 10
-20.1000061035156
 20
25.30000305175781
 30
0.0
 40
2.0
100
AcDbArc
 50
89.99998201391099
 51
179.9999640278211
  0
ARC
  5
1BF
330
1F
100
AcDbEntity
  8
0
 62
     7
100
AcDbCircle
 10
-0.8999938964844034
 20
25.30000305175781
 30
0.0
 40
2.0
100
AcDbArc
 50
0.0
 51
89.99998201391099
  0
ARC
  5
1C0
330
1F
100
AcDbEntity
  8
0
 62
     7
100
AcDbCircle
 10
-20.1000061035156
 20
-28.90000152587891
 30
0.0
 40
2.0
100
AcDbArc
 50
179.9999813306656
 51
270.0000179860899
  0
ARC
  5
1C1
330
1F
100
AcDbEntity
  8
0
 62
     7
100
AcDbCircle
 10
-0.8999938964844034
 20
-28.90000152587891
 30
0.0
 40
2.0
100
AcDbArc
 50
270.0000179860899
 51
360.0
  0
ARC
  5
1C2
330
1F
100
AcDbEntity
  8
0
 62
     7
100
AcDbCircle
 10
-7.699996948242188
 20
19.8999938964844
 30
0.0
 40
10.10000038146973
100
AcDbArc
 50
173.3049579618615
 51
179.0355959585289
  0
ARC
  5
1C3
330
1F
100
AcDbEntity
  8
0
 62
     7
100
AcDbCircle
 10
2.600006103515597
 20
19.8999938964844
 30
0.0
 40
10.10000038146973
100
AcDbArc
 50
173.4453183493053
 51
179.0355959585289
  0
CIRCLE
  5
1C4
330
1F
100
AcDbEntity
  8
0
 62
     7
100
AcDbCircle
 10
109.5
 20
-1.799987792968693
 30
0.0
 40
4.764999866485596
  0
CIRCLE
  5
1C5
330
1F
100
AcDbEntity
  8
0
 62
     7
100
AcDbCircle
 10
109.5
 20
-1.799987792968693
 30
0.0
 40
18.5
  0
ARC
  5
1C6
330
1F
100
AcDbEntity
  8
0
 62
     7
100
AcDbCircle
 10
2.600000381469727
 20
19.89999771118164
 30
0.0
 40
10.10000038146973
100
AcDbArc
 50
179.0355959585289
 51
179.9999640278214
  0
ARC
  5
1C7
330
1F
100
AcDbEntity
  8
0
 62
     7
100
AcDbCircle
 10
-13.30000019073486
 20
19.89999771118164
 30
0.0
 40
10.10000038146973
100
AcDbArc
 50
0.0
 51
0.9644195091546221
  0
ARC
  5
1C8
330
1F
100
AcDbEntity
  8
0
 62
     7
100
AcDbCircle
 10
-2.799999713897705
 20
17.09999656677246
 30
0.0
 40
0.4000000059604645
100
AcDbArc
 50
179.9999813306655
 51
270.0000179860902
  0
ARC
  5
1C9
330
1F
100
AcDbEntity
  8
0
 62
     7
100
AcDbCircle
 10
-23.60000038146973
 20
19.89999771118164
 30
0.0
 40
10.10000038146973
100
AcDbArc
 50
0.0
 51
0.9644195091546221
  0
ARC
  5
1CA
330
1F
100
AcDbEntity
  8
0
 62
     7
100
AcDbCircle
 10
-7.699999809265137
 20
19.89999771118164
 30
0.0
 40
10.10000038146973
100
AcDbArc
 50
179.0355959585289
 51
179.9999640278214
  0
ARC
  5
1CB
330
1F
100
AcDbEntity
  8
0
 62
     7
100
AcDbCircle
 10
-18.20000076293945
 20
17.09999656677246
 30
0.0
 40
0.4000000059604645
100
AcDbArc
 50
269.9999633445768
 51
360.0
  0
LINE
  5
1CC
330
1F
100
AcDbEntity
  8
0
  6
CENTER
 62
     7
100
AcDbLine
 10
74.5
 20
-1.799987792968693
 30
0.0
 11
144.5
 21
-1.799987792968693
 31
0.0
  0
LINE
  5
1CD
330
1F
100
AcDbEntity
  8
0
  6
CENTER
 62
     7
100
AcDbLine
 10
109.5
 20
33.20001220703131
 30
0.0
 11
109.5
 21
-36.79998779296869
 31
0.0
  0
LINE
  5
1CE
330
1F
100
AcDbEntity
  8
0
  6
CENTER
 62
     7
100
AcDbLine
 10
-10.83332824707031
 20
-1.800003051757813
 30
0.0
 11
15.83332824707031
 21
-1.800003051757813
 31
0.0
  0
LINE
  5
1CF
330
1F
100
AcDbEntity
  8
0
  6
CENTER
 62
     7
100
AcDbLine
 10
-8.216659545898409
 20
22.61000061035159
 30
0.0
 11
-2.483337402343807
 21
22.61000061035159
 31
0.0
  0
LINE
  5
1D0
330
1F
100
AcDbEntity
  8
0
  6
CENTER
 62
     7
100
AcDbLine
 10
6.5
 20
19.89741516113281
 30
0.0
 11
6.5
 21
1.077941894531307
 31
0.0
  0
LINE
  5
1D1
330
1F
100
AcDbEntity
  8
0
  6
CENTER
 62
     7
100
AcDbLine
 10
-10.16667175292969
 20
-1.800003051757813
 30
0.0
 11
-36.83332824707031
 21
-1.800003051757813
 31
0.0
  0
LINE
  5
1D2
330
1F
100
AcDbEntity
  8
0
  6
CENTER
 62
     7
100
AcDbLine
 10
-12.78334045410159
 20
22.61000061035159
 30
0.0
 11
-18.51666259765631
 21
22.61000061035159
 31
0.0
  0
LINE
  5
1D3
330
1F
100
AcDbEntity
  8
0
  6
CENTER
 62
     7
100
AcDbLine
 10
-27.5
 20
19.89741516113281
 30
0.0
 11
-27.5
 21
1.077941894531307
 31
0.0
  0
LINE
  5
1D4
330
1F
100
AcDbEntity
  8
0
  6
CENTER
 62
     7
100
AcDbLine
 10
2.548004150390597
 20
22.61000061035159
 30
0.0
 11
-23.375
 21
22.61000061035159
 31
0.0
  0
CIRCLE
  5
1D5
330
1F
100
AcDbEntity
  8
0
  6
CENTER
 62
     7
100
AcDbCircle
 10
109.5
 20
-1.799987792968693
 30
0.0
 40
24.40999984741211
  0
LINE
  5
1D6
330
1F
100
AcDbEntity
  8
0
  6
DIVIDE
 62
     9
100
AcDbLine
 10
-6.2864990234375
 20
24.69999694824219
 30
0.0
 11
-5.350006103515597
 21
24.69999694824219
 31
0.0
  0
LINE
  5
1D7
330
1F
100
AcDbEntity
  8
0
  6
DIVIDE
 62
     9
100
AcDbLine
 10
-4.413497924804688
 20
24.69999694824219
 30
0.0
 11
-5.350006103515597
 21
24.69999694824219
 31
0.0
  0
LINE
  5
1D8
330
1F
100
AcDbEntity
  8
0
  6
DIVIDE
 62
     9
100
AcDbLine
 10
8.600006103515597
 20
16.69999694824219
 30
0.0
 11
8.600006103515597
 21
2.964996337890597
 31
0.0
  0
LINE
  5
1D9
330
1F
100
AcDbEntity
  8
0
  6
DIVIDE
 62
     9
100
AcDbLine
 10
4.399993896484403
 20
16.69999694824219
 30
0.0
 11
4.399993896484403
 21
2.964996337890597
 31
0.0
  0
LINE
  5
1DA
330
1F
100
AcDbEntity
  8
0
  6
DIVIDE
 62
     9
100
AcDbLine
 10
-14.7135009765625
 20
24.69999694824219
 30
0.0
 11
-15.6499938964844
 21
24.69999694824219
 31
0.0
  0
LINE
  5
1DB
330
1F
100
AcDbEntity
  8
0
  6
DIVIDE
 62
     9
100
AcDbLine
 10
-16.58650207519531
 20
24.69999694824219
 30
0.0
 11
-15.6499938964844
 21
24.69999694824219
 31
0.0
  0
LINE
  5
1DC
330
1F
100
AcDbEntity
  8
0
  6
DIVIDE
 62
     9
100
AcDbLine
 10
-29.6000061035156
 20
16.69999694824219
 30
0.0
 11
-29.6000061035156
 21
2.964996337890597
 31
0.0
  0
LINE
  5
1DD
330
1F
100
AcDbEntity
  8
0
  6
DIVIDE
 62
     9
100
AcDbLine
 10
-25.3999938964844
 20
16.69999694824219
 30
0.0
 11
-25.3999938964844
 21
2.964996337890597
 31
0.0
  0
LINE
  5
1DE
330
1F
100
AcDbEntity
  8
0
  6
DIVIDE
 62
     9
100
AcDbLine
 10
-17.03999328613281
 20
25.6000061035156
 30
0.0
 11
-14.25999450683591
 21
25.6000061035156
 31
0.0
  0
LINE
  5
1DF
330
1F
100
AcDbEntity
  8
0
  6
DIVIDE
 62
     9
100
AcDbLine
 10
-13.25999450683591
 20
24.6000061035156
 30
0.0
 11
-13.25999450683591
 21
21.337646484375
 31
0.0
  0
LINE
  5
1E0
330
1F
100
AcDbEntity
  8
0
  6
DIVIDE
 62
     9
100
AcDbLine
 10
-7.740005493164091
 20
24.6000061035156
 30
0.0
 11
-7.740005493164091
 21
21.337646484375
 31
0.0
  0
LINE
  5
1E1
330
1F
100
AcDbEntity
  8
0
  6
DIVIDE
 62
     9
100
AcDbLine
 10
-6.740005493164091
 20
25.6000061035156
 30
0.0
 11
-3.960006713867188
 21
25.6000061035156
 31
0.0
  0
LINE
  5
1E2
330
1F
100
AcDbEntity
  8
0
  6
DIVIDE
 62
     9
100
AcDbLine
 10
-2.960006713867188
 20
24.6000061035156
 30
0.0
 11
-2.960006713867188
 21
21.36152648925781
 31
0.0
  0
LINE
  5
1E3
330
1F
100
AcDbEntity
  8
0
  6
DIVIDE
 62
     9
100
AcDbLine
 10
-18.03999328613281
 20
24.6000061035156
 30
0.0
 11
-18.03999328613281
 21
21.36152648925781
 31
0.0
  0
LINE
  5
1E4
330
1F
100
AcDbEntity
  8
0
  6
DIVIDE
 62
     9
100
AcDbLine
 10
-25.0
 20
16.69999694824219
 30
0.0
 11
-25.0
 21
2.964996337890625
 31
0.0
  0
LINE
  5
1E5
330
1F
100
AcDbEntity
  8
0
  6
DIVIDE
 62
     9
100
AcDbLine
 10
-30.0
 20
2.964996337890625
 30
0.0
 11
-30.0
 21
16.69999694824219
 31
0.0
  0
LINE
  5
1E6
330
1F
100
AcDbEntity
  8
0
  6
DIVIDE
 62
     9
100
AcDbLine
 10
4.0
 20
16.69999694824219
 30
0.0
 11
4.0
 21
2.964996337890625
 31
0.0
  0
LINE
  5
1E7
330
1F
100
AcDbEntity
  8
0
  6
DIVIDE
 62
     9
100
AcDbLine
 10
9.0
 20
16.69999694824219
 30
0.0
 11
9.0
 21
2.964996337890625
 31
0.0
  0
ARC
  5
1E8
330
1F
100
AcDbEntity
  8
0
  6
DIVIDE
 62
     9
100
AcDbCircle
 10
2.600006103515597
 20
19.8999938964844
 30
0.0
 40
10.10000038146973
100
AcDbArc
 50
151.6245578380287
 51
172.361599554456
  0
ARC
  5
1E9
330
1F
100
AcDbEntity
  8
0
  6
DIVIDE
 62
     9
100
AcDbCircle
 10
-7.699996948242188
 20
19.8999938964844
 30
0.0
 40
10.10000038146973
100
AcDbArc
 50
151.6245578380287
 51
172.2212391670123
  0
ARC
  5
1EA
330
1F
100
AcDbEntity
  8
0
  6
DIVIDE
 62
     9
100
AcDbCircle
 10
-17.03999328613281
 20
24.6000061035156
 30
0.0
 40
1.0
100
AcDbArc
 50
89.99998201391099
 51
179.999964027822
  0
ARC
  5
1EB
330
1F
100
AcDbEntity
  8
0
  6
DIVIDE
 62
     9
100
AcDbCircle
 10
-14.25999450683591
 20
24.6000061035156
 30
0.0
 40
1.0
100
AcDbArc
 50
0.0
 51
89.99998201391099
  0
ARC
  5
1EC
330
1F
100
AcDbEntity
  8
0
  6
DIVIDE
 62
     9
100
AcDbCircle
 10
-6.740005493164091
 20
24.6000061035156
 30
0.0
 40
1.0
100
AcDbArc
 50
89.99998201391099
 51
179.999964027822
  0
ARC
  5
1ED
330
1F
100
AcDbEntity
  8
0
  6
DIVIDE
 62
     9
100
AcDbCircle
 10
-3.960006713867188
 20
24.6000061035156
 30
0.0
 40
1.0
100
AcDbArc
 50
0.0
 51
89.99998201391099
  0
ARC
  5
1EE
330
1F
100
AcDbEntity
  8
0
  6
DIVIDE
 62
     9
100
AcDbCircle
 10
-23.6000061035156
 20
19.8999938964844
 30
0.0
 40
10.10000038146973
100
AcDbArc
 50
8.570139733712059
 51
28.37540618979259
  0
ARC
  5
1EF
330
1F
100
AcDbEntity
  8
0
  6
DIVIDE
 62
     9
100
AcDbCircle
 10
-13.30000305175781
 20
19.8999938964844
 30
0.0
 40
10.10000038146973
100
AcDbArc
 50
8.710137267356242
 51
28.37540618979259
  0
TEXT
  5
1F1
330
1F
100
AcDbEntity
  8
0
 62
     7
100
AcDbText
 10
153.5321424332532
 20
-109.8750183582306
 30
0.0
 40
4.150000095367432
  1
ＣＮ３１６
 41
0.6600000138340222
  7
FDASTYLE0
 72
     5
 11
173.096429142085
 21
-109.8750183582306
 31
0.0
100
AcDbText
  0
VIEWPORT
  5
2B
330
1B
100
AcDbEntity
 67
     1
  8
0
100
AcDbViewport
 10
64.02083589036519
 20
-38.33750307559964
 30
0.0
 40
605.124984824613
 41
429.2250916957857
 68
     1
 69
     1
1001
ACAD
1000
MVIEW
1002
{
1070
    16
1010
0.0
1020
0.0
1030
0.0
1010
0.0
1020
0.0
1030
1.0
1040
0.0
1040
429.2250916957857
1040
64.02083589036519
1040
-38.33750307559964
1040
50.0
1040
0.0
1040
0.0
1070
     0
1070
   100
1070
     0
1070
     1
1070
     0
1070
     0
1070
     0
1070
     0
1040
0.0
1040
0.0
1040
0.0
1040
0.5
1040
0.5
1040
0.0
1040
0.0
1070
     0
1002
{
1002
}
1002
}
  0
ENDSEC
  0
SECTION
  2
OBJECTS
  0
DICTIONARY
  5
C
330
0
100
AcDbDictionary
  3
ACAD_GROUP
350
D
  3
ACAD_LAYOUT
350
1A
  3
ACAD_MLINESTYLE
350
17
  3
ACAD_PLOTSETTINGS
350
19
  3
ACDBHEADERROUNDTRIPXREC
350
1F2
  0
DICTIONARY
  5
D
102
{ACAD_REACTORS
330
C
102
}
330
C
100
AcDbDictionary
  0
DICTIONARY
  5
1A
102
{ACAD_REACTORS
330
C
102
}
330
C
100
AcDbDictionary
  0
DICTIONARY
  5
17
102
{ACAD_REACTORS
330
C
102
}
330
C
100
AcDbDictionary
  3
STANDARD
350
18
  0
DICTIONARY
  5
19
102
{ACAD_REACTORS
330
C
102
}
330
C
100
AcDbDictionary
  0
DICTIONARY
  5
1F2
102
{ACAD_REACTORS
330
C
102
}
330
C
100
AcDbDictionary
  3
CEPSNTYPE
350
1FB
  3
DIMSTYLEDATA
350
211
  3
FINGERPRINTGUID
350
1FC
  3
HYPERLINKBASE
350
1F5
  3
INSUNITS
350
1FA
  3
LAYOUTDICT
350
1F7
  3
LWETCUNION
350
1F9
  3
PLOTSETDICT
350
1F8
  3
PSVPSCALE
350
1FE
  3
PUCSBASE
350
201
  3
PUCSORGBACK
350
207
  3
PUCSORGBOTTOM
350
203
  3
PUCSORGFRONT
350
206
  3
PUCSORGLEFT
350
204
  3
PUCSORGRIGHT
350
205
  3
PUCSORGTOP
350
202
  3
PUCSORTHOREF
350
1FF
  3
PUCSORTHOVIEW
350
200
  3
STYLESHEET
350
1F6
  3
TSTACKALIGN
350
1F3
  3
TSTACKSIZE
350
1F4
  3
UCSBASE
350
20A
  3
UCSORGBACK
350
210
  3
UCSORGBOTTOM
350
20C
  3
UCSORGFRONT
350
20F
  3
UCSORGLEFT
350
20D
  3
UCSORGRIGHT
350
20E
  3
UCSORGTOP
350
20B
  3
UCSORTHOREF
350
208
  3
UCSORTHOVIEW
350
209
  3
VERSIONGUID
350
1FD
  0
MLINESTYLE
  5
18
102
{ACAD_REACTORS
330
17
102
}
330
17
100
AcDbMlineStyle
  2
Standard
 70
     0
  3

 62
   256
 51
90.0
 52
90.0
 71
     2
 49
0.5
 62
   256
  6
BYLAYER
 49
-0.5
 62
   256
  6
BYLAYER
  0
XRECORD
  5
1FB
102
{ACAD_REACTORS
330
1F2
102
}
330
1F2
100
AcDbXrecord
 90
        0
  0
XRECORD
  5
211
102
{ACAD_REACTORS
330
1F2
102
}
330
1F2
100
AcDbXrecord
1000
DSTYLE
1002
{
1070
   171
 70
     2
1070
   143
 40
25.4
1070
   274
 70
     2
1070
   141
 40
0.09
1070
   271
 70
     4
1070
    43
 40
0.38
1070
    44
 40
0.18
1070
   278
 70
    46
1070
    42
 40
0.0625
1070
   147
 40
0.09
1070
    77
 70
     3
1070
   272
 70
     4
1070
    73
 70
     1
1070
   172
 70
     0
1070
    74
 70
     1
1070
   283
 70
     1
1070
   340
340
11
1070
   140
 40
0.18
1070
   284
 70
     0
1070
    78
 70
     0
1002
}
  0
XRECORD
  5
1FC
102
{ACAD_REACTORS
330
1F2
102
}
330
1F2
100
AcDbXrecord
  1
{D2CB1EAF-D434-4047-8248-72FFA6D113ED}
  0
XRECORD
  5
1F5
102
{ACAD_REACTORS
330
1F2
102
}
330
1F2
100
AcDbXrecord
  1

  0
XRECORD
  5
1FA
102
{ACAD_REACTORS
330
1F2
102
}
330
1F2
100
AcDbXrecord
 90
        4
  0
XRECORD
  5
1F7
102
{ACAD_REACTORS
330
1F2
102
}
330
1F2
100
AcDbXrecord
340
1A
  0
XRECORD
  5
1F9
102
{ACAD_REACTORS
330
1F2
102
}
330
1F2
100
AcDbXrecord
 90
    10781
  0
XRECORD
  5
1F8
102
{ACAD_REACTORS
330
1F2
102
}
330
1F2
100
AcDbXrecord
340
19
  0
XRECORD
  5
1FE
102
{ACAD_REACTORS
330
1F2
102
}
330
1F2
100
AcDbXrecord
 40
0.0
  0
XRECORD
  5
201
102
{ACAD_REACTORS
330
1F2
102
}
330
1F2
100
AcDbXrecord
340
0
  0
XRECORD
  5
207
102
{ACAD_REACTORS
330
1F2
102
}
330
1F2
100
AcDbXrecord
 10
0.0
 20
0.0
 30
0.0
  0
XRECORD
  5
203
102
{ACAD_REACTORS
330
1F2
102
}
330
1F2
100
AcDbXrecord
 10
0.0
 20
0.0
 30
0.0
  0
XRECORD
  5
206
102
{ACAD_REACTORS
330
1F2
102
}
330
1F2
100
AcDbXrecord
 10
0.0
 20
0.0
 30
0.0
  0
XRECORD
  5
204
102
{ACAD_REACTORS
330
1F2
102
}
330
1F2
100
AcDbXrecord
 10
0.0
 20
0.0
 30
0.0
  0
XRECORD
  5
205
102
{ACAD_REACTORS
330
1F2
102
}
330
1F2
100
AcDbXrecord
 10
0.0
 20
0.0
 30
0.0
  0
XRECORD
  5
202
102
{ACAD_REACTORS
330
1F2
102
}
330
1F2
100
AcDbXrecord
 10
0.0
 20
0.0
 30
0.0
  0
XRECORD
  5
1FF
102
{ACAD_REACTORS
330
1F2
102
}
330
1F2
100
AcDbXrecord
340
0
  0
XRECORD
  5
200
102
{ACAD_REACTORS
330
1F2
102
}
330
1F2
100
AcDbXrecord
 70
     0
  0
XRECORD
  5
1F6
102
{ACAD_REACTORS
330
1F2
102
}
330
1F2
100
AcDbXrecord
  1

  0
XRECORD
  5
1F3
102
{ACAD_REACTORS
330
1F2
102
}
330
1F2
100
AcDbXrecord
 90
        1
  0
XRECORD
  5
1F4
102
{ACAD_REACTORS
330
1F2
102
}
330
1F2
100
AcDbXrecord
 90
       70
  0
XRECORD
  5
20A
102
{ACAD_REACTORS
330
1F2
102
}
330
1F2
100
AcDbXrecord
340
0
  0
XRECORD
  5
210
102
{ACAD_REACTORS
330
1F2
102
}
330
1F2
100
AcDbXrecord
 10
0.0
 20
0.0
 30
0.0
  0
XRECORD
  5
20C
102
{ACAD_REACTORS
330
1F2
102
}
330
1F2
100
AcDbXrecord
 10
0.0
 20
0.0
 30
0.0
  0
XRECORD
  5
20F
102
{ACAD_REACTORS
330
1F2
102
}
330
1F2
100
AcDbXrecord
 10
0.0
 20
0.0
 30
0.0
  0
XRECORD
  5
20D
102
{ACAD_REACTORS
330
1F2
102
}
330
1F2
100
AcDbXrecord
 10
0.0
 20
0.0
 30
0.0
  0
XRECORD
  5
20E
102
{ACAD_REACTORS
330
1F2
102
}
330
1F2
100
AcDbXrecord
 10
0.0
 20
0.0
 30
0.0
  0
XRECORD
  5
20B
102
{ACAD_REACTORS
330
1F2
102
}
330
1F2
100
AcDbXrecord
 10
0.0
 20
0.0
 30
0.0
  0
XRECORD
  5
208
102
{ACAD_REACTORS
330
1F2
102
}
330
1F2
100
AcDbXrecord
340
0
  0
XRECORD
  5
209
102
{ACAD_REACTORS
330
1F2
102
}
330
1F2
100
AcDbXrecord
 70
     0
  0
XRECORD
  5
1FD
102
{ACAD_REACTORS
330
1F2
102
}
330
1F2
100
AcDbXrecord
  1
{FAEB1C32-E019-11D5-929B-00C0DF256EC4}
  0
ENDSEC
  0
EOF
