  0
SECTION
  2
HEADER
  9
$ACADVER
  1
AC1014
  9
$ACADMAINTVER
 70
     9
  9
$DWGCODEPAGE
  3
ANSI_932
  9
$INSBASE
 10
0.0
 20
0.0
 30
0.0
  9
$EXTMIN
 10
-238.5416563894575
 20
-250.4500336647034
 30
0.0
  9
$EXTMAX
 10
366.5833280377041
 20
171.275012254715
 30
0.0
  9
$LIMMIN
 10
-210.0
 20
-148.5
  9
$LIMMAX
 10
210.0
 20
148.5
  9
$ORTHOMODE
 70
     0
  9
$REGENMODE
 70
     1
  9
$FILLMODE
 70
     1
  9
$QTEXTMODE
 70
     0
  9
$MIRRTEXT
 70
     1
  9
$DRAGMODE
 70
     2
  9
$LTSCALE
 40
1.0
  9
$OSMODE
 70
    37
  9
$ATTMODE
 70
     1
  9
$TEXTSIZE
 40
0.2
  9
$TRACEWID
 40
0.05
  9
$TEXTSTYLE
  7
STANDARD
  9
$CLAYER
  8
0
  9
$CELTYPE
  6
BYLAYER
  9
$CECOLOR
 62
   256
  9
$CELTSCALE
 40
1.0
  9
$DELOBJ
 70
     1
  9
$DISPSILH
 70
     0
  9
$DIMSCALE
 40
1.0
  9
$DIMASZ
 40
2.5
  9
$DIMEXO
 40
0.0625
  9
$DIMDLI
 40
0.38
  9
$DIMRND
 40
0.0
  9
$DIMDLE
 40
0.0
  9
$DIMEXE
 40
0.18
  9
$DIMTP
 40
0.0
  9
$DIMTM
 40
0.0
  9
$DIMTXT
 40
0.18
  9
$DIMCEN
 40
0.09
  9
$DIMTSZ
 40
0.0
  9
$DIMTOL
 70
     0
  9
$DIMLIM
 70
     0
  9
$DIMTIH
 70
     1
  9
$DIMTOH
 70
     1
  9
$DIMSE1
 70
     0
  9
$DIMSE2
 70
     0
  9
$DIMTAD
 70
     3
  9
$DIMZIN
 70
     0
  9
$DIMBLK
  1

  9
$DIMASO
 70
     1
  9
$DIMSHO
 70
     1
  9
$DIMPOST
  1

  9
$DIMAPOST
  1

  9
$DIMALT
 70
     0
  9
$DIMALTD
 70
     2
  9
$DIMALTF
 40
25.4
  9
$DIMLFAC
 40
1.0
  9
$DIMTOFL
 70
     0
  9
$DIMTVP
 40
0.0
  9
$DIMTIX
 70
     0
  9
$DIMSOXD
 70
     0
  9
$DIMSAH
 70
     0
  9
$DIMBLK1
  1

  9
$DIMBLK2
  1

  9
$DIMSTYLE
  2
STANDARD
  9
$DIMCLRD
 70
     0
  9
$DIMCLRE
 70
     0
  9
$DIMCLRT
 70
     0
  9
$DIMTFAC
 40
1.0
  9
$DIMGAP
 40
0.09
  9
$DIMJUST
 70
     0
  9
$DIMSD1
 70
     0
  9
$DIMSD2
 70
     0
  9
$DIMTOLJ
 70
     1
  9
$DIMTZIN
 70
     0
  9
$DIMALTZ
 70
     0
  9
$DIMALTTZ
 70
     0
  9
$DIMFIT
 70
     3
  9
$DIMUPT
 70
     0
  9
$DIMUNIT
 70
     2
  9
$DIMDEC
 70
     4
  9
$DIMTDEC
 70
     4
  9
$DIMALTU
 70
     2
  9
$DIMALTTD
 70
     2
  9
$DIMTXSTY
  7
STANDARD
  9
$DIMAUNIT
 70
     0
  9
$LUNITS
 70
     2
  9
$LUPREC
 70
     4
  9
$SKETCHINC
 40
0.1
  9
$FILLETRAD
 40
0.5
  9
$AUNITS
 70
     0
  9
$AUPREC
 70
     0
  9
$MENU
  1
.
  9
$ELEVATION
 40
0.0
  9
$PELEVATION
 40
0.0
  9
$THICKNESS
 40
0.0
  9
$LIMCHECK
 70
     0
  9
$CHAMFERA
 40
0.5
  9
$CHAMFERB
 40
0.5
  9
$CHAMFERC
 40
1.0
  9
$CHAMFERD
 40
0.0
  9
$SKPOLY
 70
     0
  9
$TDCREATE
 40
2454068.485795833
  9
$TDUPDATE
 40
2454068.485795845
  9
$TDINDWG
 40
0.0000000116
  9
$TDUSRTIMER
 40
0.0000000116
  9
$USRTIMER
 70
     1
  9
$ANGBASE
 50
0.0
  9
$ANGDIR
 70
     0
  9
$PDMODE
 70
     0
  9
$PDSIZE
 40
1.0
  9
$PLINEWID
 40
0.0
  9
$COORDS
 70
     1
  9
$SPLFRAME
 70
     0
  9
$SPLINETYPE
 70
     6
  9
$SPLINESEGS
 70
     8
  9
$ATTDIA
 70
     0
  9
$ATTREQ
 70
     1
  9
$HANDLING
 70
     1
  9
$HANDSEED
  5
1F1
  9
$SURFTAB1
 70
     6
  9
$SURFTAB2
 70
     6
  9
$SURFTYPE
 70
     6
  9
$SURFU
 70
     6
  9
$SURFV
 70
     6
  9
$UCSNAME
  2

  9
$UCSORG
 10
0.0
 20
0.0
 30
0.0
  9
$UCSXDIR
 10
1.0
 20
0.0
 30
0.0
  9
$UCSYDIR
 10
0.0
 20
1.0
 30
0.0
  9
$PUCSNAME
  2

  9
$PUCSORG
 10
0.0
 20
0.0
 30
0.0
  9
$PUCSXDIR
 10
1.0
 20
0.0
 30
0.0
  9
$PUCSYDIR
 10
0.0
 20
1.0
 30
0.0
  9
$USERI1
 70
     0
  9
$USERI2
 70
     0
  9
$USERI3
 70
     0
  9
$USERI4
 70
     0
  9
$USERI5
 70
     0
  9
$USERR1
 40
0.0
  9
$USERR2
 40
0.0
  9
$USERR3
 40
0.0
  9
$USERR4
 40
0.0
  9
$USERR5
 40
0.0
  9
$WORLDVIEW
 70
     1
  9
$SHADEDGE
 70
     3
  9
$SHADEDIF
 70
    70
  9
$TILEMODE
 70
     1
  9
$MAXACTVP
 70
    64
  9
$PINSBASE
 10
0.0
 20
0.0
 30
0.0
  9
$PLIMCHECK
 70
     0
  9
$PEXTMIN
 10
1.000000000000000E+20
 20
1.000000000000000E+20
 30
1.000000000000000E+20
  9
$PEXTMAX
 10
-1.000000000000000E+20
 20
-1.000000000000000E+20
 30
-1.000000000000000E+20
  9
$PLIMMIN
 10
0.0
 20
0.0
  9
$PLIMMAX
 10
12.0
 20
9.0
  9
$UNITMODE
 70
     0
  9
$VISRETAIN
 70
     0
  9
$PLINEGEN
 70
     1
  9
$PSLTSCALE
 70
     0
  9
$TREEDEPTH
 70
  3020
  9
$PICKSTYLE
 70
     1
  9
$CMLSTYLE
  2
STANDARD
  9
$CMLJUST
 70
     0
  9
$CMLSCALE
 40
1.0
  9
$PROXYGRAPHICS
 70
     0
  9
$MEASUREMENT
 70
     1
  0
ENDSEC
  0
SECTION
  2
CLASSES
  0
CLASS
  1
ACDBDICTIONARYWDFLT
  2
AcDbDictionaryWithDefault
  3
ObjectDBX Classes
 90
        0
280
     0
281
     0
  0
CLASS
  1
XRECORD
  2
AcDbXrecord
  3
AutoCAD 2000
 90
        0
280
     0
281
     0
  0
CLASS
  1
LWPOLYLINE
  2
AcDbPolyline
  3
AutoCAD 2000
 90
        0
280
     0
281
     1
  0
CLASS
  1
HATCH
  2
AcDbHatch
  3
AutoCAD 2000
 90
        0
280
     0
281
     1
  0
CLASS
  1
ACDBPLACEHOLDER
  2
AcDbPlaceHolder
  3
ObjectDBX Classes
 90
        0
280
     0
281
     0
  0
CLASS
  1
LAYOUT
  2
AcDbLayout
  3
ObjectDBX Classes
 90
        0
280
     0
281
     0
  0
ENDSEC
  0
SECTION
  2
TABLES
  0
TABLE
  2
VPORT
  5
8
330
0
100
AcDbSymbolTable
 70
     1
  0
VPORT
  5
29
330
8
100
AcDbSymbolTableRecord
100
AcDbViewportTableRecord
  2
*ACTIVE
 70
     0
 10
0.0
 20
0.0
 11
1.0
 21
1.0
 12
0.0
 22
0.0
 13
0.0
 23
0.0
 14
0.5
 24
0.5
 15
0.5
 25
0.5
 16
0.0
 26
0.0
 36
1.0
 17
64.02305027792752
 27
-39.5875107049942
 37
0.0
 40
143.3865156126022
 41
1.434911862611106
 42
50.0
 43
0.0
 44
0.0
 50
0.0
 51
0.0
 71
     0
 72
  1000
 73
     1
 74
     1
 75
     0
 76
     0
 77
     0
 78
     0
  0
ENDTAB
  0
TABLE
  2
LTYPE
  5
5
330
0
100
AcDbSymbolTable
 70
    28
  0
LTYPE
  5
14
330
5
100
AcDbSymbolTableRecord
100
AcDbLinetypeTableRecord
  2
BYBLOCK
 70
     0
  3

 72
    65
 73
     0
 40
0.0
  0
LTYPE
  5
15
330
5
100
AcDbSymbolTableRecord
100
AcDbLinetypeTableRecord
  2
BYLAYER
 70
     0
  3

 72
    65
 73
     0
 40
0.0
  0
LTYPE
  5
16
330
5
100
AcDbSymbolTableRecord
100
AcDbLinetypeTableRecord
  2
CONTINUOUS
 70
     0
  3
Solid line
 72
    65
 73
     0
 40
0.0
  0
LTYPE
  5
2C
330
5
100
AcDbSymbolTableRecord
100
AcDbLinetypeTableRecord
  2
HIDDENX2
 70
     0
  3
CADPAC LINETYPE
 72
    65
 73
     2
 40
7.713498622589498
 49
5.785123966942123
 74
     0
 49
-1.928374655647374
 74
     0
  0
LTYPE
  5
2D
330
5
100
AcDbSymbolTableRecord
100
AcDbLinetypeTableRecord
  2
HIDDEN
 70
     0
  3
CADPAC LINETYPE
 72
    65
 73
     2
 40
5.785123966942123
 49
3.856749311294749
 74
     0
 49
-1.928374655647374
 74
     0
  0
LTYPE
  5
2E
330
5
100
AcDbSymbolTableRecord
100
AcDbLinetypeTableRecord
  2
HIDDEN2
 70
     0
  3
CADPAC LINETYPE
 72
    65
 73
     2
 40
4.820936639118436
 49
2.892561983471062
 74
     0
 49
-1.928374655647374
 74
     0
  0
LTYPE
  5
2F
330
5
100
AcDbSymbolTableRecord
100
AcDbLinetypeTableRecord
  2
DASHED
 70
     0
  3
CADPAC LINETYPE
 72
    65
 73
     2
 40
4.628099173553665
 49
2.314049586776832
 74
     0
 49
-2.314049586776832
 74
     0
  0
LTYPE
  5
30
330
5
100
AcDbSymbolTableRecord
100
AcDbLinetypeTableRecord
  2
DASHED2
 70
     0
  3
CADPAC LINETYPE
 72
    65
 73
     2
 40
2.699724517906276
 49
2.314049586776832
 74
     0
 49
-0.3856749311294436
 74
     0
  0
LTYPE
  5
31
330
5
100
AcDbSymbolTableRecord
100
AcDbLinetypeTableRecord
  2
DASHEDX2
 70
     0
  3
CADPAC LINETYPE
 72
    65
 73
     2
 40
2.699724517906276
 49
2.314049586776832
 74
     0
 49
-0.3856749311294436
 74
     0
  0
LTYPE
  5
32
330
5
100
AcDbSymbolTableRecord
100
AcDbLinetypeTableRecord
  2
DOTX2
 70
     0
  3
CADPAC LINETYPE
 72
    65
 73
     2
 40
0.4820936639118045
 49
0.0
 74
     0
 49
-0.4820936639118045
 74
     0
  0
LTYPE
  5
33
330
5
100
AcDbSymbolTableRecord
100
AcDbLinetypeTableRecord
  2
DOT
 70
     0
  3
CADPAC LINETYPE
 72
    65
 73
     2
 40
0.3856749311294436
 49
0.0
 74
     0
 49
-0.3856749311294436
 74
     0
  0
LTYPE
  5
34
330
5
100
AcDbSymbolTableRecord
100
AcDbLinetypeTableRecord
  2
DOT2
 70
     0
  3
CADPAC LINETYPE
 72
    65
 73
     2
 40
0.2892561983470827
 49
0.0
 74
     0
 49
-0.2892561983470827
 74
     0
  0
LTYPE
  5
35
330
5
100
AcDbSymbolTableRecord
100
AcDbLinetypeTableRecord
  2
CENTERX2
 70
     0
  3
CADPAC LINETYPE
 72
    65
 73
     4
 40
11.57024793388425
 49
4.820936639118436
 74
     0
 49
-2.410468319559218
 74
     0
 49
1.928374655647374
 74
     0
 49
-2.410468319559218
 74
     0
  0
LTYPE
  5
36
330
5
100
AcDbSymbolTableRecord
100
AcDbLinetypeTableRecord
  2
CENTER
 70
     0
  3
CADPAC LINETYPE
 72
    65
 73
     4
 40
8.870523415977923
 49
3.856749311294749
 74
     0
 49
-1.928374655647374
 74
     0
 49
1.157024793388425
 74
     0
 49
-1.928374655647374
 74
     0
  0
LTYPE
  5
37
330
5
100
AcDbSymbolTableRecord
100
AcDbLinetypeTableRecord
  2
CENTER2
 70
     0
  3
CADPAC LINETYPE
 72
    65
 73
     4
 40
6.170798898071598
 49
2.892561983471062
 74
     0
 49
-1.446280991735531
 74
     0
 49
0.3856749311294749
 74
     0
 49
-1.446280991735531
 74
     0
  0
LTYPE
  5
38
330
5
100
AcDbSymbolTableRecord
100
AcDbLinetypeTableRecord
  2
DASHDOTX2
 70
     0
  3
CADPAC LINETYPE
 72
    65
 73
     4
 40
5.39944903581258
 49
4.628099173553693
 74
     0
 49
-0.3856749311294436
 74
     0
 49
0.0
 74
     0
 49
-0.3856749311294436
 74
     0
  0
LTYPE
  5
39
330
5
100
AcDbSymbolTableRecord
100
AcDbLinetypeTableRecord
  2
DASHDOT
 70
     0
  3
CADPAC LINETYPE
 72
    65
 73
     4
 40
6.556473829200996
 49
4.628099173553693
 74
     0
 49
-0.3856749311294436
 74
     0
 49
1.157024793388416
 74
     0
 49
-0.3856749311294436
 74
     0
  0
LTYPE
  5
3A
330
5
100
AcDbSymbolTableRecord
100
AcDbLinetypeTableRecord
  2
DASHDOT2
 70
     0
  3
CADPAC LINETYPE
 72
    65
 73
     4
 40
4.165289256198276
 49
3.47107438016527
 74
     0
 49
-0.2892561983470827
 74
     0
 49
0.1157024793388416
 74
     0
 49
-0.2892561983470827
 74
     0
  0
LTYPE
  5
3B
330
5
100
AcDbSymbolTableRecord
100
AcDbLinetypeTableRecord
  2
DIVIDEX2
 70
     0
  3
CADPAC LINETYPE
 72
    65
 73
     6
 40
5.785123966942024
 49
4.628099173553693
 74
     0
 49
-0.3856749311294436
 74
     0
 49
0.0
 74
     0
 49
-0.3856749311294436
 74
     0
 49
0.0
 74
     0
 49
-0.3856749311294436
 74
     0
  0
LTYPE
  5
3C
330
5
100
AcDbSymbolTableRecord
100
AcDbLinetypeTableRecord
  2
DIVIDE
 70
     0
  3
CADPAC LINETYPE
 72
    65
 73
     6
 40
8.099173553718856
 49
4.628099173553693
 74
     0
 49
-0.3856749311294436
 74
     0
 49
1.157024793388416
 74
     0
 49
-0.3856749311294436
 74
     0
 49
1.157024793388416
 74
     0
 49
-0.3856749311294436
 74
     0
  0
LTYPE
  5
3D
330
5
100
AcDbSymbolTableRecord
100
AcDbLinetypeTableRecord
  2
DIVIDE2
 70
     0
  3
CADPAC LINETYPE
 72
    65
 73
     6
 40
6.074380165289142
 49
3.47107438016527
 74
     0
 49
-0.2892561983470827
 74
     0
 49
0.8677685950413121
 74
     0
 49
-0.2892561983470827
 74
     0
 49
0.8677685950413121
 74
     0
 49
-0.2892561983470827
 74
     0
  0
LTYPE
  5
3E
330
5
100
AcDbSymbolTableRecord
100
AcDbLinetypeTableRecord
  2
BORDERX2
 70
     0
  3
CADPAC LINETYPE
 72
    65
 73
     6
 40
16.87327823691453
 49
4.820936639118436
 74
     0
 49
-2.410468319559218
 74
     0
 49
4.820936639118436
 74
     0
 49
-2.410468319559218
 74
     0
 49
0.0
 74
     0
 49
-2.410468319559218
 74
     0
  0
LTYPE
  5
3F
330
5
100
AcDbSymbolTableRecord
100
AcDbLinetypeTableRecord
  2
BORDER
 70
     0
  3
CADPAC LINETYPE
 72
    65
 73
     6
 40
13.49862258953162
 49
3.856749311294749
 74
     0
 49
-1.928374655647374
 74
     0
 49
3.856749311294749
 74
     0
 49
-1.928374655647374
 74
     0
 49
0.0
 74
     0
 49
-1.928374655647374
 74
     0
  0
LTYPE
  5
40
330
5
100
AcDbSymbolTableRecord
100
AcDbLinetypeTableRecord
  2
BORDER2
 70
     0
  3
CADPAC LINETYPE
 72
    65
 73
     6
 40
5.013774104683094
 49
2.314049586776832
 74
     0
 49
-0.3856749311294436
 74
     0
 49
0.0
 74
     0
 49
-0.3856749311294436
 74
     0
 49
0.0
 74
     0
 49
-1.928374655647374
 74
     0
  0
LTYPE
  5
41
330
5
100
AcDbSymbolTableRecord
100
AcDbLinetypeTableRecord
  2
PHANTOMX2
 70
     0
  3
CADPAC LINETYPE
 72
    65
 73
     6
 40
14.46280991735531
 49
4.820936639118436
 74
     0
 49
-1.928374655647374
 74
     0
 49
1.928374655647374
 74
     0
 49
-1.928374655647374
 74
     0
 49
1.928374655647374
 74
     0
 49
-1.928374655647374
 74
     0
  0
LTYPE
  5
42
330
5
100
AcDbSymbolTableRecord
100
AcDbLinetypeTableRecord
  2
PHANTOM
 70
     0
  3
CADPAC LINETYPE
 72
    65
 73
     6
 40
11.95592286501372
 49
3.856749311294749
 74
     0
 49
-1.928374655647374
 74
     0
 49
1.157024793388425
 74
     0
 49
-1.928374655647374
 74
     0
 49
1.157024793388425
 74
     0
 49
-1.928374655647374
 74
     0
  0
LTYPE
  5
43
330
5
100
AcDbSymbolTableRecord
100
AcDbLinetypeTableRecord
  2
PHANTOM2
 70
     0
  3
CADPAC LINETYPE
 72
    65
 73
     6
 40
10.22038567493108
 49
2.892561983471062
 74
     0
 49
-1.928374655647374
 74
     0
 49
0.7713498622589499
 74
     0
 49
-1.928374655647374
 74
     0
 49
0.7713498622589499
 74
     0
 49
-1.928374655647374
 74
     0
  0
LTYPE
  5
44
330
5
100
AcDbSymbolTableRecord
100
AcDbLinetypeTableRecord
  2
ACAD_ISO06W100
 70
     0
  3
CADPAC LINETYPE
 72
    65
 73
     8
 40
6.170798898071467
 49
4.628099173553693
 74
     0
 49
-0.3856749311294436
 74
     0
 49
0.0
 74
     0
 49
-0.3856749311294436
 74
     0
 49
0.0
 74
     0
 49
-0.3856749311294436
 74
     0
 49
0.0
 74
     0
 49
-0.3856749311294436
 74
     0
  0
LTYPE
  5
45
330
5
100
AcDbSymbolTableRecord
100
AcDbLinetypeTableRecord
  2
ACAD_ISO13W100
 70
     0
  3
CADPAC LINETYPE
 72
    65
 73
     8
 40
15.426997245179
 49
3.856749311294749
 74
     0
 49
-1.928374655647374
 74
     0
 49
3.856749311294749
 74
     0
 49
-1.928374655647374
 74
     0
 49
0.0
 74
     0
 49
-1.928374655647374
 74
     0
 49
0.0
 74
     0
 49
-1.928374655647374
 74
     0
  0
LTYPE
  5
46
330
5
100
AcDbSymbolTableRecord
100
AcDbLinetypeTableRecord
  2
ACAD_ISO14W100
 70
     0
  3
CADPAC LINETYPE
 72
    65
 73
     8
 40
11.57024793388425
 49
3.856749311294749
 74
     0
 49
-1.928374655647374
 74
     0
 49
0.0
 74
     0
 49
-1.928374655647374
 74
     0
 49
0.0
 74
     0
 49
-1.928374655647374
 74
     0
 49
0.0
 74
     0
 49
-1.928374655647374
 74
     0
  0
ENDTAB
  0
TABLE
  2
LAYER
  5
2
330
0
100
AcDbSymbolTable
 70
     1
  0
LAYER
  5
10
330
2
100
AcDbSymbolTableRecord
100
AcDbLayerTableRecord
  2
0
 70
     0
 62
     7
  6
CONTINUOUS
  0
ENDTAB
  0
TABLE
  2
STYLE
  5
3
330
0
100
AcDbSymbolTable
 70
     2
  0
STYLE
  5
11
330
3
100
AcDbSymbolTableRecord
100
AcDbTextStyleTableRecord
  2
STANDARD
 70
     0
 40
0.0
 41
1.0
 50
0.0
 71
     0
 42
0.2
  3
txt
  4

  0
STYLE
  5
1CF
330
3
100
AcDbSymbolTableRecord
100
AcDbTextStyleTableRecord
  2
FDASTYLE0
 70
     0
 40
4.150000095367432
 41
0.660000054049203
 50
0.0
 71
     0
 42
0.2
  3
txt.shx
  4
bigfont
  0
ENDTAB
  0
TABLE
  2
VIEW
  5
6
330
0
100
AcDbSymbolTable
 70
     0
  0
ENDTAB
  0
TABLE
  2
UCS
  5
7
330
0
100
AcDbSymbolTable
 70
     0
  0
ENDTAB
  0
TABLE
  2
APPID
  5
9
330
0
100
AcDbSymbolTable
 70
     2
  0
APPID
  5
12
330
9
100
AcDbSymbolTableRecord
100
AcDbRegAppTableRecord
  2
ACAD
 70
     0
  0
APPID
  5
2A
330
9
100
AcDbSymbolTableRecord
100
AcDbRegAppTableRecord
  2
DAFUSIONOUT
 70
     0
  0
ENDTAB
  0
TABLE
  2
DIMSTYLE
  5
A
330
0
100
AcDbSymbolTable
 70
     1
  0
DIMSTYLE
105
27
330
A
100
AcDbSymbolTableRecord
100
AcDbDimStyleTableRecord
  2
STANDARD
 70
     0
  3

  4

  5

  6

  7

 40
1.0
 41
0.18
 42
0.0625
 43
0.38
 44
0.18
 45
0.0
 46
0.0
 47
0.0
 48
0.0
140
0.18
141
0.09
142
0.0
143
25.4
144
1.0
145
0.0
146
1.0
147
0.09
 71
     0
 72
     0
 73
     1
 74
     1
 75
     0
 76
     0
 77
     0
 78
     0
170
     0
171
     2
172
     0
173
     0
174
     0
175
     0
176
     0
177
     0
178
     0
270
     2
271
     4
272
     4
273
     2
274
     2
340
11
275
     0
280
     0
281
     0
282
     0
283
     1
284
     0
285
     0
286
     0
287
     3
288
     0
  0
ENDTAB
  0
TABLE
  2
BLOCK_RECORD
  5
1
330
0
100
AcDbSymbolTable
 70
     1
  0
BLOCK_RECORD
  5
1F
330
1
100
AcDbSymbolTableRecord
100
AcDbBlockTableRecord
  2
*MODEL_SPACE
  0
BLOCK_RECORD
  5
1B
330
1
100
AcDbSymbolTableRecord
100
AcDbBlockTableRecord
  2
*PAPER_SPACE
  0
ENDTAB
  0
ENDSEC
  0
SECTION
  2
BLOCKS
  0
BLOCK
  5
20
330
1F
100
AcDbEntity
  8
0
100
AcDbBlockBegin
  2
*MODEL_SPACE
 70
     0
 71
     0
 10
0.0
 20
0.0
 30
0.0
  3
*MODEL_SPACE
  1

  0
ENDBLK
  5
21
330
1F
100
AcDbEntity
  8
0
100
AcDbBlockEnd
  0
BLOCK
  5
1C
330
1B
100
AcDbEntity
 67
     1
  8
0
100
AcDbBlockBegin
  2
*PAPER_SPACE
 70
     0
 71
     0
 10
0.0
 20
0.0
 30
0.0
  3
*PAPER_SPACE
  1

  0
ENDBLK
  5
1D
330
1B
100
AcDbEntity
 67
     1
  8
0
100
AcDbBlockEnd
  0
ENDSEC
  0
SECTION
  2
ENTITIES
  0
LINE
  5
47
330
1F
100
AcDbEntity
  8
0
 62
     7
100
AcDbLine
 10
100.5049549561512
 20
13.75856247284321
 30
0.0
 11
98.61638982829081
 21
14.9451712256612
 31
0.0
  0
LINE
  5
48
330
1F
100
AcDbEntity
  8
0
 62
     7
100
AcDbLine
 10
105.9126634810073
 20
19.4519412372301
 30
0.0
 11
106.9538249643203
 21
14.89064075237172
 31
0.0
  0
LINE
  5
49
330
1F
100
AcDbEntity
  8
0
 62
     7
100
AcDbLine
 10
107.3253659042765
 20
24.04760329908518
 30
0.0
 11
107.4366339299149
 21
23.56014106827078
 31
0.0
  0
LINE
  5
4A
330
1F
100
AcDbEntity
  8
0
 62
     7
100
AcDbLine
 10
108.1464685114691
 20
16.1203303697755
 30
0.0
 11
106.9598183646519
 21
18.00886948864314
 31
0.0
  0
LINE
  5
4B
330
1F
100
AcDbEntity
  8
0
 62
     7
100
AcDbLine
 10
115.4891021901788
 20
18.90368023073151
 30
0.0
 11
114.448014859645
 21
14.34236282040948
 31
0.0
  0
LINE
  5
4C
330
1F
100
AcDbEntity
  8
0
 62
     7
100
AcDbLine
 10
118.7559456209216
 20
22.43123016564698
 30
0.0
 11
118.6446855199265
 21
21.94376612602304
 31
0.0
  0
LINE
  5
4D
330
1F
100
AcDbEntity
  8
0
 62
     7
100
AcDbLine
 10
116.0558248232366
 20
14.9329424731819
 30
0.0
 11
115.806092969362
 21
17.14932524147693
 31
0.0
  0
LINE
  5
4E
330
1F
100
AcDbEntity
  8
0
 62
     7
100
AcDbLine
 10
123.8789473657903
 20
14.25482287586311
 30
0.0
 11
120.961884329142
 21
10.59692421847461
 31
0.0
  0
LINE
  5
4F
330
1F
100
AcDbEntity
  8
0
 62
     7
100
AcDbLine
 10
128.3528380613794
 20
16.01560395830501
 30
0.0
 11
128.0410940620549
 21
15.62468749806683
 31
0.0
  0
LINE
  5
50
330
1F
100
AcDbEntity
  8
0
 62
     7
100
AcDbLine
 10
122.6667084871683
 20
10.43142115005264
 30
0.0
 11
123.4033570597181
 21
12.5366687495038
 31
0.0
  0
LINE
  5
51
330
1F
100
AcDbEntity
  8
0
 62
     7
100
AcDbLine
 10
129.4208930890076
 20
6.426133977802635
 30
0.0
 11
125.2056105210274
 21
4.39614082028055
 31
0.0
  0
LINE
  5
52
330
1F
100
AcDbEntity
  8
0
 62
     7
100
AcDbLine
 10
134.2156906618161
 20
6.071412395372107
 30
0.0
 11
133.7652070659816
 21
5.8544687854546
 31
0.0
  0
LINE
  5
53
330
1F
100
AcDbEntity
  8
0
 62
     7
100
AcDbLine
 10
126.6697836023138
 20
3.507353701048487
 30
0.0
 11
128.2469113145233
 21
5.084498828744472
 31
0.0
  0
LINE
  5
54
330
1F
100
AcDbEntity
  8
0
 62
     7
100
AcDbLine
 10
131.0172882080078
 20
-3.031784057617188
 30
0.0
 11
126.3386688232422
 21
-3.031784057617188
 31
0.0
  0
LINE
  5
55
330
1F
100
AcDbEntity
  8
0
 62
     7
100
AcDbLine
 10
135.183349609375
 20
-5.431777954101591
 30
0.0
 11
134.683349609375
 21
-5.431777954101591
 31
0.0
  0
LINE
  5
56
330
1F
100
AcDbEntity
  8
0
 62
     7
100
AcDbLine
 10
127.2722024667896
 20
-4.467860772759167
 30
0.0
 11
129.3774419226326
 21
-3.731188927229169
 31
0.0
  0
LINE
  5
57
330
1F
100
AcDbEntity
  8
0
 62
     7
100
AcDbLine
 10
128.3519689028954
 20
-12.24576787517273
 30
0.0
 11
124.1366753483374
 21
-10.21579753144684
 31
0.0
  0
LINE
  5
58
330
1F
100
AcDbEntity
  8
0
 62
     7
100
AcDbLine
 10
131.0641620981108
 20
-16.21567637705124
 30
0.0
 11
130.6136773281503
 21
-15.99873520522436
 31
0.0
  0
LINE
  5
59
330
1F
100
AcDbEntity
  8
0
 62
     7
100
AcDbLine
 10
124.3546692402989
 20
-11.91465781053947
 30
0.0
 11
126.571054772139
 21
-12.16436513659227
 31
0.0
  0
LINE
  5
5A
330
1F
100
AcDbEntity
  8
0
 62
     7
100
AcDbLine
 10
121.9528231239547
 20
-19.39085681129919
 30
0.0
 11
119.0357403720889
 21
-15.73297387628446
 31
0.0
  0
LINE
  5
5B
330
1F
100
AcDbEntity
  8
0
 62
     7
100
AcDbLine
 10
122.673958525606
 20
-24.1443920358047
 30
0.0
 11
122.3622124193332
 21
-23.75347725580301
 31
0.0
  0
LINE
  5
5C
330
1F
100
AcDbEntity
  8
0
 62
     7
100
AcDbLine
 10
118.4950583181762
 20
-17.35814539210219
 30
0.0
 11
120.3836105579879
 21
-18.5447746568417
 31
0.0
  0
LINE
  5
5D
330
1F
100
AcDbEntity
  8
0
 62
     7
100
AcDbLine
 10
113.0872473596999
 20
-23.05189229556977
 30
0.0
 11
112.0461354882445
 21
-18.49058048660297
 31
0.0
  0
LINE
  5
5E
330
1F
100
AcDbEntity
  8
0
 62
     7
100
AcDbLine
 10
111.6744943038144
 20
-27.6475704417855
 30
0.0
 11
111.5632315801522
 21
-27.16010700077349
 31
0.0
  0
LINE
  5
5F
330
1F
100
AcDbEntity
  8
0
 62
     7
100
AcDbLine
 10
110.8538812234466
 20
-19.72021779846841
 30
0.0
 11
112.0405518085132
 21
-21.60874407495278
 31
0.0
  0
LINE
  5
60
330
1F
100
AcDbEntity
  8
0
 62
     7
100
AcDbLine
 10
103.5111564207361
 20
-22.50376296588269
 30
0.0
 11
104.5522189625603
 21
-17.94243989778991
 31
0.0
  0
LINE
  5
61
330
1F
100
AcDbEntity
  8
0
 62
     7
100
AcDbLine
 10
100.2443345058357
 20
-26.03135466657491
 30
0.0
 11
100.355591957683
 21
-25.54389002230991
 31
0.0
  0
LINE
  5
62
330
1F
100
AcDbEntity
  8
0
 62
     7
100
AcDbLine
 10
102.9445089372736
 20
-18.5330050093342
 30
0.0
 11
103.1942647871326
 21
-20.74938507374009
 31
0.0
  0
LINE
  5
63
330
1F
100
AcDbEntity
  8
0
 62
     7
100
AcDbLine
 10
95.12121998875597
 20
-17.85499636445417
 30
0.0
 11
98.03826320868907
 21
-14.19708190392507
 31
0.0
  0
LINE
  5
64
330
1F
100
AcDbEntity
  8
0
 62
     7
100
AcDbLine
 10
90.64733649173158
 20
-19.61582909260099
 30
0.0
 11
90.95907837326088
 21
-19.22491094349491
 31
0.0
  0
LINE
  5
65
330
1F
100
AcDbEntity
  8
0
 62
     7
100
AcDbLine
 10
96.33348259182372
 20
-14.03161026577112
 30
0.0
 11
95.59685682446633
 21
-16.13686584486351
 31
0.0
  0
LINE
  5
66
330
1F
100
AcDbEntity
  8
0
 62
     7
100
AcDbLine
 10
89.57913320907193
 20
-10.02631693407952
 30
0.0
 11
93.79440478834403
 21
-7.996300958653535
 31
0.0
  0
LINE
  5
67
330
1F
100
AcDbEntity
  8
0
 62
     7
100
AcDbLine
 10
84.78432658920985
 20
-9.671641674886558
 30
0.0
 11
85.23480901069067
 21
-9.454695626439445
 31
0.0
  0
LINE
  5
68
330
1F
100
AcDbEntity
  8
0
 62
     7
100
AcDbLine
 10
92.33019287947958
 20
-7.107531188298111
 30
0.0
 11
90.75308225058139
 21
-8.684693398931813
 31
0.0
  0
LINE
  5
69
330
1F
100
AcDbEntity
  8
0
 62
     7
100
AcDbLine
 10
87.9826438880043
 20
-0.5683069499521025
 30
0.0
 11
92.66126327249579
 21
-0.5682563024878959
 31
0.0
  0
LINE
  5
6A
330
1F
100
AcDbEntity
  8
0
 62
     7
100
AcDbLine
 10
83.8165565065547
 20
1.831611329943939
 30
0.0
 11
84.3165565065254
 21
1.83161674259452
 31
0.0
  0
LINE
  5
6B
330
1F
100
AcDbEntity
  8
0
 62
     7
100
AcDbLine
 10
91.7276239328242
 20
0.8678577148027955
 30
0.0
 11
89.62239245299691
 21
0.1311630760419007
 31
0.0
  0
LINE
  5
6C
330
1F
100
AcDbEntity
  8
0
 62
     7
100
AcDbLine
 10
90.64792658081748
 20
8.645740573272775
 30
0.0
 11
94.86324215663728
 21
6.615815957983898
 31
0.0
  0
LINE
  5
6D
330
1F
100
AcDbEntity
  8
0
 62
     7
100
AcDbLine
 10
87.9356941366494
 20
12.61559241048889
 30
0.0
 11
88.3861812600031
 21
12.39865612562053
 31
0.0
  0
LINE
  5
6E
330
1F
100
AcDbEntity
  8
0
 62
     7
100
AcDbLine
 10
94.64516073377398
 20
8.314910656836332
 30
0.0
 11
92.42877249966439
 21
8.564593996559324
 31
0.0
  0
LINE
  5
6F
330
1F
100
AcDbEntity
  8
0
 62
     7
100
AcDbLine
 10
97.04709154695502
 20
15.79088282036554
 30
0.0
 11
99.96421406991192
 21
12.13303160229197
 31
0.0
  0
LINE
  5
70
330
1F
100
AcDbEntity
  8
0
 62
     7
100
AcDbLine
 10
96.32590129991718
 20
20.54438816571062
 30
0.0
 11
96.63765165649197
 21
20.15347677527092
 31
0.0
  0
LINE
  5
71
330
1F
100
AcDbEntity
  8
0
 62
     7
100
AcDbLine
 10
4.0
 20
13.19999694824219
 30
0.0
 11
9.0
 21
13.19999694824219
 31
0.0
  0
LINE
  5
72
330
1F
100
AcDbEntity
  8
0
 62
     7
100
AcDbLine
 10
4.0
 20
2.964996337890597
 30
0.0
 11
9.0
 21
2.964996337890597
 31
0.0
  0
LINE
  5
73
330
1F
100
AcDbEntity
  8
0
 62
     7
100
AcDbLine
 10
-25.0
 20
13.19999694824219
 30
0.0
 11
-30.0
 21
13.19999694824219
 31
0.0
  0
LINE
  5
74
330
1F
100
AcDbEntity
  8
0
 62
     7
100
AcDbLine
 10
-33.5
 20
-1.800003051757813
 30
0.0
 11
-33.5
 21
2.964996337890597
 31
0.0
  0
LINE
  5
75
330
1F
100
AcDbEntity
  8
0
 62
     7
100
AcDbLine
 10
-13.5
 20
-1.800003051757813
 30
0.0
 11
-13.5
 21
2.964996337890597
 31
0.0
  0
LINE
  5
76
330
1F
100
AcDbEntity
  8
0
 62
     7
100
AcDbLine
 10
-7.5
 20
-1.800003051757813
 30
0.0
 11
-7.5
 21
2.964996337890597
 31
0.0
  0
LINE
  5
77
330
1F
100
AcDbEntity
  8
0
 62
     7
100
AcDbLine
 10
12.5
 20
-1.800003051757813
 30
0.0
 11
12.5
 21
2.964996337890597
 31
0.0
  0
LINE
  5
78
330
1F
100
AcDbEntity
  8
0
 62
     7
100
AcDbLine
 10
-22.05000305175781
 20
20.85499572753909
 30
0.0
 11
-14.06578063964841
 21
20.85499572753909
 31
0.0
  0
LINE
  5
79
330
1F
100
AcDbEntity
  8
0
 62
     7
100
AcDbLine
 10
-14.50000175821654
 20
19.60501150338564
 30
0.0
 11
-14.00000376203803
 21
19.89763031267853
 31
0.0
  0
LINE
  5
7A
330
1F
100
AcDbEntity
  8
0
 62
     7
100
AcDbLine
 10
-14.0
 20
19.8976135253906
 30
0.0
 11
-12.15000915527341
 21
19.8976135253906
 31
0.0
  0
LINE
  5
7B
330
1F
100
AcDbEntity
  8
0
 62
     7
100
AcDbLine
 10
-12.1499938964844
 20
19.8976135253906
 30
0.0
 11
-12.1499938964844
 21
19.60499572753909
 31
0.0
  0
LINE
  5
7C
330
1F
100
AcDbEntity
  8
0
 62
     7
100
AcDbLine
 10
-14.0
 20
20.8929748535156
 30
0.0
 11
-12.15000915527341
 21
20.8929748535156
 31
0.0
  0
LINE
  5
7D
330
1F
100
AcDbEntity
  8
0
 62
     7
100
AcDbLine
 10
-12.1499938964844
 20
20.8929748535156
 30
0.0
 11
-12.1499938964844
 21
20.85499572753909
 31
0.0
  0
LINE
  5
7E
330
1F
100
AcDbEntity
  8
0
 62
     7
100
AcDbLine
 10
-14.06580517087082
 20
20.85501074436922
 30
0.0
 11
-14.00002339323544
 21
20.89298986719874
 31
0.0
  0
LINE
  5
7F
330
1F
100
AcDbEntity
  8
0
 62
     7
100
AcDbLine
 10
-12.15000915527341
 20
20.85499572753909
 30
0.0
 11
-10.5
 21
20.85499572753909
 31
0.0
  0
LINE
  5
80
330
1F
100
AcDbEntity
  8
0
 62
     7
100
AcDbLine
 10
-22.05000305175781
 20
18.35499572753909
 30
0.0
 11
-14.06578063964841
 21
18.35499572753909
 31
0.0
  0
LINE
  5
81
330
1F
100
AcDbEntity
  8
0
 62
     7
100
AcDbLine
 10
-14.49999700370859
 20
19.60500861757461
 30
0.0
 11
-14.00001219186123
 21
19.31239748974917
 31
0.0
  0
LINE
  5
82
330
1F
100
AcDbEntity
  8
0
 62
     7
100
AcDbLine
 10
-14.0
 20
19.3123779296875
 30
0.0
 11
-12.15000915527341
 21
19.3123779296875
 31
0.0
  0
LINE
  5
83
330
1F
100
AcDbEntity
  8
0
 62
     7
100
AcDbLine
 10
-12.1499938964844
 20
19.3123779296875
 30
0.0
 11
-12.1499938964844
 21
19.60499572753909
 31
0.0
  0
LINE
  5
84
330
1F
100
AcDbEntity
  8
0
 62
     7
100
AcDbLine
 10
-14.0
 20
18.3170166015625
 30
0.0
 11
-12.15000915527341
 21
18.3170166015625
 31
0.0
  0
LINE
  5
85
330
1F
100
AcDbEntity
  8
0
 62
     7
100
AcDbLine
 10
-12.1499938964844
 20
18.3170166015625
 30
0.0
 11
-12.1499938964844
 21
18.35499572753909
 31
0.0
  0
LINE
  5
86
330
1F
100
AcDbEntity
  8
0
 62
     7
100
AcDbLine
 10
-14.06576171648419
 20
18.35497543140437
 30
0.0
 11
-14.00000635985725
 21
18.31701158120214
 31
0.0
  0
LINE
  5
87
330
1F
100
AcDbEntity
  8
0
 62
     7
100
AcDbLine
 10
-12.15000915527341
 20
18.35499572753909
 30
0.0
 11
-10.5
 21
18.35499572753909
 31
0.0
  0
LINE
  5
88
330
1F
100
AcDbEntity
  8
0
 62
     7
100
AcDbLine
 10
-21.80000305175781
 20
18.35499572753909
 30
0.0
 11
-14.06578063964841
 21
18.35499572753909
 31
0.0
  0
LINE
  5
89
330
1F
100
AcDbEntity
  8
0
 62
     7
100
AcDbLine
 10
-14.49999700370859
 20
19.60500861757461
 30
0.0
 11
-14.00001219186123
 21
19.31239748974917
 31
0.0
  0
LINE
  5
8A
330
1F
100
AcDbEntity
  8
0
 62
     7
100
AcDbLine
 10
-14.0
 20
19.3123779296875
 30
0.0
 11
-12.15000915527341
 21
19.3123779296875
 31
0.0
  0
LINE
  5
8B
330
1F
100
AcDbEntity
  8
0
 62
     7
100
AcDbLine
 10
-12.1499938964844
 20
19.3123779296875
 30
0.0
 11
-12.1499938964844
 21
19.60499572753909
 31
0.0
  0
LINE
  5
8C
330
1F
100
AcDbEntity
  8
0
 62
     7
100
AcDbLine
 10
-14.0
 20
18.3170166015625
 30
0.0
 11
-12.15000915527341
 21
18.3170166015625
 31
0.0
  0
LINE
  5
8D
330
1F
100
AcDbEntity
  8
0
 62
     7
100
AcDbLine
 10
-12.1499938964844
 20
18.3170166015625
 30
0.0
 11
-12.1499938964844
 21
18.35499572753909
 31
0.0
  0
LINE
  5
8E
330
1F
100
AcDbEntity
  8
0
 62
     7
100
AcDbLine
 10
-14.06576171648419
 20
18.35497543140437
 30
0.0
 11
-14.00000635985725
 21
18.31701158120214
 31
0.0
  0
LINE
  5
8F
330
1F
100
AcDbEntity
  8
0
 62
     7
100
AcDbLine
 10
-12.15000915527341
 20
18.35499572753909
 30
0.0
 11
-10.5
 21
18.35499572753909
 31
0.0
  0
LINE
  5
90
330
1F
100
AcDbEntity
  8
0
 62
     7
100
AcDbLine
 10
-21.80000305175781
 20
20.85499572753909
 30
0.0
 11
-14.06578063964841
 21
20.85499572753909
 31
0.0
  0
LINE
  5
91
330
1F
100
AcDbEntity
  8
0
 62
     7
100
AcDbLine
 10
-14.50002097266932
 20
19.60501054309961
 30
0.0
 11
-14.00002295262823
 21
19.8976293116184
 31
0.0
  0
LINE
  5
92
330
1F
100
AcDbEntity
  8
0
 62
     7
100
AcDbLine
 10
-14.0
 20
19.8976135253906
 30
0.0
 11
-12.15000915527341
 21
19.8976135253906
 31
0.0
  0
LINE
  5
93
330
1F
100
AcDbEntity
  8
0
 62
     7
100
AcDbLine
 10
-12.1499938964844
 20
19.8976135253906
 30
0.0
 11
-12.1499938964844
 21
19.60499572753909
 31
0.0
  0
LINE
  5
94
330
1F
100
AcDbEntity
  8
0
 62
     7
100
AcDbLine
 10
-14.0
 20
20.8929748535156
 30
0.0
 11
-12.15000915527341
 21
20.8929748535156
 31
0.0
  0
LINE
  5
95
330
1F
100
AcDbEntity
  8
0
 62
     7
100
AcDbLine
 10
-12.1499938964844
 20
20.8929748535156
 30
0.0
 11
-12.1499938964844
 21
20.85499572753909
 31
0.0
  0
LINE
  5
96
330
1F
100
AcDbEntity
  8
0
 62
     7
100
AcDbLine
 10
-14.06575678673943
 20
20.85495954285716
 30
0.0
 11
-13.99997500111061
 21
20.8929386518418
 31
0.0
  0
LINE
  5
97
330
1F
100
AcDbEntity
  8
0
 62
     7
100
AcDbLine
 10
-12.15000915527341
 20
20.85499572753909
 30
0.0
 11
-10.5
 21
20.85499572753909
 31
0.0
  0
LINE
  5
98
330
1F
100
AcDbEntity
  8
0
 62
     7
100
AcDbLine
 10
1.050003051757813
 20
20.85499572753909
 30
0.0
 11
-6.934219360351591
 21
20.85499572753909
 31
0.0
  0
LINE
  5
99
330
1F
100
AcDbEntity
  8
0
 62
     7
100
AcDbLine
 10
-6.500011348992416
 20
19.60501279159414
 30
0.0
 11
-6.999996160839743
 21
19.89762391941954
 31
0.0
  0
LINE
  5
9A
330
1F
100
AcDbEntity
  8
0
 62
     7
100
AcDbLine
 10
-7.0
 20
19.8976135253906
 30
0.0
 11
-8.850006103515597
 21
19.8976135253906
 31
0.0
  0
LINE
  5
9B
330
1F
100
AcDbEntity
  8
0
 62
     7
100
AcDbLine
 10
-8.850006103515597
 20
19.8976135253906
 30
0.0
 11
-8.850006103515597
 21
19.60499572753909
 31
0.0
  0
LINE
  5
9C
330
1F
100
AcDbEntity
  8
0
 62
     7
100
AcDbLine
 10
-7.0
 20
20.8929748535156
 30
0.0
 11
-8.850006103515597
 21
20.8929748535156
 31
0.0
  0
LINE
  5
9D
330
1F
100
AcDbEntity
  8
0
 62
     7
100
AcDbLine
 10
-8.850006103515597
 20
20.8929748535156
 30
0.0
 11
-8.850006103515597
 21
20.85499572753909
 31
0.0
  0
LINE
  5
9E
330
1F
100
AcDbEntity
  8
0
 62
     7
100
AcDbLine
 10
-6.934225081130734
 20
20.854989328974
 30
0.0
 11
-7.000006866759492
 21
20.8929684379585
 31
0.0
  0
LINE
  5
9F
330
1F
100
AcDbEntity
  8
0
 62
     7
100
AcDbLine
 10
-8.850006103515597
 20
20.85499572753909
 30
0.0
 11
-10.5
 21
20.85499572753909
 31
0.0
  0
LINE
  5
A0
330
1F
100
AcDbEntity
  8
0
 62
     7
100
AcDbLine
 10
1.050003051757813
 20
18.35499572753909
 30
0.0
 11
-6.934219360351591
 21
18.35499572753909
 31
0.0
  0
LINE
  5
A1
330
1F
100
AcDbEntity
  8
0
 62
     7
100
AcDbLine
 10
-6.500013637238283
 20
19.60501357361318
 30
0.0
 11
-7.000018241919008
 21
19.31239095150096
 31
0.0
  0
LINE
  5
A2
330
1F
100
AcDbEntity
  8
0
 62
     7
100
AcDbLine
 10
-7.0
 20
19.3123779296875
 30
0.0
 11
-8.850006103515597
 21
19.3123779296875
 31
0.0
  0
LINE
  5
A3
330
1F
100
AcDbEntity
  8
0
 62
     7
100
AcDbLine
 10
-8.850006103515597
 20
19.3123779296875
 30
0.0
 11
-8.850006103515597
 21
19.60499572753909
 31
0.0
  0
LINE
  5
A4
330
1F
100
AcDbEntity
  8
0
 62
     7
100
AcDbLine
 10
-7.0
 20
18.3170166015625
 30
0.0
 11
-8.850006103515597
 21
18.3170166015625
 31
0.0
  0
LINE
  5
A5
330
1F
100
AcDbEntity
  8
0
 62
     7
100
AcDbLine
 10
-8.850006103515597
 20
18.3170166015625
 30
0.0
 11
-8.850006103515597
 21
18.35499572753909
 31
0.0
  0
LINE
  5
A6
330
1F
100
AcDbEntity
  8
0
 62
     7
100
AcDbLine
 10
-6.934211773721245
 20
18.35497691112579
 30
0.0
 11
-6.99999355935006
 21
18.31699780214129
 31
0.0
  0
LINE
  5
A7
330
1F
100
AcDbEntity
  8
0
 62
     7
100
AcDbLine
 10
-8.850006103515597
 20
18.35499572753909
 30
0.0
 11
-10.5
 21
18.35499572753909
 31
0.0
  0
LINE
  5
A8
330
1F
100
AcDbEntity
  8
0
 62
     7
100
AcDbLine
 10
0.8000030517578125
 20
18.35499572753909
 30
0.0
 11
-6.934219360351591
 21
18.35499572753909
 31
0.0
  0
LINE
  5
A9
330
1F
100
AcDbEntity
  8
0
 62
     7
100
AcDbLine
 10
-6.500013637238283
 20
19.60501357361318
 30
0.0
 11
-7.000018241919008
 21
19.31239095150096
 31
0.0
  0
LINE
  5
AA
330
1F
100
AcDbEntity
  8
0
 62
     7
100
AcDbLine
 10
-7.0
 20
19.3123779296875
 30
0.0
 11
-8.850006103515597
 21
19.3123779296875
 31
0.0
  0
LINE
  5
AB
330
1F
100
AcDbEntity
  8
0
 62
     7
100
AcDbLine
 10
-8.850006103515597
 20
19.3123779296875
 30
0.0
 11
-8.850006103515597
 21
19.60499572753909
 31
0.0
  0
LINE
  5
AC
330
1F
100
AcDbEntity
  8
0
 62
     7
100
AcDbLine
 10
-7.0
 20
18.3170166015625
 30
0.0
 11
-8.850006103515597
 21
18.3170166015625
 31
0.0
  0
LINE
  5
AD
330
1F
100
AcDbEntity
  8
0
 62
     7
100
AcDbLine
 10
-8.850006103515597
 20
18.3170166015625
 30
0.0
 11
-8.850006103515597
 21
18.35499572753909
 31
0.0
  0
LINE
  5
AE
330
1F
100
AcDbEntity
  8
0
 62
     7
100
AcDbLine
 10
-6.934211773721245
 20
18.35497691112579
 30
0.0
 11
-6.99999355935006
 21
18.31699780214129
 31
0.0
  0
LINE
  5
AF
330
1F
100
AcDbEntity
  8
0
 62
     7
100
AcDbLine
 10
-8.850006103515597
 20
18.35499572753909
 30
0.0
 11
-10.5
 21
18.35499572753909
 31
0.0
  0
LINE
  5
B0
330
1F
100
AcDbEntity
  8
0
 62
     7
100
AcDbLine
 10
0.8000030517578125
 20
20.85499572753909
 30
0.0
 11
-6.934219360351591
 21
20.85499572753909
 31
0.0
  0
LINE
  5
B1
330
1F
100
AcDbEntity
  8
0
 62
     7
100
AcDbLine
 10
-6.500005615598866
 20
19.60498462416948
 30
0.0
 11
-6.999990520328282
 21
19.89759559328718
 31
0.0
  0
LINE
  5
B2
330
1F
100
AcDbEntity
  8
0
 62
     7
100
AcDbLine
 10
-7.0
 20
19.8976135253906
 30
0.0
 11
-8.850006103515597
 21
19.8976135253906
 31
0.0
  0
LINE
  5
B3
330
1F
100
AcDbEntity
  8
0
 62
     7
100
AcDbLine
 10
-8.850006103515597
 20
19.8976135253906
 30
0.0
 11
-8.850006103515597
 21
19.60499572753909
 31
0.0
  0
LINE
  5
B4
330
1F
100
AcDbEntity
  8
0
 62
     7
100
AcDbLine
 10
-7.0
 20
20.8929748535156
 30
0.0
 11
-8.850006103515597
 21
20.8929748535156
 31
0.0
  0
LINE
  5
B5
330
1F
100
AcDbEntity
  8
0
 62
     7
100
AcDbLine
 10
-8.850006103515597
 20
20.8929748535156
 30
0.0
 11
-8.850006103515597
 21
20.85499572753909
 31
0.0
  0
LINE
  5
B6
330
1F
100
AcDbEntity
  8
0
 62
     7
100
AcDbLine
 10
-6.934225081130734
 20
20.854989328974
 30
0.0
 11
-7.000006866759492
 21
20.8929684379585
 31
0.0
  0
LINE
  5
B7
330
1F
100
AcDbEntity
  8
0
 62
     7
100
AcDbLine
 10
-8.850006103515597
 20
20.85499572753909
 30
0.0
 11
-10.5
 21
20.85499572753909
 31
0.0
  0
LINE
  5
B8
330
1F
100
AcDbEntity
  8
0
 62
     7
100
AcDbLine
 10
-22.3500061035156
 20
20.55499267578131
 30
0.0
 11
-22.3500061035156
 21
18.6549987792969
 31
0.0
  0
LINE
  5
B9
330
1F
100
AcDbEntity
  8
0
 62
     7
100
AcDbLine
 10
1.350006103515597
 20
20.55499267578131
 30
0.0
 11
1.350006103515597
 21
18.6549987792969
 31
0.0
  0
LINE
  5
BA
330
1F
100
AcDbEntity
  8
0
 62
     7
100
AcDbLine
 10
-22.34997741631196
 20
20.55497566749278
 30
0.0
 11
-22.04997538575296
 21
20.85497752103387
 31
0.0
  0
LINE
  5
BB
330
1F
100
AcDbEntity
  8
0
 62
     7
100
AcDbLine
 10
-22.34997410651278
 20
18.65498002006797
 30
0.0
 11
-22.04998016815108
 21
18.35498625871935
 31
0.0
  0
LINE
  5
BC
330
1F
100
AcDbEntity
  8
0
 62
     7
100
AcDbLine
 10
1.350006121402146
 20
20.55498312748568
 30
0.0
 11
1.050012183040423
 21
20.8549768888343
 31
0.0
  0
LINE
  5
BD
330
1F
100
AcDbEntity
  8
0
 62
     7
100
AcDbLine
 10
1.350024390790964
 20
18.6549779548653
 30
0.0
 11
1.050022360231907
 21
18.35497610132413
 31
0.0
  0
LINE
  5
BE
330
1F
100
AcDbEntity
  8
0
 62
     7
100
AcDbLine
 10
-22.05000305175781
 20
20.85499572753909
 30
0.0
 11
-22.05000305175781
 21
18.35499572753909
 31
0.0
  0
LINE
  5
BF
330
1F
100
AcDbEntity
  8
0
 62
     7
100
AcDbLine
 10
1.050003051757813
 20
20.85499572753909
 30
0.0
 11
1.050003051757813
 21
18.35499572753909
 31
0.0
  0
LINE
  5
C0
330
1F
100
AcDbEntity
  8
0
 62
     7
100
AcDbLine
 10
-20.1000061035156
 20
24.19999694824219
 30
0.0
 11
-0.8999938964844034
 21
24.19999694824219
 31
0.0
  0
LINE
  5
C1
330
1F
100
AcDbEntity
  8
0
 62
     7
100
AcDbLine
 10
1.100006103515597
 20
22.19999694824219
 30
0.0
 11
1.100006103515597
 21
20.80497741699219
 31
0.0
  0
LINE
  5
C2
330
1F
100
AcDbEntity
  8
0
 62
     7
100
AcDbLine
 10
-22.1000061035156
 20
22.19999694824219
 30
0.0
 11
-22.1000061035156
 21
20.80497741699219
 31
0.0
  0
LINE
  5
C3
330
1F
100
AcDbEntity
  8
0
 62
     7
100
AcDbLine
 10
-22.1000061035156
 20
-25.8000030517578
 30
0.0
 11
-22.1000061035156
 21
-1.800003051757813
 31
0.0
  0
LINE
  5
C4
330
1F
100
AcDbEntity
  8
0
 62
     7
100
AcDbLine
 10
1.100006103515597
 20
-1.800003051757813
 30
0.0
 11
1.100006103515597
 21
-25.8000030517578
 31
0.0
  0
LINE
  5
C5
330
1F
100
AcDbEntity
  8
0
 62
     7
100
AcDbLine
 10
-0.8999938964844034
 20
-27.8000030517578
 30
0.0
 11
-20.1000061035156
 21
-27.8000030517578
 31
0.0
  0
LINE
  5
C6
330
1F
100
AcDbEntity
  8
0
 62
     7
100
AcDbLine
 10
-33.5
 20
-15.6000061035156
 30
0.0
 11
-33.5
 21
-1.800003051757813
 31
0.0
  0
LINE
  5
C7
330
1F
100
AcDbEntity
  8
0
 62
     7
100
AcDbLine
 10
12.5
 20
-1.800003051757813
 30
0.0
 11
12.5
 21
-15.6000061035156
 31
0.0
  0
LINE
  5
C8
330
1F
100
AcDbEntity
  8
0
 62
     7
100
AcDbLine
 10
-32.30000305175781
 20
-16.80000305175781
 30
0.0
 11
-22.1000061035156
 21
-16.80000305175781
 31
0.0
  0
LINE
  5
C9
330
1F
100
AcDbEntity
  8
0
 62
     7
100
AcDbLine
 10
1.100006103515597
 20
-16.80000305175781
 30
0.0
 11
11.30000305175781
 21
-16.80000305175781
 31
0.0
  0
LINE
  5
CA
330
1F
100
AcDbEntity
  8
0
 62
     7
100
AcDbLine
 10
-33.50000910893232
 20
-15.6000001418561
 30
0.0
 11
-32.300012130325
 21
-16.79999712046333
 31
0.0
  0
LINE
  5
CB
330
1F
100
AcDbEntity
  8
0
 62
     7
100
AcDbLine
 10
11.30001116405509
 20
-16.80000791005659
 30
0.0
 11
12.50000814266241
 21
-15.60001093144928
 31
0.0
  0
LINE
  5
CC
330
1F
100
AcDbEntity
  8
0
 62
     7
100
AcDbLine
 10
-32.30000305175781
 20
-16.80000305175781
 30
0.0
 11
-32.30000305175781
 21
-1.800003051757813
 31
0.0
  0
LINE
  5
CD
330
1F
100
AcDbEntity
  8
0
 62
     7
100
AcDbLine
 10
11.3000183105469
 20
-16.80000305175781
 30
0.0
 11
11.3000183105469
 21
-1.800003051757813
 31
0.0
  0
LINE
  5
CE
330
1F
100
AcDbEntity
  8
0
 62
     7
100
AcDbLine
 10
-22.1000061035156
 20
15.60499572753909
 30
0.0
 11
-18.03999328613281
 21
15.60499572753909
 31
0.0
  0
LINE
  5
CF
330
1F
100
AcDbEntity
  8
0
 62
     7
100
AcDbLine
 10
-13.25999450683591
 20
15.60499572753909
 30
0.0
 11
-7.740005493164091
 21
15.60499572753909
 31
0.0
  0
LINE
  5
D0
330
1F
100
AcDbEntity
  8
0
 62
     7
100
AcDbLine
 10
-2.960006713867188
 20
15.60499572753909
 30
0.0
 11
1.100006103515597
 21
15.60499572753909
 31
0.0
  0
LINE
  5
D1
330
1F
100
AcDbEntity
  8
0
 62
     7
100
AcDbLine
 10
-19.5
 20
24.19999694824219
 30
0.0
 11
-19.5
 21
20.85499572753909
 31
0.0
  0
LINE
  5
D2
330
1F
100
AcDbEntity
  8
0
 62
     7
100
AcDbLine
 10
-1.5
 20
24.19999694824219
 30
0.0
 11
-1.5
 21
20.85499572753909
 31
0.0
  0
LINE
  5
D3
330
1F
100
AcDbEntity
  8
0
 62
     7
100
AcDbLine
 10
-9.199996948242188
 20
24.19999694824219
 30
0.0
 11
-9.199996948242188
 21
20.85499572753909
 31
0.0
  0
LINE
  5
D4
330
1F
100
AcDbEntity
  8
0
 62
     7
100
AcDbLine
 10
-11.80000305175781
 20
15.60499572753909
 30
0.0
 11
-11.80000305175781
 21
18.35499572753909
 31
0.0
  0
LINE
  5
D5
330
1F
100
AcDbEntity
  8
0
 62
     7
100
AcDbLine
 10
-22.1000061035156
 20
18.40501403808591
 30
0.0
 11
-22.1000061035156
 21
13.19999694824219
 31
0.0
  0
LINE
  5
D6
330
1F
100
AcDbEntity
  8
0
 62
     7
100
AcDbLine
 10
1.100006103515597
 20
18.40498352050781
 30
0.0
 11
1.100006103515597
 21
13.19999694824219
 31
0.0
  0
LINE
  5
D7
330
1F
100
AcDbEntity
  8
0
 62
     7
100
AcDbLine
 10
-13.25999450683591
 20
18.14915466308591
 30
0.0
 11
-13.25999450683591
 21
15.60499572753909
 31
0.0
  0
LINE
  5
D8
330
1F
100
AcDbEntity
  8
0
 62
     7
100
AcDbLine
 10
-7.740005493164091
 20
18.3001708984375
 30
0.0
 11
-7.740005493164091
 21
15.60499572753909
 31
0.0
  0
LINE
  5
D9
330
1F
100
AcDbEntity
  8
0
 62
     7
100
AcDbLine
 10
-2.960006713867188
 20
18.324951171875
 30
0.0
 11
-2.960006713867188
 21
13.24530029296881
 31
0.0
  0
LINE
  5
DA
330
1F
100
AcDbEntity
  8
0
 62
     7
100
AcDbLine
 10
-19.5
 20
18.35499572753909
 30
0.0
 11
-19.5
 21
15.60499572753909
 31
0.0
  0
LINE
  5
DB
330
1F
100
AcDbEntity
  8
0
 62
     7
100
AcDbLine
 10
-11.80000305175781
 20
20.85499572753909
 30
0.0
 11
-11.80000305175781
 21
24.19999694824219
 31
0.0
  0
LINE
  5
DC
330
1F
100
AcDbEntity
  8
0
 62
     7
100
AcDbLine
 10
-9.199996948242188
 20
18.35499572753909
 30
0.0
 11
-9.199996948242188
 21
15.60499572753909
 31
0.0
  0
LINE
  5
DD
330
1F
100
AcDbEntity
  8
0
 62
     7
100
AcDbLine
 10
-1.5
 20
18.35499572753909
 30
0.0
 11
-1.5
 21
15.60499572753909
 31
0.0
  0
LINE
  5
DE
330
1F
100
AcDbEntity
  8
0
 62
     7
100
AcDbLine
 10
-18.03999328613281
 20
18.33869934082031
 30
0.0
 11
-18.03999328613281
 21
13.23541259765631
 31
0.0
  0
LINE
  5
DF
330
1F
100
AcDbEntity
  8
0
 62
     7
100
AcDbLine
 10
-20.80000305175781
 20
-9.671661376953097
 30
0.0
 11
-19.5
 21
-9.671661376953097
 31
0.0
  0
LINE
  5
E0
330
1F
100
AcDbEntity
  8
0
 62
     7
100
AcDbLine
 10
-20.80000305175781
 20
-19.6158447265625
 30
0.0
 11
-19.5
 21
-19.6158447265625
 31
0.0
  0
LINE
  5
E1
330
1F
100
AcDbEntity
  8
0
 62
     7
100
AcDbLine
 10
-20.80000305175781
 20
-26.0313720703125
 30
0.0
 11
-19.5
 21
-26.0313720703125
 31
0.0
  0
LINE
  5
E2
330
1F
100
AcDbEntity
  8
0
 62
     7
100
AcDbLine
 10
-19.5
 20
-7.171661376953097
 30
0.0
 11
-19.5
 21
-9.671661376953097
 31
0.0
  0
LINE
  5
E3
330
1F
100
AcDbEntity
  8
0
 62
     7
100
AcDbLine
 10
-11.80000305175781
 20
-7.171661376953097
 30
0.0
 11
-19.5
 21
-7.171661376953097
 31
0.0
  0
LINE
  5
E4
330
1F
100
AcDbEntity
  8
0
 62
     7
100
AcDbLine
 10
-11.80000305175781
 20
-9.671661376953097
 30
0.0
 11
-11.80000305175781
 21
-7.171661376953097
 31
0.0
  0
LINE
  5
E5
330
1F
100
AcDbEntity
  8
0
 62
     7
100
AcDbLine
 10
-9.199996948242188
 20
-7.171661376953097
 30
0.0
 11
-9.199996948242188
 21
-9.671661376953097
 31
0.0
  0
LINE
  5
E6
330
1F
100
AcDbEntity
  8
0
 62
     7
100
AcDbLine
 10
-9.199996948242188
 20
-7.171661376953097
 30
0.0
 11
-1.5
 21
-7.171661376953097
 31
0.0
  0
LINE
  5
E7
330
1F
100
AcDbEntity
  8
0
 62
     7
100
AcDbLine
 10
-1.5
 20
-7.171661376953097
 30
0.0
 11
-1.5
 21
-9.671661376953097
 31
0.0
  0
LINE
  5
E8
330
1F
100
AcDbEntity
  8
0
 62
     7
100
AcDbLine
 10
-19.5
 20
-19.6158447265625
 30
0.0
 11
-19.5
 21
-17.81584167480469
 31
0.0
  0
LINE
  5
E9
330
1F
100
AcDbEntity
  8
0
 62
     7
100
AcDbLine
 10
-19.5
 20
-17.81584167480469
 30
0.0
 11
-11.80000305175781
 21
-17.81584167480469
 31
0.0
  0
LINE
  5
EA
330
1F
100
AcDbEntity
  8
0
 62
     7
100
AcDbLine
 10
-11.80000305175781
 20
-17.81584167480469
 30
0.0
 11
-11.80000305175781
 21
-19.6158447265625
 31
0.0
  0
LINE
  5
EB
330
1F
100
AcDbEntity
  8
0
 62
     7
100
AcDbLine
 10
-9.199996948242188
 20
-17.81584167480469
 30
0.0
 11
-9.199996948242188
 21
-19.6158447265625
 31
0.0
  0
LINE
  5
EC
330
1F
100
AcDbEntity
  8
0
 62
     7
100
AcDbLine
 10
-9.199996948242188
 20
-17.81584167480469
 30
0.0
 11
-1.5
 21
-17.81584167480469
 31
0.0
  0
LINE
  5
ED
330
1F
100
AcDbEntity
  8
0
 62
     7
100
AcDbLine
 10
-1.5
 20
-17.81584167480469
 30
0.0
 11
-1.5
 21
-19.6158447265625
 31
0.0
  0
LINE
  5
EE
330
1F
100
AcDbEntity
  8
0
 62
     7
100
AcDbLine
 10
-1.5
 20
-25.0313720703125
 30
0.0
 11
-1.5
 21
-26.0313720703125
 31
0.0
  0
LINE
  5
EF
330
1F
100
AcDbEntity
  8
0
 62
     7
100
AcDbLine
 10
-1.5
 20
-25.0313720703125
 30
0.0
 11
-9.199996948242188
 21
-25.0313720703125
 31
0.0
  0
LINE
  5
F0
330
1F
100
AcDbEntity
  8
0
 62
     7
100
AcDbLine
 10
-9.199996948242188
 20
-25.0313720703125
 30
0.0
 11
-9.199996948242188
 21
-26.0313720703125
 31
0.0
  0
LINE
  5
F1
330
1F
100
AcDbEntity
  8
0
 62
     7
100
AcDbLine
 10
-11.80000305175781
 20
-25.0313720703125
 30
0.0
 11
-11.80000305175781
 21
-26.0313720703125
 31
0.0
  0
LINE
  5
F2
330
1F
100
AcDbEntity
  8
0
 62
     7
100
AcDbLine
 10
-11.80000305175781
 20
-25.0313720703125
 30
0.0
 11
-19.5
 21
-25.0313720703125
 31
0.0
  0
LINE
  5
F3
330
1F
100
AcDbEntity
  8
0
 62
     7
100
AcDbLine
 10
-19.5
 20
-25.0313720703125
 30
0.0
 11
-19.5
 21
-26.0313720703125
 31
0.0
  0
LINE
  5
F4
330
1F
100
AcDbEntity
  8
0
 62
     7
100
AcDbLine
 10
-11.80000305175781
 20
-9.671661376953097
 30
0.0
 11
-9.199996948242188
 21
-9.671661376953097
 31
0.0
  0
LINE
  5
F5
330
1F
100
AcDbEntity
  8
0
 62
     7
100
AcDbLine
 10
-1.5
 20
-9.671661376953097
 30
0.0
 11
-0.1999969482421875
 21
-9.671661376953097
 31
0.0
  0
LINE
  5
F6
330
1F
100
AcDbEntity
  8
0
 62
     7
100
AcDbLine
 10
-1.5
 20
-19.6158447265625
 30
0.0
 11
-0.1999969482421875
 21
-19.6158447265625
 31
0.0
  0
LINE
  5
F7
330
1F
100
AcDbEntity
  8
0
 62
     7
100
AcDbLine
 10
-1.5
 20
-26.0313720703125
 30
0.0
 11
-0.1999969482421875
 21
-26.0313720703125
 31
0.0
  0
LINE
  5
F8
330
1F
100
AcDbEntity
  8
0
 62
     7
100
AcDbLine
 10
-11.80000305175781
 20
-26.0313720703125
 30
0.0
 11
-9.199996948242188
 21
-26.0313720703125
 31
0.0
  0
LINE
  5
F9
330
1F
100
AcDbEntity
  8
0
 62
     7
100
AcDbLine
 10
-11.80000305175781
 20
-19.6158447265625
 30
0.0
 11
-9.199996948242188
 21
-19.6158447265625
 31
0.0
  0
LINE
  5
FA
330
1F
100
AcDbEntity
  8
0
 62
     7
100
AcDbLine
 10
-30.0
 20
2.964996337890597
 30
0.0
 11
-25.0
 21
2.964996337890597
 31
0.0
  0
LINE
  5
FB
330
1F
100
AcDbEntity
  8
0
 62
     7
100
AcDbLine
 10
-7.5
 20
16.39999771118164
 30
0.0
 11
-7.5
 21
2.964996814727783
 31
0.0
  0
LINE
  5
FC
330
1F
100
AcDbEntity
  8
0
 62
     7
100
AcDbLine
 10
12.5
 20
11.99999713897705
 30
0.0
 11
12.5
 21
2.964996814727783
 31
0.0
  0
LINE
  5
FD
330
1F
100
AcDbEntity
  8
0
 62
     7
100
AcDbLine
 10
-2.799999713897705
 20
13.19999694824219
 30
0.0
 11
4.0
 21
13.19999694824219
 31
0.0
  0
LINE
  5
FE
330
1F
100
AcDbEntity
  8
0
 62
     7
100
AcDbLine
 10
-7.5
 20
2.964996814727783
 30
0.0
 11
4.0
 21
2.964996814727783
 31
0.0
  0
LINE
  5
FF
330
1F
100
AcDbEntity
  8
0
 62
     7
100
AcDbLine
 10
-7.5
 20
17.05999755859375
 30
0.0
 11
-5.349999904632568
 21
17.05999755859375
 31
0.0
  0
LINE
  5
100
330
1F
100
AcDbEntity
  8
0
 62
     7
100
AcDbLine
 10
-3.199999809265137
 20
17.05999755859375
 30
0.0
 11
-5.349999904632568
 21
17.05999755859375
 31
0.0
  0
LINE
  5
101
330
1F
100
AcDbEntity
  8
0
 62
     7
100
AcDbLine
 10
-3.199999809265137
 20
16.39999771118164
 30
0.0
 11
-3.199999809265137
 21
13.59999656677246
 31
0.0
  0
LINE
  5
102
330
1F
100
AcDbEntity
  8
0
 62
     7
100
AcDbLine
 10
11.29999988822073
 20
13.1999977957764
 30
0.0
 11
12.50000035658692
 21
11.99999823778208
 31
0.0
  0
LINE
  5
103
330
1F
100
AcDbEntity
  8
0
 62
     7
100
AcDbLine
 10
-13.5
 20
16.39999771118164
 30
0.0
 11
-13.5
 21
2.964996814727783
 31
0.0
  0
LINE
  5
104
330
1F
100
AcDbEntity
  8
0
 62
     7
100
AcDbLine
 10
-33.5
 20
11.99999713897705
 30
0.0
 11
-33.5
 21
2.964996814727783
 31
0.0
  0
LINE
  5
105
330
1F
100
AcDbEntity
  8
0
 62
     7
100
AcDbLine
 10
-18.20000076293945
 20
13.19999694824219
 30
0.0
 11
-25.0
 21
13.19999694824219
 31
0.0
  0
LINE
  5
106
330
1F
100
AcDbEntity
  8
0
 62
     7
100
AcDbLine
 10
-13.5
 20
2.964996814727783
 30
0.0
 11
-25.0
 21
2.964996814727783
 31
0.0
  0
LINE
  5
107
330
1F
100
AcDbEntity
  8
0
 62
     7
100
AcDbLine
 10
-13.5
 20
17.05999755859375
 30
0.0
 11
-15.64999961853027
 21
17.05999755859375
 31
0.0
  0
LINE
  5
108
330
1F
100
AcDbEntity
  8
0
 62
     7
100
AcDbLine
 10
-17.77841281890869
 20
17.05999755859375
 30
0.0
 11
-15.64999961853027
 21
17.05999755859375
 31
0.0
  0
LINE
  5
109
330
1F
100
AcDbEntity
  8
0
 62
     7
100
AcDbLine
 10
-17.80000019073486
 20
16.39999771118164
 30
0.0
 11
-17.80000019073486
 21
13.59999656677246
 31
0.0
  0
LINE
  5
10A
330
1F
100
AcDbEntity
  8
0
 62
     7
100
AcDbLine
 10
-32.30000022539568
 20
13.1999974586017
 30
0.0
 11
-33.5000010309368
 21
11.99999756343271
 31
0.0
  0
LINE
  5
10B
330
1F
100
AcDbEntity
  8
0
 62
     7
100
AcDbLine
 10
-30.0
 20
13.19999694824219
 30
0.0
 11
-32.29999923706055
 21
13.19999694824219
 31
0.0
  0
LINE
  5
10C
330
1F
100
AcDbEntity
  8
0
 62
     7
100
AcDbLine
 10
-30.0
 20
2.964996814727783
 30
0.0
 11
-33.5
 21
2.964996814727783
 31
0.0
  0
LINE
  5
10D
330
1F
100
AcDbEntity
  8
0
 62
     7
100
AcDbLine
 10
9.0
 20
13.19999694824219
 30
0.0
 11
11.29999923706055
 21
13.19999694824219
 31
0.0
  0
LINE
  5
10E
330
1F
100
AcDbEntity
  8
0
 62
     7
100
AcDbLine
 10
9.0
 20
2.964996814727783
 30
0.0
 11
12.5
 21
2.964996814727783
 31
0.0
  0
CIRCLE
  5
10F
330
1F
100
AcDbEntity
  8
0
 62
     7
100
AcDbCircle
 10
100.2123260498047
 20
17.48503112792969
 30
0.0
 40
1.25
  0
ARC
  5
110
330
1F
100
AcDbEntity
  8
0
 62
     7
100
AcDbCircle
 10
108.1080017089844
 20
4.363113403320313
 30
0.0
 40
19.70000076293945
100
AcDbArc
 50
90.65935481600535
 51
116.348406624097
  0
ARC
  5
111
330
1F
100
AcDbEntity
  8
0
 62
     7
100
AcDbCircle
 10
107.9273147583008
 20
20.0621032714844
 30
0.0
 40
4.0
100
AcDbArc
 50
67.29426121263218
 51
90.65935481600542
  0
ARC
  5
112
330
1F
100
AcDbEntity
  8
0
 62
     7
100
AcDbCircle
 10
100.2123260498047
 20
17.48503112792969
 30
0.0
 40
3.0
100
AcDbArc
 50
192.8582768960786
 51
237.8582952237905
  0
ARC
  5
113
330
1F
100
AcDbEntity
  8
0
 62
     7
100
AcDbCircle
 10
102.1621780395508
 20
17.9301452636719
 30
0.0
 40
5.0
100
AcDbArc
 50
134.6356507305374
 51
192.8582595932345
  0
ARC
  5
114
330
1F
100
AcDbEntity
  8
0
 62
     7
100
AcDbCircle
 10
100.4730911254883
 20
19.77830505371091
 30
0.0
 40
2.5
100
AcDbArc
 50
113.7113935289601
 51
136.8496292292403
  0
ARC
  5
115
330
1F
100
AcDbEntity
  8
0
 62
     7
100
AcDbCircle
 10
111.3237228393555
 20
-9.724533081054688
 30
0.0
 40
25.0
100
AcDbArc
 50
95.76412891864617
 51
111.179387762123
  0
ARC
  5
116
330
1F
100
AcDbEntity
  8
0
 62
     7
100
AcDbCircle
 10
108.6119918823242
 20
17.1389465332031
 30
0.0
 40
2.0
100
AcDbArc
 50
275.764178551204
 51
290.0068305179732
  0
ARC
  5
117
330
1F
100
AcDbEntity
  8
0
 62
     7
100
AcDbCircle
 10
101.5688629150391
 20
15.45172119140631
 30
0.0
 40
2.0
100
AcDbArc
 50
237.8582815634122
 51
291.1794237343024
  0
ARC
  5
118
330
1F
100
AcDbEntity
  8
0
 62
     7
100
AcDbCircle
 10
109.8122711181641
 20
20.34205627441409
 30
0.0
 40
4.0
100
AcDbArc
 50
126.4364457640441
 51
192.8582595932346
  0
CIRCLE
  5
119
330
1F
100
AcDbEntity
  8
0
 62
     7
100
AcDbCircle
 10
109.5
 20
19.60499572753909
 30
0.0
 40
1.25
  0
ARC
  5
11A
330
1F
100
AcDbEntity
  8
0
 62
     7
100
AcDbCircle
 10
110.9200439453125
 20
4.356704711914091
 30
0.0
 40
19.70000076293945
100
AcDbArc
 50
64.94396579847417
 51
90.6330176065658
  0
ARC
  5
11B
330
1F
100
AcDbEntity
  8
0
 62
     7
100
AcDbCircle
 10
117.5690612792969
 20
18.5792541503906
 30
0.0
 40
4.0
100
AcDbArc
 50
41.57886878000659
 51
64.94395896828506
  0
ARC
  5
11C
330
1F
100
AcDbEntity
  8
0
 62
     7
100
AcDbCircle
 10
109.5
 20
19.60499572753909
 30
0.0
 40
3.0
100
AcDbArc
 50
167.1428705757027
 51
212.1428889034153
  0
ARC
  5
11D
330
1F
100
AcDbEntity
  8
0
 62
     7
100
AcDbCircle
 10
111.4498596191406
 20
19.15995788574219
 30
0.0
 40
5.0
100
AcDbArc
 50
108.9202548828171
 51
167.1428705757027
  0
ARC
  5
11E
330
1F
100
AcDbEntity
  8
0
 62
     7
100
AcDbCircle
 10
110.7299880981445
 20
21.55796813964841
 30
0.0
 40
2.5
100
AcDbArc
 50
87.99599768123986
 51
111.13423338152
  0
ARC
  5
11F
330
1F
100
AcDbEntity
  8
0
 62
     7
100
AcDbCircle
 10
107.7046279907227
 20
-9.731002807617188
 30
0.0
 40
25.0
100
AcDbArc
 50
70.04873990111497
 51
85.46399191440268
  0
ARC
  5
120
330
1F
100
AcDbEntity
  8
0
 62
     7
100
AcDbCircle
 10
116.9175643920898
 20
15.64854431152341
 30
0.0
 40
2.0
100
AcDbArc
 50
250.0487827034837
 51
264.2914346702527
  0
ARC
  5
121
330
1F
100
AcDbEntity
  8
0
 62
     7
100
AcDbCircle
 10
109.8399200439453
 20
17.18443298339841
 30
0.0
 40
2.0
100
AcDbArc
 50
212.1428925458813
 51
265.4640278865821
  0
ARC
  5
122
330
1F
100
AcDbEntity
  8
0
 62
     7
100
AcDbCircle
 10
119.3888244628906
 20
18.01359558105469
 30
0.0
 40
4.0
100
AcDbArc
 50
100.7210430861346
 51
167.1428705757027
  0
CIRCLE
  5
123
330
1F
100
AcDbEntity
  8
0
 62
     7
100
AcDbCircle
 10
118.7872543334961
 20
17.48524475097659
 30
0.0
 40
1.25
  0
ARC
  5
124
330
1F
100
AcDbEntity
  8
0
 62
     7
100
AcDbCircle
 10
113.4507064819336
 20
3.130874633789091
 30
0.0
 40
19.70000076293945
100
AcDbArc
 50
39.22976864895316
 51
64.91881704195016
  0
ARC
  5
125
330
1F
100
AcDbEntity
  8
0
 62
     7
100
AcDbCircle
 10
125.6121826171875
 20
13.06005859375
 30
0.0
 40
4.0
100
AcDbArc
 50
15.86467163048544
 51
39.22976181876398
  0
ARC
  5
126
330
1F
100
AcDbEntity
  8
0
 62
     7
100
AcDbCircle
 10
118.7872543334961
 20
17.48524475097659
 30
0.0
 40
3.0
100
AcDbArc
 50
141.4286700110873
 51
186.4286883387995
  0
ARC
  5
127
330
1F
100
AcDbEntity
  8
0
 62
     7
100
AcDbCircle
 10
120.3509216308594
 20
16.23828125
 30
0.0
 40
5.0
100
AcDbArc
 50
83.20606114839073
 51
141.4286700110872
  0
ARC
  5
128
330
1F
100
AcDbEntity
  8
0
 62
     7
100
AcDbCircle
 10
120.742790222168
 20
18.7111511230469
 30
0.0
 40
2.5
100
AcDbArc
 50
62.2818039468135
 51
85.4200396470937
  0
ARC
  5
129
330
1F
100
AcDbEntity
  8
0
 62
     7
100
AcDbCircle
 10
104.4413070678711
 20
-8.166610717773409
 30
0.0
 40
25.0
100
AcDbArc
 50
44.33454275159396
 51
59.74979817997623
  0
ARC
  5
12A
330
1F
100
AcDbEntity
  8
0
 62
     7
100
AcDbCircle
 10
123.7536163330078
 20
10.70225524902341
 30
0.0
 40
2.0
100
AcDbArc
 50
224.3345889690577
 51
238.5772409358258
  0
ARC
  5
12B
330
1F
100
AcDbEntity
  8
0
 62
     7
100
AcDbCircle
 10
118.0432662963867
 20
15.15690612792969
 30
0.0
 40
2.0
100
AcDbArc
 50
186.4286919812651
 51
239.7498341521555
  0
ARC
  5
12C
330
1F
100
AcDbEntity
  8
0
 62
     7
100
AcDbCircle
 10
127.0063018798828
 20
11.7608642578125
 30
0.0
 40
4.0
100
AcDbArc
 50
75.00684252151889
 51
141.4286700110873
  0
CIRCLE
  5
12D
330
1F
100
AcDbEntity
  8
0
 62
     7
100
AcDbCircle
 10
126.2350616455078
 20
11.54583740234381
 30
0.0
 40
1.25
  0
ARC
  5
12E
330
1F
100
AcDbEntity
  8
0
 62
     7
100
AcDbCircle
 10
115.1988906860352
 20
0.9284210205078125
 30
0.0
 40
19.70000076293945
100
AcDbArc
 50
13.51557149943204
 51
39.20461989242916
  0
ARC
  5
12F
330
1F
100
AcDbEntity
  8
0
 62
     7
100
AcDbCircle
 10
130.4641036987305
 20
4.597671508789091
 30
0.0
 40
4.0
100
AcDbArc
 50
350.1504744809652
 51
373.5155646692429
  0
ARC
  5
130
330
1F
100
AcDbEntity
  8
0
 62
     7
100
AcDbCircle
 10
126.2350616455078
 20
11.54583740234381
 30
0.0
 40
3.0
100
AcDbArc
 50
115.7144694464716
 51
160.7144877741837
  0
ARC
  5
131
330
1F
100
AcDbEntity
  8
0
 62
     7
100
AcDbCircle
 10
127.1028442382813
 20
9.743911743164091
 30
0.0
 40
5.0
100
AcDbArc
 50
57.49186058377504
 51
115.7144694464716
  0
ARC
  5
132
330
1F
100
AcDbEntity
  8
0
 62
     7
100
AcDbCircle
 10
128.5288391113281
 20
11.8018798828125
 30
0.0
 40
2.5
100
AcDbArc
 50
36.56760679729258
 51
59.70583908247781
  0
ARC
  5
133
330
1F
100
AcDbEntity
  8
0
 62
     7
100
AcDbCircle
 10
102.1799163818359
 20
-5.341247558593693
 30
0.0
 40
25.0
100
AcDbArc
 50
18.62034560207285
 51
34.03560103045515
  0
ARC
  5
134
330
1F
100
AcDbEntity
  8
0
 62
     7
100
AcDbCircle
 10
127.7665863037109
 20
3.279754638671903
 30
0.0
 40
2.0
100
AcDbArc
 50
198.6203884044418
 51
212.8630403712104
  0
ARC
  5
135
330
1F
100
AcDbEntity
  8
0
 62
     7
100
AcDbCircle
 10
124.5545272827148
 20
9.770889282226591
 30
0.0
 40
2.0
100
AcDbArc
 50
160.7144741138054
 51
214.0356162846959
  0
ARC
  5
136
330
1F
100
AcDbEntity
  8
0
 62
     7
100
AcDbCircle
 10
131.1564636230469
 20
2.822250366210909
 30
0.0
 40
4.0
100
AcDbArc
 50
49.29264537199791
 51
115.7144694464714
  0
CIRCLE
  5
137
330
1F
100
AcDbEntity
  8
0
 62
     7
100
AcDbCircle
 10
130.3683013916016
 20
2.963150024414091
 30
0.0
 40
1.25
  0
ARC
  5
138
330
1F
100
AcDbEntity
  8
0
 62
     7
100
AcDbCircle
 10
115.8183441162109
 20
-1.814422607421903
 30
0.0
 40
19.70000076293945
100
AcDbArc
 50
347.8013743499117
 51
373.4904227429081
  0
ARC
  5
139
330
1F
100
AcDbEntity
  8
0
 62
     7
100
AcDbCircle
 10
131.1638565063477
 20
-5.131851196289091
 30
0.0
 40
4.0
100
AcDbArc
 50
324.4362773314437
 51
347.8013675197228
  0
ARC
  5
13A
330
1F
100
AcDbEntity
  8
0
 62
     7
100
AcDbCircle
 10
130.3683013916016
 20
2.963150024414091
 30
0.0
 40
3.0
100
AcDbArc
 50
90.00026888185585
 51
135.0002872095679
  0
ARC
  5
13B
330
1F
100
AcDbEntity
  8
0
 62
     7
100
AcDbCircle
 10
130.3683319091797
 20
0.9631500244140909
 30
0.0
 40
5.0
100
AcDbArc
 50
31.77766343425399
 51
90.00026888185582
  0
ARC
  5
13C
330
1F
100
AcDbEntity
  8
0
 62
     7
100
AcDbCircle
 10
132.5460205078125
 20
2.1986083984375
 30
0.0
 40
2.5
100
AcDbArc
 50
10.85340964777132
 51
33.99164193295679
  0
ARC
  5
13D
330
1F
100
AcDbEntity
  8
0
 62
     7
100
AcDbCircle
 10
101.3683471679687
 20
-1.814498901367188
 30
0.0
 40
25.0
100
AcDbArc
 50
352.9061484525526
 51
368.3214038809341
  0
ARC
  5
13E
330
1F
100
AcDbEntity
  8
0
 62
     7
100
AcDbCircle
 10
128.1616516113281
 20
-5.148849487304688
 30
0.0
 40
2.0
100
AcDbArc
 50
172.9061705369809
 51
187.1488225037514
  0
ARC
  5
13F
330
1F
100
AcDbEntity
  8
0
 62
     7
100
AcDbCircle
 10
128.0840759277344
 20
2.093124389648409
 30
0.0
 40
2.0
100
AcDbArc
 50
135.0002735491896
 51
188.3214157200803
  0
ARC
  5
140
330
1F
100
AcDbEntity
  8
0
 62
     7
100
AcDbCircle
 10
131.0173263549805
 20
-7.031845092773409
 30
0.0
 40
4.0
100
AcDbArc
 50
23.57844822247664
 51
90.00026888185572
  0
CIRCLE
  5
141
330
1F
100
AcDbEntity
  8
0
 62
     7
100
AcDbCircle
 10
130.3683547973633
 20
-6.562927246093693
 30
0.0
 40
1.25
  0
ARC
  5
142
330
1F
100
AcDbEntity
  8
0
 62
     7
100
AcDbCircle
 10
115.1863784790039
 20
-4.554412841796903
 30
0.0
 40
19.70000076293945
100
AcDbArc
 50
322.0871772003907
 51
347.7762255933877
  0
ARC
  5
143
330
1F
100
AcDbEntity
  8
0
 62
     7
100
AcDbCircle
 10
127.5728454589844
 20
-14.20146179199219
 30
0.0
 40
4.0
100
AcDbArc
 50
298.7220835970175
 51
322.0871703702012
  0
ARC
  5
144
330
1F
100
AcDbEntity
  8
0
 62
     7
100
AcDbCircle
 10
130.3683547973633
 20
-6.562927246093693
 30
0.0
 40
3.0
100
AcDbArc
 50
64.28606831724024
 51
109.2860866449522
  0
ARC
  5
145
330
1F
100
AcDbEntity
  8
0
 62
     7
100
AcDbCircle
 10
129.500617980957
 20
-8.364883422851591
 30
0.0
 40
5.0
100
AcDbArc
 50
6.063466284733023
 51
64.28606831724019
  0
ARC
  5
146
330
1F
100
AcDbEntity
  8
0
 62
     7
100
AcDbCircle
 10
131.9986877441406
 20
-8.196640014648409
 30
0.0
 40
2.5
100
AcDbArc
 50
345.1392124982506
 51
368.2774447834358
  0
ARC
  5
147
330
1F
100
AcDbEntity
  8
0
 62
     7
100
AcDbCircle
 10
102.1673355102539
 20
1.715118408203097
 30
0.0
 40
25.0
100
AcDbArc
 50
327.1919513030315
 51
342.6072067314137
  0
ARC
  5
148
330
1F
100
AcDbEntity
  8
0
 62
     7
100
AcDbCircle
 10
124.8605728149414
 20
-12.91416931152341
 30
0.0
 40
2.0
100
AcDbArc
 50
147.1919699723654
 51
161.4346219391349
  0
ARC
  5
149
330
1F
100
AcDbEntity
  8
0
 62
     7
100
AcDbCircle
 10
127.9328460693359
 20
-6.355712890625
 30
0.0
 40
2.0
100
AcDbArc
 50
109.2860729845737
 51
162.6072151554639
  0
ARC
  5
14A
330
1F
100
AcDbEntity
  8
0
 62
     7
100
AcDbCircle
 10
126.616455078125
 20
-15.84971618652341
 30
0.0
 40
4.0
100
AcDbArc
 50
357.8642510729565
 51
424.2860683172403
  0
CIRCLE
  5
14B
330
1F
100
AcDbEntity
  8
0
 62
     7
100
AcDbCircle
 10
126.2352066040039
 20
-15.1456604003906
 30
0.0
 40
1.25
  0
ARC
  5
14C
330
1F
100
AcDbEntity
  8
0
 62
     7
100
AcDbCircle
 10
113.4281616210938
 20
-6.748855590820313
 30
0.0
 40
19.70000076293945
100
AcDbArc
 50
296.3729766357751
 51
322.0620284438667
  0
ARC
  5
14D
330
1F
100
AcDbEntity
  8
0
 62
     7
100
AcDbCircle
 10
120.4023132324219
 20
-20.814826965332
 30
0.0
 40
4.0
100
AcDbArc
 50
273.0078830324018
 51
296.3729766357752
  0
ARC
  5
14E
330
1F
100
AcDbEntity
  8
0
 62
     7
100
AcDbCircle
 10
126.2352066040039
 20
-15.1456604003906
 30
0.0
 40
3.0
100
AcDbArc
 50
38.57187116771891
 51
83.57188608033647
  0
ARC
  5
14F
330
1F
100
AcDbEntity
  8
0
 62
     7
100
AcDbCircle
 10
124.6715621948242
 20
-16.3926696777344
 30
0.0
 40
5.0
100
AcDbArc
 50
340.3492691352125
 51
398.5718711677191
  0
ARC
  5
150
330
1F
100
AcDbEntity
  8
0
 62
     7
100
AcDbCircle
 10
126.995246887207
 20
-17.32496643066409
 30
0.0
 40
2.5
100
AcDbArc
 50
319.4250153487298
 51
342.5632476339156
  0
ARC
  5
151
330
1F
100
AcDbEntity
  8
0
 62
     7
100
AcDbCircle
 10
104.4186401367187
 20
4.548522949218807
 30
0.0
 40
25.0
100
AcDbArc
 50
301.4777507384159
 51
316.8930095818928
  0
ARC
  5
152
330
1F
100
AcDbEntity
  8
0
 62
     7
100
AcDbCircle
 10
118.5171661376953
 20
-18.47821044921869
 30
0.0
 40
2.0
100
AcDbArc
 50
121.4777694077499
 51
135.7204213745185
  0
ARC
  5
153
330
1F
100
AcDbEntity
  8
0
 62
     7
100
AcDbCircle
 10
124.1307907104492
 20
-13.9022521972656
 30
0.0
 40
2.0
100
AcDbArc
 50
83.57187241995813
 51
136.8930145908481
  0
ARC
  5
154
330
1F
100
AcDbEntity
  8
0
 62
     7
100
AcDbCircle
 10
118.8254852294922
 20
-21.884895324707
 30
0.0
 40
4.0
100
AcDbArc
 50
332.1500539234354
 51
398.5718711677192
  0
CIRCLE
  5
155
330
1F
100
AcDbEntity
  8
0
 62
     7
100
AcDbCircle
 10
118.787467956543
 20
-21.08514404296869
 30
0.0
 40
1.25
  0
ARC
  5
156
330
1F
100
AcDbEntity
  8
0
 62
     7
100
AcDbCircle
 10
110.8919372558594
 20
-7.963134765625
 30
0.0
 40
19.70000076293945
100
AcDbArc
 50
270.6587760711594
 51
296.3478278792511
  0
ARC
  5
157
330
1F
100
AcDbEntity
  8
0
 62
     7
100
AcDbCircle
 10
111.0724563598633
 20
-23.6621017456055
 30
0.0
 40
4.0
100
AcDbArc
 50
247.2936824677862
 51
270.6587760711594
  0
ARC
  5
158
330
1F
100
AcDbEntity
  8
0
 62
     7
100
AcDbCircle
 10
118.787467956543
 20
-21.08514404296869
 30
0.0
 40
3.0
100
AcDbArc
 50
12.85767401819801
 51
57.85768551572106
  0
ARC
  5
159
330
1F
100
AcDbEntity
  8
0
 62
     7
100
AcDbCircle
 10
116.8376159667969
 20
-21.5302276611328
 30
0.0
 40
5.0
100
AcDbArc
 50
314.6350719856915
 51
372.8576740181982
  0
ARC
  5
15A
330
1F
100
AcDbEntity
  8
0
 62
     7
100
AcDbCircle
 10
118.5266799926758
 20
-23.3784027099609
 30
0.0
 40
2.5
100
AcDbArc
 50
293.7108147841142
 51
316.8490504843946
  0
ARC
  5
15B
330
1F
100
AcDbEntity
  8
0
 62
     7
100
AcDbCircle
 10
107.6763610839844
 20
6.124542236328097
 30
0.0
 40
25.0
100
AcDbArc
 50
275.7635501738001
 51
291.1788090172771
  0
ARC
  5
15C
330
1F
100
AcDbEntity
  8
0
 62
     7
100
AcDbCircle
 10
110.387809753418
 20
-20.73895263671869
 30
0.0
 40
2.0
100
AcDbArc
 50
95.76356884313431
 51
110.0062208099036
  0
ARC
  5
15D
330
1F
100
AcDbEntity
  8
0
 62
     7
100
AcDbCircle
 10
117.4309463500977
 20
-19.05180358886719
 30
0.0
 40
2.0
100
AcDbArc
 50
57.85767185534276
 51
111.1788140262325
  0
ARC
  5
15E
330
1F
100
AcDbEntity
  8
0
 62
     7
100
AcDbCircle
 10
109.1875
 20
-23.9420471191406
 30
0.0
 40
4.0
100
AcDbArc
 50
306.4358567739144
 51
372.8576740181981
  0
CIRCLE
  5
15F
330
1F
100
AcDbEntity
  8
0
 62
     7
100
AcDbCircle
 10
109.500244140625
 20
-23.2049942016602
 30
0.0
 40
1.25
  0
ARC
  5
160
330
1F
100
AcDbEntity
  8
0
 62
     7
100
AcDbCircle
 10
108.0800170898437
 20
-7.956741333007813
 30
0.0
 40
19.70000076293945
100
AcDbArc
 50
244.9445755065438
 51
270.6336273146354
  0
ARC
  5
161
330
1F
100
AcDbEntity
  8
0
 62
     7
100
AcDbCircle
 10
101.43115234375
 20
-22.1793518066406
 30
0.0
 40
4.0
100
AcDbArc
 50
221.5794819031705
 51
244.9445755065438
  0
ARC
  5
162
330
1F
100
AcDbEntity
  8
0
 62
     7
100
AcDbCircle
 10
109.500244140625
 20
-23.2049942016602
 30
0.0
 40
3.0
100
AcDbArc
 50
347.1434768686776
 51
392.1434883662
  0
ARC
  5
163
330
1F
100
AcDbEntity
  8
0
 62
     7
100
AcDbCircle
 10
107.5503692626953
 20
-22.7599945068359
 30
0.0
 40
5.0
100
AcDbArc
 50
288.9208714210759
 51
347.1434768686777
  0
ARC
  5
164
330
1F
100
AcDbEntity
  8
0
 62
     7
100
AcDbCircle
 10
108.2702789306641
 20
-25.1580047607422
 30
0.0
 40
2.5
100
AcDbArc
 50
267.9966142194984
 51
291.1348499197788
  0
ARC
  5
165
330
1F
100
AcDbEntity
  8
0
 62
     7
100
AcDbCircle
 10
111.295280456543
 20
6.131011962890597
 30
0.0
 40
25.0
100
AcDbArc
 50
250.0493496091845
 51
265.4646084526615
  0
ARC
  5
166
330
1F
100
AcDbEntity
  8
0
 62
     7
100
AcDbCircle
 10
102.0826110839844
 20
-19.2486267089844
 30
0.0
 40
2.0
100
AcDbArc
 50
70.04936827851827
 51
84.2920202452876
  0
ARC
  5
167
330
1F
100
AcDbEntity
  8
0
 62
     7
100
AcDbCircle
 10
109.160285949707
 20
-20.78444671630859
 30
0.0
 40
2.0
100
AcDbArc
 50
32.14347470582143
 51
85.46461346161715
  0
ARC
  5
168
330
1F
100
AcDbEntity
  8
0
 62
     7
100
AcDbCircle
 10
99.6114044189453
 20
-21.6137237548828
 30
0.0
 40
4.0
100
AcDbArc
 50
280.7216596243935
 51
347.1434768686776
  0
CIRCLE
  5
169
330
1F
100
AcDbEntity
  8
0
 62
     7
100
AcDbCircle
 10
100.2129745483398
 20
-21.0853576660156
 30
0.0
 40
1.25
  0
ARC
  5
16A
330
1F
100
AcDbEntity
  8
0
 62
     7
100
AcDbCircle
 10
105.5493392944336
 20
-6.730926513671903
 30
0.0
 40
19.70000076293945
100
AcDbArc
 50
219.2303749419282
 51
244.9194267500197
  0
ARC
  5
16B
330
1F
100
AcDbEntity
  8
0
 62
     7
100
AcDbCircle
 10
93.3879699707031
 20
-16.6602478027344
 30
0.0
 40
4.0
100
AcDbArc
 50
195.8652813385553
 51
219.230374941928
  0
ARC
  5
16C
330
1F
100
AcDbEntity
  8
0
 62
     7
100
AcDbCircle
 10
100.2129745483398
 20
-21.0853576660156
 30
0.0
 40
3.0
100
AcDbArc
 50
321.4292797191569
 51
366.429291216679
  0
ARC
  5
16D
330
1F
100
AcDbEntity
  8
0
 62
     7
100
AcDbCircle
 10
98.64926910400391
 20
-19.8384094238281
 30
0.0
 40
5.0
100
AcDbArc
 50
263.2066708564603
 51
321.4292797191567
  0
ARC
  5
16E
330
1F
100
AcDbEntity
  8
0
 62
     7
100
AcDbCircle
 10
98.2574310302734
 20
-22.31129455566411
 30
0.0
 40
2.5
100
AcDbArc
 50
242.2824136548831
 51
265.4206493551633
  0
ARC
  5
16F
330
1F
100
AcDbEntity
  8
0
 62
     7
100
AcDbCircle
 10
114.5586242675781
 20
4.566665649414091
 30
0.0
 40
25.0
100
AcDbArc
 50
224.335149044569
 51
239.7504078880459
  0
ARC
  5
170
330
1F
100
AcDbEntity
  8
0
 62
     7
100
AcDbCircle
 10
95.2465057373047
 20
-14.30241394042969
 30
0.0
 40
2.0
100
AcDbArc
 50
44.33517112899719
 51
58.57781968067187
  0
ARC
  5
171
330
1F
100
AcDbEntity
  8
0
 62
     7
100
AcDbCircle
 10
100.9569091796875
 20
-18.75701904296869
 30
0.0
 40
2.0
100
AcDbArc
 50
6.42927755630065
 51
59.75041289700137
  0
ARC
  5
172
330
1F
100
AcDbEntity
  8
0
 62
     7
100
AcDbCircle
 10
91.9938507080078
 20
-15.36106872558591
 30
0.0
 40
4.0
100
AcDbArc
 50
255.0074658899668
 51
321.4292797191566
  0
CIRCLE
  5
173
330
1F
100
AcDbEntity
  8
0
 62
     7
100
AcDbCircle
 10
92.7650985717773
 20
-15.14604187011719
 30
0.0
 40
1.25
  0
ARC
  5
174
330
1F
100
AcDbEntity
  8
0
 62
     7
100
AcDbCircle
 10
103.8011322021484
 20
-4.528488159179688
 30
0.0
 40
19.70000076293945
100
AcDbArc
 50
193.5161743773126
 51
219.2052261854041
  0
ARC
  5
175
330
1F
100
AcDbEntity
  8
0
 62
     7
100
AcDbCircle
 10
88.53594970703119
 20
-8.197906494140597
 30
0.0
 40
4.0
100
AcDbArc
 50
170.1510634710946
 51
193.5161570744688
  0
ARC
  5
176
330
1F
100
AcDbEntity
  8
0
 62
     7
100
AcDbCircle
 10
92.7650985717773
 20
-15.14604187011719
 30
0.0
 40
3.0
100
AcDbArc
 50
295.7150791545412
 51
340.7150940671584
  0
ARC
  5
177
330
1F
100
AcDbEntity
  8
0
 62
     7
100
AcDbCircle
 10
91.89727783203119
 20
-13.3441162109375
 30
0.0
 40
5.0
100
AcDbArc
 50
237.4924702918448
 51
295.7150791545411
  0
ARC
  5
178
330
1F
100
AcDbEntity
  8
0
 62
     7
100
AcDbCircle
 10
90.4712982177734
 20
-15.402099609375
 30
0.0
 40
2.5
100
AcDbArc
 50
216.5682130902676
 51
239.7064487905476
  0
ARC
  5
179
330
1F
100
AcDbEntity
  8
0
 62
     7
100
AcDbCircle
 10
116.8200531005859
 20
1.741317749023409
 30
0.0
 40
25.0
100
AcDbArc
 50
198.6209484799534
 51
214.0362073234302
  0
ARC
  5
17A
330
1F
100
AcDbEntity
  8
0
 62
     7
100
AcDbCircle
 10
91.23345947265619
 20
-6.879959106445313
 30
0.0
 40
2.0
100
AcDbArc
 50
18.62097397947672
 51
32.86362253115067
  0
ARC
  5
17B
330
1F
100
AcDbEntity
  8
0
 62
     7
100
AcDbCircle
 10
94.4455871582031
 20
-13.3710632324219
 30
0.0
 40
2.0
100
AcDbArc
 50
340.7150804067803
 51
394.0362157474802
  0
ARC
  5
17C
330
1F
100
AcDbEntity
  8
0
 62
     7
100
AcDbCircle
 10
87.8435821533203
 20
-6.422500610351591
 30
0.0
 40
4.0
100
AcDbArc
 50
229.2932653253511
 51
295.715079154541
  0
CIRCLE
  5
17D
330
1F
100
AcDbEntity
  8
0
 62
     7
100
AcDbCircle
 10
88.6317520141602
 20
-6.563400268554688
 30
0.0
 40
1.25
  0
ARC
  5
17E
330
1F
100
AcDbEntity
  8
0
 62
     7
100
AcDbCircle
 10
103.1816558837891
 20
-1.78564453125
 30
0.0
 40
19.70000076293945
100
AcDbArc
 50
167.8019565098524
 51
193.4910083179446
  0
ARC
  5
17F
330
1F
100
AcDbEntity
  8
0
 62
     7
100
AcDbCircle
 10
87.8360900878906
 20
1.5316162109375
 30
0.0
 40
4.0
100
AcDbArc
 50
144.436862906479
 51
167.8019565098522
  0
ARC
  5
180
330
1F
100
AcDbEntity
  8
0
 62
     7
100
AcDbCircle
 10
88.6317520141602
 20
-6.563400268554688
 30
0.0
 40
3.0
100
AcDbArc
 50
270.0008785899256
 51
315.0008969176375
  0
ARC
  5
181
330
1F
100
AcDbEntity
  8
0
 62
     7
100
AcDbCircle
 10
88.6316986083984
 20
-4.563385009765597
 30
0.0
 40
5.0
100
AcDbArc
 50
211.7782697272291
 51
270.0008785899256
  0
ARC
  5
182
330
1F
100
AcDbEntity
  8
0
 62
     7
100
AcDbCircle
 10
86.4540100097656
 20
-5.798858642578097
 30
0.0
 40
2.5
100
AcDbArc
 50
190.8540125256517
 51
213.9922482259325
  0
ARC
  5
183
330
1F
100
AcDbEntity
  8
0
 62
     7
100
AcDbCircle
 10
117.6316604614258
 20
-1.785415649414091
 30
0.0
 40
25.0
100
AcDbArc
 50
172.9067306124932
 51
188.3219894559706
  0
ARC
  5
184
330
1F
100
AcDbEntity
  8
0
 62
     7
100
AcDbCircle
 10
90.8383026123047
 20
1.548645019531307
 30
0.0
 40
2.0
100
AcDbArc
 50
352.9067768299562
 51
367.1494253816297
  0
ARC
  5
185
330
1F
100
AcDbEntity
  8
0
 62
     7
100
AcDbCircle
 10
90.91595458984369
 20
-5.693328857421903
 30
0.0
 40
2.0
100
AcDbArc
 50
315.000883257259
 51
368.3220185979596
  0
ARC
  5
186
330
1F
100
AcDbEntity
  8
0
 62
     7
100
AcDbCircle
 10
87.98260498046869
 20
3.431610107421903
 30
0.0
 40
4.0
100
AcDbArc
 50
203.5790647607359
 51
270.0008785899253
  0
CIRCLE
  5
187
330
1F
100
AcDbEntity
  8
0
 62
     7
100
AcDbCircle
 10
88.631591796875
 20
2.962692260742188
 30
0.0
 40
1.25
  0
ARC
  5
188
330
1F
100
AcDbEntity
  8
0
 62
     7
100
AcDbCircle
 10
103.813591003418
 20
0.954345703125
 30
0.0
 40
19.70000076293945
100
AcDbArc
 50
142.0877559452367
 51
167.7768077533282
  0
ARC
  5
189
330
1F
100
AcDbEntity
  8
0
 62
     7
100
AcDbCircle
 10
91.4270095825195
 20
10.60127258300781
 30
0.0
 40
4.0
100
AcDbArc
 50
118.7226623418634
 51
142.0877559452366
  0
ARC
  5
18A
330
1F
100
AcDbEntity
  8
0
 62
     7
100
AcDbCircle
 10
88.631591796875
 20
2.962692260742188
 30
0.0
 40
3.0
100
AcDbArc
 50
244.2866780253101
 51
289.2866963530216
  0
ARC
  5
18B
330
1F
100
AcDbEntity
  8
0
 62
     7
100
AcDbCircle
 10
89.4993133544922
 20
4.764663696289091
 30
0.0
 40
5.0
100
AcDbArc
 50
186.0640691626133
 51
244.2866780253098
  0
ARC
  5
18C
330
1F
100
AcDbEntity
  8
0
 62
     7
100
AcDbCircle
 10
87.00123596191411
 20
4.596405029296903
 30
0.0
 40
2.5
100
AcDbArc
 50
165.1397946581911
 51
188.2780303584723
  0
ARC
  5
18D
330
1F
100
AcDbEntity
  8
0
 62
     7
100
AcDbCircle
 10
116.8327102661133
 20
-5.315048217773409
 30
0.0
 40
25.0
100
AcDbArc
 50
147.1925300478774
 51
162.6077888913543
  0
ARC
  5
18E
330
1F
100
AcDbEntity
  8
0
 62
     7
100
AcDbCircle
 10
94.13929748535161
 20
9.314010620117188
 30
0.0
 40
2.0
100
AcDbArc
 50
327.1925796804352
 51
341.4352282321098
  0
ARC
  5
18F
330
1F
100
AcDbEntity
  8
0
 62
     7
100
AcDbCircle
 10
91.0670928955078
 20
2.755523681640597
 30
0.0
 40
2.0
100
AcDbArc
 50
289.2866826926432
 51
342.6078214484396
  0
ARC
  5
190
330
1F
100
AcDbEntity
  8
0
 62
     7
100
AcDbCircle
 10
92.3833847045898
 20
12.2495422363281
 30
0.0
 40
4.0
100
AcDbArc
 50
177.8648468932756
 51
244.2866607224659
  0
CIRCLE
  5
191
330
1F
100
AcDbEntity
  8
0
 62
     7
100
AcDbCircle
 10
92.7646484375
 20
11.54547119140631
 30
0.0
 40
1.25
  0
ARC
  5
192
330
1F
100
AcDbEntity
  8
0
 62
     7
100
AcDbCircle
 10
105.5717849731445
 20
3.148818969726591
 30
0.0
 40
19.70000076293945
100
AcDbArc
 50
116.373555380621
 51
142.0626071887127
  0
ARC
  5
193
330
1F
100
AcDbEntity
  8
0
 62
     7
100
AcDbCircle
 10
98.5974807739258
 20
17.2147216796875
 30
0.0
 40
4.0
100
AcDbArc
 50
93.0084617772479
 51
116.373555380621
  0
ARC
  5
194
330
1F
100
AcDbEntity
  8
0
 62
     7
100
AcDbCircle
 10
92.7646484375
 20
11.54547119140631
 30
0.0
 40
3.0
100
AcDbArc
 50
218.5724774606945
 51
263.5724957884061
  0
ARC
  5
195
330
1F
100
AcDbEntity
  8
0
 62
     7
100
AcDbCircle
 10
94.3282852172852
 20
12.7925109863281
 30
0.0
 40
5.0
100
AcDbArc
 50
160.3498512951533
 51
218.5724601578504
  0
ARC
  5
196
330
1F
100
AcDbEntity
  8
0
 62
     7
100
AcDbCircle
 10
92.0045852661133
 20
13.72477722167969
 30
0.0
 40
2.5
100
AcDbArc
 50
139.4255940935758
 51
162.5638297938563
  0
ARC
  5
197
330
1F
100
AcDbEntity
  8
0
 62
     7
100
AcDbCircle
 10
114.5814361572266
 20
-8.148483276367188
 30
0.0
 40
25.0
100
AcDbArc
 50
121.4783294832618
 51
136.8935883267387
  0
ARC
  5
198
330
1F
100
AcDbEntity
  8
0
 62
     7
100
AcDbCircle
 10
100.4826507568359
 20
14.87812805175781
 30
0.0
 40
2.0
100
AcDbArc
 50
301.4783791158194
 51
315.7210310825886
  0
ARC
  5
199
330
1F
100
AcDbEntity
  8
0
 62
     7
100
AcDbCircle
 10
94.86907196044921
 20
10.3020935058594
 30
0.0
 40
2.0
100
AcDbArc
 50
263.5724821280282
 51
316.8936242989185
  0
ARC
  5
19A
330
1F
100
AcDbEntity
  8
0
 62
     7
100
AcDbCircle
 10
100.1743011474609
 20
18.28480529785159
 30
0.0
 40
4.0
100
AcDbArc
 50
152.1506463286597
 51
218.5724601578502
  0
ARC
  5
19B
330
1F
100
AcDbEntity
  8
0
 62
     7
100
AcDbCircle
 10
-13.30000305175781
 20
16.3999938964844
 30
0.0
 40
10.10000038146973
100
AcDbArc
 50
3.746770278649553
 51
10.79374965291836
  0
ARC
  5
19C
330
1F
100
AcDbEntity
  8
0
 62
     7
100
AcDbCircle
 10
-23.6000061035156
 20
16.3999938964844
 30
0.0
 40
10.10000038146973
100
AcDbArc
 50
3.746770278649553
 51
10.53548141738013
  0
ARC
  5
19D
330
1F
100
AcDbEntity
  8
0
 62
     7
100
AcDbCircle
 10
-20.1000061035156
 20
-25.8000030517578
 30
0.0
 40
2.0
100
AcDbArc
 50
179.9999813306656
 51
270.0000179860899
  0
ARC
  5
19E
330
1F
100
AcDbEntity
  8
0
 62
     7
100
AcDbCircle
 10
-0.8999938964844034
 20
-25.8000030517578
 30
0.0
 40
2.0
100
AcDbArc
 50
270.0000179860899
 51
360.0
  0
ARC
  5
19F
330
1F
100
AcDbEntity
  8
0
 62
     7
100
AcDbCircle
 10
-20.1000061035156
 20
22.19999694824219
 30
0.0
 40
2.0
100
AcDbArc
 50
89.99998201391099
 51
179.9999640278211
  0
ARC
  5
1A0
330
1F
100
AcDbEntity
  8
0
 62
     7
100
AcDbCircle
 10
-0.8999938964844034
 20
22.19999694824219
 30
0.0
 40
2.0
100
AcDbArc
 50
0.0
 51
89.99998201391099
  0
ARC
  5
1A1
330
1F
100
AcDbEntity
  8
0
 62
     7
100
AcDbCircle
 10
-7.699996948242188
 20
16.3999938964844
 30
0.0
 40
10.10000038146973
100
AcDbArc
 50
169.2535219726417
 51
176.2532500982325
  0
ARC
  5
1A2
330
1F
100
AcDbEntity
  8
0
 62
     7
100
AcDbCircle
 10
2.600006103515597
 20
16.3999938964844
 30
0.0
 40
10.10000038146973
100
AcDbArc
 50
169.5740627503904
 51
176.2532500982325
  0
CIRCLE
  5
1A3
330
1F
100
AcDbEntity
  8
0
 62
     7
100
AcDbCircle
 10
109.5
 20
-1.800003051757813
 30
0.0
 40
4.764999866485596
  0
CIRCLE
  5
1A4
330
1F
100
AcDbEntity
  8
0
 62
     7
100
AcDbCircle
 10
109.5
 20
-1.800003051757813
 30
0.0
 40
15.0
  0
ARC
  5
1A5
330
1F
100
AcDbEntity
  8
0
 62
     7
100
AcDbCircle
 10
2.600000381469727
 20
16.39999771118164
 30
0.0
 40
10.10000038146973
100
AcDbArc
 50
176.2532637586108
 51
179.9999640278214
  0
ARC
  5
1A6
330
1F
100
AcDbEntity
  8
0
 62
     7
100
AcDbCircle
 10
-13.30000019073486
 20
16.39999771118164
 30
0.0
 40
10.10000038146973
100
AcDbArc
 50
0.0
 51
3.746749361195145
  0
ARC
  5
1A7
330
1F
100
AcDbEntity
  8
0
 62
     7
100
AcDbCircle
 10
-2.799999713897705
 20
13.59999656677246
 30
0.0
 40
0.4000000059604645
100
AcDbArc
 50
179.9999813306655
 51
270.0000179860902
  0
ARC
  5
1A8
330
1F
100
AcDbEntity
  8
0
 62
     7
100
AcDbCircle
 10
-23.60000038146973
 20
16.39999771118164
 30
0.0
 40
10.10000038146973
100
AcDbArc
 50
0.0
 51
3.746749361195145
  0
ARC
  5
1A9
330
1F
100
AcDbEntity
  8
0
 62
     7
100
AcDbCircle
 10
-7.699999809265137
 20
16.39999771118164
 30
0.0
 40
10.10000038146973
100
AcDbArc
 50
176.2532637586108
 51
179.9999640278214
  0
ARC
  5
1AA
330
1F
100
AcDbEntity
  8
0
 62
     7
100
AcDbCircle
 10
-18.20000076293945
 20
13.59999656677246
 30
0.0
 40
0.4000000059604645
100
AcDbArc
 50
269.9999633445768
 51
360.0
  0
LINE
  5
1AB
330
1F
100
AcDbEntity
  8
0
  6
CENTER
 62
     7
100
AcDbLine
 10
77.0
 20
-1.800003051757813
 30
0.0
 11
142.0
 21
-1.800003051757813
 31
0.0
  0
LINE
  5
1AC
330
1F
100
AcDbEntity
  8
0
  6
CENTER
 62
     7
100
AcDbLine
 10
109.5
 20
30.69999694824219
 30
0.0
 11
109.5
 21
-34.3000030517578
 31
0.0
  0
LINE
  5
1AD
330
1F
100
AcDbEntity
  8
0
  6
CENTER
 62
     7
100
AcDbLine
 10
-10.83332824707031
 20
-1.800003051757813
 30
0.0
 11
15.83332824707031
 21
-1.800003051757813
 31
0.0
  0
LINE
  5
1AE
330
1F
100
AcDbEntity
  8
0
  6
CENTER
 62
     7
100
AcDbLine
 10
-8.216659545898409
 20
19.60499572753909
 30
0.0
 11
-2.483337402343807
 21
19.60499572753909
 31
0.0
  0
LINE
  5
1AF
330
1F
100
AcDbEntity
  8
0
  6
CENTER
 62
     7
100
AcDbLine
 10
-10.16667175292969
 20
-1.800003051757813
 30
0.0
 11
-36.83332824707031
 21
-1.800003051757813
 31
0.0
  0
LINE
  5
1B0
330
1F
100
AcDbEntity
  8
0
  6
CENTER
 62
     7
100
AcDbLine
 10
-12.78334045410159
 20
19.60499572753909
 30
0.0
 11
-18.51666259765631
 21
19.60499572753909
 31
0.0
  0
LINE
  5
1B1
330
1F
100
AcDbEntity
  8
0
  6
CENTER
 62
     7
100
AcDbLine
 10
2.548004150390597
 20
19.60499572753909
 30
0.0
 11
-23.375
 21
19.60499572753909
 31
0.0
  0
LINE
  5
1B2
330
1F
100
AcDbEntity
  8
0
  6
CENTER
 62
     7
100
AcDbLine
 10
-27.5
 20
15.08929443359381
 30
0.0
 11
-27.5
 21
0.7005920410155966
 31
0.0
  0
LINE
  5
1B3
330
1F
100
AcDbEntity
  8
0
  6
CENTER
 62
     7
100
AcDbLine
 10
6.5
 20
15.2575988769531
 30
0.0
 11
6.5
 21
1.037170410156307
 31
0.0
  0
CIRCLE
  5
1B4
330
1F
100
AcDbEntity
  8
0
  6
CENTER
 62
     7
100
AcDbCircle
 10
109.5
 20
-1.800003051757813
 30
0.0
 40
21.40500068664551
  0
LINE
  5
1B5
330
1F
100
AcDbEntity
  8
0
  6
DIVIDE
 62
     9
100
AcDbLine
 10
-6.2864990234375
 20
21.19999694824219
 30
0.0
 11
-5.350006103515597
 21
21.19999694824219
 31
0.0
  0
LINE
  5
1B6
330
1F
100
AcDbEntity
  8
0
  6
DIVIDE
 62
     9
100
AcDbLine
 10
-4.413497924804688
 20
21.19999694824219
 30
0.0
 11
-5.350006103515597
 21
21.19999694824219
 31
0.0
  0
LINE
  5
1B7
330
1F
100
AcDbEntity
  8
0
  6
DIVIDE
 62
     9
100
AcDbLine
 10
-14.7135009765625
 20
21.19999694824219
 30
0.0
 11
-15.6499938964844
 21
21.19999694824219
 31
0.0
  0
LINE
  5
1B8
330
1F
100
AcDbEntity
  8
0
  6
DIVIDE
 62
     9
100
AcDbLine
 10
-16.58650207519531
 20
21.19999694824219
 30
0.0
 11
-15.6499938964844
 21
21.19999694824219
 31
0.0
  0
LINE
  5
1B9
330
1F
100
AcDbEntity
  8
0
  6
DIVIDE
 62
     9
100
AcDbLine
 10
-18.03999328613281
 20
21.5
 30
0.0
 11
-18.03999328613281
 21
18.40977478027341
 31
0.0
  0
LINE
  5
1BA
330
1F
100
AcDbEntity
  8
0
  6
DIVIDE
 62
     9
100
AcDbLine
 10
-13.25999450683591
 20
21.5
 30
0.0
 11
-13.25999450683591
 21
18.33869934082031
 31
0.0
  0
LINE
  5
1BB
330
1F
100
AcDbEntity
  8
0
  6
DIVIDE
 62
     9
100
AcDbLine
 10
-7.740005493164091
 20
21.5
 30
0.0
 11
-7.740005493164091
 21
18.31501770019531
 31
0.0
  0
LINE
  5
1BC
330
1F
100
AcDbEntity
  8
0
  6
DIVIDE
 62
     9
100
AcDbLine
 10
-2.960006713867188
 20
21.5
 30
0.0
 11
-2.960006713867188
 21
18.3623962402344
 31
0.0
  0
LINE
  5
1BD
330
1F
100
AcDbEntity
  8
0
  6
DIVIDE
 62
     9
100
AcDbLine
 10
-6.740005493164091
 20
22.5
 30
0.0
 11
-3.960006713867188
 21
22.5
 31
0.0
  0
LINE
  5
1BE
330
1F
100
AcDbEntity
  8
0
  6
DIVIDE
 62
     9
100
AcDbLine
 10
-29.6000061035156
 20
13.19999694824219
 30
0.0
 11
-29.6000061035156
 21
2.964996337890597
 31
0.0
  0
LINE
  5
1BF
330
1F
100
AcDbEntity
  8
0
  6
DIVIDE
 62
     9
100
AcDbLine
 10
-25.3999938964844
 20
13.19999694824219
 30
0.0
 11
-25.3999938964844
 21
2.964996337890597
 31
0.0
  0
LINE
  5
1C0
330
1F
100
AcDbEntity
  8
0
  6
DIVIDE
 62
     9
100
AcDbLine
 10
4.399993896484403
 20
13.19999694824219
 30
0.0
 11
4.399993896484403
 21
2.964996337890597
 31
0.0
  0
LINE
  5
1C1
330
1F
100
AcDbEntity
  8
0
  6
DIVIDE
 62
     9
100
AcDbLine
 10
8.600006103515597
 20
13.19999694824219
 30
0.0
 11
8.600006103515597
 21
2.964996337890597
 31
0.0
  0
LINE
  5
1C2
330
1F
100
AcDbEntity
  8
0
  6
DIVIDE
 62
     9
100
AcDbLine
 10
-17.03999328613281
 20
22.5
 30
0.0
 11
-14.25999450683591
 21
22.5
 31
0.0
  0
LINE
  5
1C3
330
1F
100
AcDbEntity
  8
0
  6
DIVIDE
 62
     9
100
AcDbLine
 10
-30.0
 20
13.19999694824219
 30
0.0
 11
-30.0
 21
2.964996337890625
 31
0.0
  0
LINE
  5
1C4
330
1F
100
AcDbEntity
  8
0
  6
DIVIDE
 62
     9
100
AcDbLine
 10
-25.0
 20
13.19999694824219
 30
0.0
 11
-25.0
 21
2.964996337890625
 31
0.0
  0
LINE
  5
1C5
330
1F
100
AcDbEntity
  8
0
  6
DIVIDE
 62
     9
100
AcDbLine
 10
4.0
 20
13.19999694824219
 30
0.0
 11
4.0
 21
2.964996337890625
 31
0.0
  0
LINE
  5
1C6
330
1F
100
AcDbEntity
  8
0
  6
DIVIDE
 62
     9
100
AcDbLine
 10
9.0
 20
2.964996337890625
 30
0.0
 11
9.0
 21
13.19999694824219
 31
0.0
  0
ARC
  5
1C7
330
1F
100
AcDbEntity
  8
0
  6
DIVIDE
 62
     9
100
AcDbCircle
 10
2.600006103515597
 20
16.3999938964844
 30
0.0
 40
10.10000038146973
100
AcDbArc
 50
151.6245578380287
 51
169.5699782972667
  0
ARC
  5
1C8
330
1F
100
AcDbEntity
  8
0
  6
DIVIDE
 62
     9
100
AcDbCircle
 10
-7.699996948242188
 20
16.3999938964844
 30
0.0
 40
10.10000038146973
100
AcDbArc
 50
151.6245578380287
 51
169.1784308729066
  0
ARC
  5
1C9
330
1F
100
AcDbEntity
  8
0
  6
DIVIDE
 62
     9
100
AcDbCircle
 10
-23.6000061035156
 20
16.3999938964844
 30
0.0
 40
10.10000038146973
100
AcDbArc
 50
11.61067442859772
 51
28.37540618979259
  0
ARC
  5
1CA
330
1F
100
AcDbEntity
  8
0
  6
DIVIDE
 62
     9
100
AcDbCircle
 10
-13.30000305175781
 20
16.3999938964844
 30
0.0
 40
10.10000038146973
100
AcDbArc
 50
11.86894266413621
 51
28.37540618979259
  0
ARC
  5
1CB
330
1F
100
AcDbEntity
  8
0
  6
DIVIDE
 62
     9
100
AcDbCircle
 10
-17.03999328613281
 20
21.5
 30
0.0
 40
1.0
100
AcDbArc
 50
89.99998201391099
 51
179.999964027822
  0
ARC
  5
1CC
330
1F
100
AcDbEntity
  8
0
  6
DIVIDE
 62
     9
100
AcDbCircle
 10
-14.25999450683591
 20
21.5
 30
0.0
 40
1.0
100
AcDbArc
 50
0.0
 51
89.99998201391099
  0
ARC
  5
1CD
330
1F
100
AcDbEntity
  8
0
  6
DIVIDE
 62
     9
100
AcDbCircle
 10
-6.740005493164091
 20
21.5
 30
0.0
 40
1.0
100
AcDbArc
 50
89.99998201391099
 51
179.999964027822
  0
ARC
  5
1CE
330
1F
100
AcDbEntity
  8
0
  6
DIVIDE
 62
     9
100
AcDbCircle
 10
-3.960006713867188
 20
21.5
 30
0.0
 40
1.0
100
AcDbArc
 50
0.0
 51
89.99998201391099
  0
TEXT
  5
1D0
330
1F
100
AcDbEntity
  8
0
 62
     7
100
AcDbText
 10
153.5321418986176
 20
-109.8750183582306
 30
0.0
 40
4.150000095367432
  1
ＣＮ３１４
 41
0.660000054049203
  7
FDASTYLE0
 72
     5
 11
173.0964297995423
 21
-109.8750183582306
 31
0.0
100
AcDbText
  0
VIEWPORT
  5
2B
330
1B
100
AcDbEntity
 67
     1
  8
0
100
AcDbViewport
 10
64.0208358241233
 20
-39.5875107049942
 30
0.0
 40
605.1249844271616
 41
421.7250459194183
 68
     1
 69
     1
1001
ACAD
1000
MVIEW
1002
{
1070
    16
1010
0.0
1020
0.0
1030
0.0
1010
0.0
1020
0.0
1030
1.0
1040
0.0
1040
421.7250459194183
1040
64.0208358241233
1040
-39.5875107049942
1040
50.0
1040
0.0
1040
0.0
1070
     0
1070
   100
1070
     0
1070
     1
1070
     0
1070
     0
1070
     0
1070
     0
1040
0.0
1040
0.0
1040
0.0
1040
0.5
1040
0.5
1040
0.0
1040
0.0
1070
     0
1002
{
1002
}
1002
}
  0
ENDSEC
  0
SECTION
  2
OBJECTS
  0
DICTIONARY
  5
C
330
0
100
AcDbDictionary
  3
ACAD_GROUP
350
D
  3
ACAD_LAYOUT
350
1A
  3
ACAD_MLINESTYLE
350
17
  3
ACAD_PLOTSETTINGS
350
19
  3
ACDBHEADERROUNDTRIPXREC
350
1D1
  0
DICTIONARY
  5
D
102
{ACAD_REACTORS
330
C
102
}
330
C
100
AcDbDictionary
  0
DICTIONARY
  5
1A
102
{ACAD_REACTORS
330
C
102
}
330
C
100
AcDbDictionary
  0
DICTIONARY
  5
17
102
{ACAD_REACTORS
330
C
102
}
330
C
100
AcDbDictionary
  3
STANDARD
350
18
  0
DICTIONARY
  5
19
102
{ACAD_REACTORS
330
C
102
}
330
C
100
AcDbDictionary
  0
DICTIONARY
  5
1D1
102
{ACAD_REACTORS
330
C
102
}
330
C
100
AcDbDictionary
  3
CEPSNTYPE
350
1DA
  3
DIMSTYLEDATA
350
1F0
  3
FINGERPRINTGUID
350
1DB
  3
HYPERLINKBASE
350
1D4
  3
INSUNITS
350
1D9
  3
LAYOUTDICT
350
1D6
  3
LWETCUNION
350
1D8
  3
PLOTSETDICT
350
1D7
  3
PSVPSCALE
350
1DD
  3
PUCSBASE
350
1E0
  3
PUCSORGBACK
350
1E6
  3
PUCSORGBOTTOM
350
1E2
  3
PUCSORGFRONT
350
1E5
  3
PUCSORGLEFT
350
1E3
  3
PUCSORGRIGHT
350
1E4
  3
PUCSORGTOP
350
1E1
  3
PUCSORTHOREF
350
1DE
  3
PUCSORTHOVIEW
350
1DF
  3
STYLESHEET
350
1D5
  3
TSTACKALIGN
350
1D2
  3
TSTACKSIZE
350
1D3
  3
UCSBASE
350
1E9
  3
UCSORGBACK
350
1EF
  3
UCSORGBOTTOM
350
1EB
  3
UCSORGFRONT
350
1EE
  3
UCSORGLEFT
350
1EC
  3
UCSORGRIGHT
350
1ED
  3
UCSORGTOP
350
1EA
  3
UCSORTHOREF
350
1E7
  3
UCSORTHOVIEW
350
1E8
  3
VERSIONGUID
350
1DC
  0
MLINESTYLE
  5
18
102
{ACAD_REACTORS
330
17
102
}
330
17
100
AcDbMlineStyle
  2
Standard
 70
     0
  3

 62
   256
 51
90.0
 52
90.0
 71
     2
 49
0.5
 62
   256
  6
BYLAYER
 49
-0.5
 62
   256
  6
BYLAYER
  0
XRECORD
  5
1DA
102
{ACAD_REACTORS
330
1D1
102
}
330
1D1
100
AcDbXrecord
 90
        0
  0
XRECORD
  5
1F0
102
{ACAD_REACTORS
330
1D1
102
}
330
1D1
100
AcDbXrecord
1000
DSTYLE
1002
{
1070
   171
 70
     2
1070
   143
 40
25.4
1070
   274
 70
     2
1070
   141
 40
0.09
1070
   271
 70
     4
1070
    43
 40
0.38
1070
    44
 40
0.18
1070
   278
 70
    46
1070
    42
 40
0.0625
1070
   147
 40
0.09
1070
    77
 70
     3
1070
   272
 70
     4
1070
    73
 70
     1
1070
   172
 70
     0
1070
    74
 70
     1
1070
   283
 70
     1
1070
   340
340
11
1070
   140
 40
0.18
1070
   284
 70
     0
1070
    78
 70
     0
1002
}
  0
XRECORD
  5
1DB
102
{ACAD_REACTORS
330
1D1
102
}
330
1D1
100
AcDbXrecord
  1
{9534C07F-DE1E-4AE2-ABB5-86B9E5E9B040}
  0
XRECORD
  5
1D4
102
{ACAD_REACTORS
330
1D1
102
}
330
1D1
100
AcDbXrecord
  1

  0
XRECORD
  5
1D9
102
{ACAD_REACTORS
330
1D1
102
}
330
1D1
100
AcDbXrecord
 90
        4
  0
XRECORD
  5
1D6
102
{ACAD_REACTORS
330
1D1
102
}
330
1D1
100
AcDbXrecord
340
1A
  0
XRECORD
  5
1D8
102
{ACAD_REACTORS
330
1D1
102
}
330
1D1
100
AcDbXrecord
 90
    10781
  0
XRECORD
  5
1D7
102
{ACAD_REACTORS
330
1D1
102
}
330
1D1
100
AcDbXrecord
340
19
  0
XRECORD
  5
1DD
102
{ACAD_REACTORS
330
1D1
102
}
330
1D1
100
AcDbXrecord
 40
0.0
  0
XRECORD
  5
1E0
102
{ACAD_REACTORS
330
1D1
102
}
330
1D1
100
AcDbXrecord
340
0
  0
XRECORD
  5
1E6
102
{ACAD_REACTORS
330
1D1
102
}
330
1D1
100
AcDbXrecord
 10
0.0
 20
0.0
 30
0.0
  0
XRECORD
  5
1E2
102
{ACAD_REACTORS
330
1D1
102
}
330
1D1
100
AcDbXrecord
 10
0.0
 20
0.0
 30
0.0
  0
XRECORD
  5
1E5
102
{ACAD_REACTORS
330
1D1
102
}
330
1D1
100
AcDbXrecord
 10
0.0
 20
0.0
 30
0.0
  0
XRECORD
  5
1E3
102
{ACAD_REACTORS
330
1D1
102
}
330
1D1
100
AcDbXrecord
 10
0.0
 20
0.0
 30
0.0
  0
XRECORD
  5
1E4
102
{ACAD_REACTORS
330
1D1
102
}
330
1D1
100
AcDbXrecord
 10
0.0
 20
0.0
 30
0.0
  0
XRECORD
  5
1E1
102
{ACAD_REACTORS
330
1D1
102
}
330
1D1
100
AcDbXrecord
 10
0.0
 20
0.0
 30
0.0
  0
XRECORD
  5
1DE
102
{ACAD_REACTORS
330
1D1
102
}
330
1D1
100
AcDbXrecord
340
0
  0
XRECORD
  5
1DF
102
{ACAD_REACTORS
330
1D1
102
}
330
1D1
100
AcDbXrecord
 70
     0
  0
XRECORD
  5
1D5
102
{ACAD_REACTORS
330
1D1
102
}
330
1D1
100
AcDbXrecord
  1

  0
XRECORD
  5
1D2
102
{ACAD_REACTORS
330
1D1
102
}
330
1D1
100
AcDbXrecord
 90
        1
  0
XRECORD
  5
1D3
102
{ACAD_REACTORS
330
1D1
102
}
330
1D1
100
AcDbXrecord
 90
       70
  0
XRECORD
  5
1E9
102
{ACAD_REACTORS
330
1D1
102
}
330
1D1
100
AcDbXrecord
340
0
  0
XRECORD
  5
1EF
102
{ACAD_REACTORS
330
1D1
102
}
330
1D1
100
AcDbXrecord
 10
0.0
 20
0.0
 30
0.0
  0
XRECORD
  5
1EB
102
{ACAD_REACTORS
330
1D1
102
}
330
1D1
100
AcDbXrecord
 10
0.0
 20
0.0
 30
0.0
  0
XRECORD
  5
1EE
102
{ACAD_REACTORS
330
1D1
102
}
330
1D1
100
AcDbXrecord
 10
0.0
 20
0.0
 30
0.0
  0
XRECORD
  5
1EC
102
{ACAD_REACTORS
330
1D1
102
}
330
1D1
100
AcDbXrecord
 10
0.0
 20
0.0
 30
0.0
  0
XRECORD
  5
1ED
102
{ACAD_REACTORS
330
1D1
102
}
330
1D1
100
AcDbXrecord
 10
0.0
 20
0.0
 30
0.0
  0
XRECORD
  5
1EA
102
{ACAD_REACTORS
330
1D1
102
}
330
1D1
100
AcDbXrecord
 10
0.0
 20
0.0
 30
0.0
  0
XRECORD
  5
1E7
102
{ACAD_REACTORS
330
1D1
102
}
330
1D1
100
AcDbXrecord
340
0
  0
XRECORD
  5
1E8
102
{ACAD_REACTORS
330
1D1
102
}
330
1D1
100
AcDbXrecord
 70
     0
  0
XRECORD
  5
1DC
102
{ACAD_REACTORS
330
1D1
102
}
330
1D1
100
AcDbXrecord
  1
{FAEB1C32-E019-11D5-929B-00C0DF256EC4}
  0
ENDSEC
  0
EOF
