  0
SECTION
  2
HEADER
  9
$ACADVER
  1
AC1014
  9
$ACADMAINTVER
 70
     9
  9
$DWGCODEPAGE
  3
ANSI_932
  9
$INSBASE
 10
0.0
 20
0.0
 30
0.0
  9
$EXTMIN
 10
-235.8749997604829
 20
-247.9500336647034
 30
0.0
  9
$EXTMAX
 10
365.2499995209658
 20
166.275012254715
 30
0.0
  9
$LIMMIN
 10
-210.0
 20
-148.5
  9
$LIMMAX
 10
210.0
 20
148.5
  9
$ORTHOMODE
 70
     0
  9
$REGENMODE
 70
     1
  9
$FILLMODE
 70
     1
  9
$QTEXTMODE
 70
     0
  9
$MIRRTEXT
 70
     1
  9
$DRAGMODE
 70
     2
  9
$LTSCALE
 40
1.0
  9
$OSMODE
 70
    37
  9
$ATTMODE
 70
     1
  9
$TEXTSIZE
 40
0.2
  9
$TRACEWID
 40
0.05
  9
$TEXTSTYLE
  7
STANDARD
  9
$CLAYER
  8
0
  9
$CELTYPE
  6
BYLAYER
  9
$CECOLOR
 62
   256
  9
$CELTSCALE
 40
1.0
  9
$DELOBJ
 70
     1
  9
$DISPSILH
 70
     0
  9
$DIMSCALE
 40
1.0
  9
$DIMASZ
 40
2.5
  9
$DIMEXO
 40
0.0625
  9
$DIMDLI
 40
0.38
  9
$DIMRND
 40
0.0
  9
$DIMDLE
 40
0.0
  9
$DIMEXE
 40
0.18
  9
$DIMTP
 40
0.0
  9
$DIMTM
 40
0.0
  9
$DIMTXT
 40
0.18
  9
$DIMCEN
 40
0.09
  9
$DIMTSZ
 40
0.0
  9
$DIMTOL
 70
     0
  9
$DIMLIM
 70
     0
  9
$DIMTIH
 70
     1
  9
$DIMTOH
 70
     1
  9
$DIMSE1
 70
     0
  9
$DIMSE2
 70
     0
  9
$DIMTAD
 70
     3
  9
$DIMZIN
 70
     0
  9
$DIMBLK
  1

  9
$DIMASO
 70
     1
  9
$DIMSHO
 70
     1
  9
$DIMPOST
  1

  9
$DIMAPOST
  1

  9
$DIMALT
 70
     0
  9
$DIMALTD
 70
     2
  9
$DIMALTF
 40
25.4
  9
$DIMLFAC
 40
1.0
  9
$DIMTOFL
 70
     0
  9
$DIMTVP
 40
0.0
  9
$DIMTIX
 70
     0
  9
$DIMSOXD
 70
     0
  9
$DIMSAH
 70
     0
  9
$DIMBLK1
  1

  9
$DIMBLK2
  1

  9
$DIMSTYLE
  2
STANDARD
  9
$DIMCLRD
 70
     0
  9
$DIMCLRE
 70
     0
  9
$DIMCLRT
 70
     0
  9
$DIMTFAC
 40
1.0
  9
$DIMGAP
 40
0.09
  9
$DIMJUST
 70
     0
  9
$DIMSD1
 70
     0
  9
$DIMSD2
 70
     0
  9
$DIMTOLJ
 70
     1
  9
$DIMTZIN
 70
     0
  9
$DIMALTZ
 70
     0
  9
$DIMALTTZ
 70
     0
  9
$DIMFIT
 70
     3
  9
$DIMUPT
 70
     0
  9
$DIMUNIT
 70
     2
  9
$DIMDEC
 70
     4
  9
$DIMTDEC
 70
     4
  9
$DIMALTU
 70
     2
  9
$DIMALTTD
 70
     2
  9
$DIMTXSTY
  7
STANDARD
  9
$DIMAUNIT
 70
     0
  9
$LUNITS
 70
     2
  9
$LUPREC
 70
     4
  9
$SKETCHINC
 40
0.1
  9
$FILLETRAD
 40
0.5
  9
$AUNITS
 70
     0
  9
$AUPREC
 70
     0
  9
$MENU
  1
.
  9
$ELEVATION
 40
0.0
  9
$PELEVATION
 40
0.0
  9
$THICKNESS
 40
0.0
  9
$LIMCHECK
 70
     0
  9
$CHAMFERA
 40
0.5
  9
$CHAMFERB
 40
0.5
  9
$CHAMFERC
 40
1.0
  9
$CHAMFERD
 40
0.0
  9
$SKPOLY
 70
     0
  9
$TDCREATE
 40
2454068.485785706
  9
$TDUPDATE
 40
2454068.485785718
  9
$TDINDWG
 40
0.0000000116
  9
$TDUSRTIMER
 40
0.0000000116
  9
$USRTIMER
 70
     1
  9
$ANGBASE
 50
0.0
  9
$ANGDIR
 70
     0
  9
$PDMODE
 70
     0
  9
$PDSIZE
 40
1.0
  9
$PLINEWID
 40
0.0
  9
$COORDS
 70
     1
  9
$SPLFRAME
 70
     0
  9
$SPLINETYPE
 70
     6
  9
$SPLINESEGS
 70
     8
  9
$ATTDIA
 70
     0
  9
$ATTREQ
 70
     1
  9
$HANDLING
 70
     1
  9
$HANDSEED
  5
1D7
  9
$SURFTAB1
 70
     6
  9
$SURFTAB2
 70
     6
  9
$SURFTYPE
 70
     6
  9
$SURFU
 70
     6
  9
$SURFV
 70
     6
  9
$UCSNAME
  2

  9
$UCSORG
 10
0.0
 20
0.0
 30
0.0
  9
$UCSXDIR
 10
1.0
 20
0.0
 30
0.0
  9
$UCSYDIR
 10
0.0
 20
1.0
 30
0.0
  9
$PUCSNAME
  2

  9
$PUCSORG
 10
0.0
 20
0.0
 30
0.0
  9
$PUCSXDIR
 10
1.0
 20
0.0
 30
0.0
  9
$PUCSYDIR
 10
0.0
 20
1.0
 30
0.0
  9
$USERI1
 70
     0
  9
$USERI2
 70
     0
  9
$USERI3
 70
     0
  9
$USERI4
 70
     0
  9
$USERI5
 70
     0
  9
$USERR1
 40
0.0
  9
$USERR2
 40
0.0
  9
$USERR3
 40
0.0
  9
$USERR4
 40
0.0
  9
$USERR5
 40
0.0
  9
$WORLDVIEW
 70
     1
  9
$SHADEDGE
 70
     3
  9
$SHADEDIF
 70
    70
  9
$TILEMODE
 70
     1
  9
$MAXACTVP
 70
    64
  9
$PINSBASE
 10
0.0
 20
0.0
 30
0.0
  9
$PLIMCHECK
 70
     0
  9
$PEXTMIN
 10
1.000000000000000E+20
 20
1.000000000000000E+20
 30
1.000000000000000E+20
  9
$PEXTMAX
 10
-1.000000000000000E+20
 20
-1.000000000000000E+20
 30
-1.000000000000000E+20
  9
$PLIMMIN
 10
0.0
 20
0.0
  9
$PLIMMAX
 10
12.0
 20
9.0
  9
$UNITMODE
 70
     0
  9
$VISRETAIN
 70
     0
  9
$PLINEGEN
 70
     1
  9
$PSLTSCALE
 70
     0
  9
$TREEDEPTH
 70
  3020
  9
$PICKSTYLE
 70
     1
  9
$CMLSTYLE
  2
STANDARD
  9
$CMLJUST
 70
     0
  9
$CMLSCALE
 40
1.0
  9
$PROXYGRAPHICS
 70
     0
  9
$MEASUREMENT
 70
     1
  0
ENDSEC
  0
SECTION
  2
CLASSES
  0
CLASS
  1
ACDBDICTIONARYWDFLT
  2
AcDbDictionaryWithDefault
  3
ObjectDBX Classes
 90
        0
280
     0
281
     0
  0
CLASS
  1
XRECORD
  2
AcDbXrecord
  3
AutoCAD 2000
 90
        0
280
     0
281
     0
  0
CLASS
  1
LWPOLYLINE
  2
AcDbPolyline
  3
AutoCAD 2000
 90
        0
280
     0
281
     1
  0
CLASS
  1
HATCH
  2
AcDbHatch
  3
AutoCAD 2000
 90
        0
280
     0
281
     1
  0
CLASS
  1
ACDBPLACEHOLDER
  2
AcDbPlaceHolder
  3
ObjectDBX Classes
 90
        0
280
     0
281
     0
  0
CLASS
  1
LAYOUT
  2
AcDbLayout
  3
ObjectDBX Classes
 90
        0
280
     0
281
     0
  0
ENDSEC
  0
SECTION
  2
TABLES
  0
TABLE
  2
VPORT
  5
8
330
0
100
AcDbSymbolTable
 70
     1
  0
VPORT
  5
29
330
8
100
AcDbSymbolTableRecord
100
AcDbViewportTableRecord
  2
*ACTIVE
 70
     0
 10
0.0
 20
0.0
 11
1.0
 21
1.0
 12
0.0
 22
0.0
 13
0.0
 23
0.0
 14
0.5
 24
0.5
 15
0.5
 25
0.5
 16
0.0
 26
0.0
 36
1.0
 17
64.68971418941464
 27
-40.8375107049942
 37
0.0
 40
140.8365156126022
 41
1.451235967159337
 42
50.0
 43
0.0
 44
0.0
 50
0.0
 51
0.0
 71
     0
 72
  1000
 73
     1
 74
     1
 75
     0
 76
     0
 77
     0
 78
     0
  0
ENDTAB
  0
TABLE
  2
LTYPE
  5
5
330
0
100
AcDbSymbolTable
 70
    28
  0
LTYPE
  5
14
330
5
100
AcDbSymbolTableRecord
100
AcDbLinetypeTableRecord
  2
BYBLOCK
 70
     0
  3

 72
    65
 73
     0
 40
0.0
  0
LTYPE
  5
15
330
5
100
AcDbSymbolTableRecord
100
AcDbLinetypeTableRecord
  2
BYLAYER
 70
     0
  3

 72
    65
 73
     0
 40
0.0
  0
LTYPE
  5
16
330
5
100
AcDbSymbolTableRecord
100
AcDbLinetypeTableRecord
  2
CONTINUOUS
 70
     0
  3
Solid line
 72
    65
 73
     0
 40
0.0
  0
LTYPE
  5
2C
330
5
100
AcDbSymbolTableRecord
100
AcDbLinetypeTableRecord
  2
HIDDENX2
 70
     0
  3
CADPAC LINETYPE
 72
    65
 73
     2
 40
7.713498622589498
 49
5.785123966942123
 74
     0
 49
-1.928374655647374
 74
     0
  0
LTYPE
  5
2D
330
5
100
AcDbSymbolTableRecord
100
AcDbLinetypeTableRecord
  2
HIDDEN
 70
     0
  3
CADPAC LINETYPE
 72
    65
 73
     2
 40
5.785123966942123
 49
3.856749311294749
 74
     0
 49
-1.928374655647374
 74
     0
  0
LTYPE
  5
2E
330
5
100
AcDbSymbolTableRecord
100
AcDbLinetypeTableRecord
  2
HIDDEN2
 70
     0
  3
CADPAC LINETYPE
 72
    65
 73
     2
 40
4.820936639118436
 49
2.892561983471062
 74
     0
 49
-1.928374655647374
 74
     0
  0
LTYPE
  5
2F
330
5
100
AcDbSymbolTableRecord
100
AcDbLinetypeTableRecord
  2
DASHED
 70
     0
  3
CADPAC LINETYPE
 72
    65
 73
     2
 40
4.628099173553665
 49
2.314049586776832
 74
     0
 49
-2.314049586776832
 74
     0
  0
LTYPE
  5
30
330
5
100
AcDbSymbolTableRecord
100
AcDbLinetypeTableRecord
  2
DASHED2
 70
     0
  3
CADPAC LINETYPE
 72
    65
 73
     2
 40
2.699724517906276
 49
2.314049586776832
 74
     0
 49
-0.3856749311294436
 74
     0
  0
LTYPE
  5
31
330
5
100
AcDbSymbolTableRecord
100
AcDbLinetypeTableRecord
  2
DASHEDX2
 70
     0
  3
CADPAC LINETYPE
 72
    65
 73
     2
 40
2.699724517906276
 49
2.314049586776832
 74
     0
 49
-0.3856749311294436
 74
     0
  0
LTYPE
  5
32
330
5
100
AcDbSymbolTableRecord
100
AcDbLinetypeTableRecord
  2
DOTX2
 70
     0
  3
CADPAC LINETYPE
 72
    65
 73
     2
 40
0.4820936639118045
 49
0.0
 74
     0
 49
-0.4820936639118045
 74
     0
  0
LTYPE
  5
33
330
5
100
AcDbSymbolTableRecord
100
AcDbLinetypeTableRecord
  2
DOT
 70
     0
  3
CADPAC LINETYPE
 72
    65
 73
     2
 40
0.3856749311294436
 49
0.0
 74
     0
 49
-0.3856749311294436
 74
     0
  0
LTYPE
  5
34
330
5
100
AcDbSymbolTableRecord
100
AcDbLinetypeTableRecord
  2
DOT2
 70
     0
  3
CADPAC LINETYPE
 72
    65
 73
     2
 40
0.2892561983470827
 49
0.0
 74
     0
 49
-0.2892561983470827
 74
     0
  0
LTYPE
  5
35
330
5
100
AcDbSymbolTableRecord
100
AcDbLinetypeTableRecord
  2
CENTERX2
 70
     0
  3
CADPAC LINETYPE
 72
    65
 73
     4
 40
11.57024793388425
 49
4.820936639118436
 74
     0
 49
-2.410468319559218
 74
     0
 49
1.928374655647374
 74
     0
 49
-2.410468319559218
 74
     0
  0
LTYPE
  5
36
330
5
100
AcDbSymbolTableRecord
100
AcDbLinetypeTableRecord
  2
CENTER
 70
     0
  3
CADPAC LINETYPE
 72
    65
 73
     4
 40
8.870523415977923
 49
3.856749311294749
 74
     0
 49
-1.928374655647374
 74
     0
 49
1.157024793388425
 74
     0
 49
-1.928374655647374
 74
     0
  0
LTYPE
  5
37
330
5
100
AcDbSymbolTableRecord
100
AcDbLinetypeTableRecord
  2
CENTER2
 70
     0
  3
CADPAC LINETYPE
 72
    65
 73
     4
 40
6.170798898071598
 49
2.892561983471062
 74
     0
 49
-1.446280991735531
 74
     0
 49
0.3856749311294749
 74
     0
 49
-1.446280991735531
 74
     0
  0
LTYPE
  5
38
330
5
100
AcDbSymbolTableRecord
100
AcDbLinetypeTableRecord
  2
DASHDOTX2
 70
     0
  3
CADPAC LINETYPE
 72
    65
 73
     4
 40
5.39944903581258
 49
4.628099173553693
 74
     0
 49
-0.3856749311294436
 74
     0
 49
0.0
 74
     0
 49
-0.3856749311294436
 74
     0
  0
LTYPE
  5
39
330
5
100
AcDbSymbolTableRecord
100
AcDbLinetypeTableRecord
  2
DASHDOT
 70
     0
  3
CADPAC LINETYPE
 72
    65
 73
     4
 40
6.556473829200996
 49
4.628099173553693
 74
     0
 49
-0.3856749311294436
 74
     0
 49
1.157024793388416
 74
     0
 49
-0.3856749311294436
 74
     0
  0
LTYPE
  5
3A
330
5
100
AcDbSymbolTableRecord
100
AcDbLinetypeTableRecord
  2
DASHDOT2
 70
     0
  3
CADPAC LINETYPE
 72
    65
 73
     4
 40
4.165289256198276
 49
3.47107438016527
 74
     0
 49
-0.2892561983470827
 74
     0
 49
0.1157024793388416
 74
     0
 49
-0.2892561983470827
 74
     0
  0
LTYPE
  5
3B
330
5
100
AcDbSymbolTableRecord
100
AcDbLinetypeTableRecord
  2
DIVIDEX2
 70
     0
  3
CADPAC LINETYPE
 72
    65
 73
     6
 40
5.785123966942024
 49
4.628099173553693
 74
     0
 49
-0.3856749311294436
 74
     0
 49
0.0
 74
     0
 49
-0.3856749311294436
 74
     0
 49
0.0
 74
     0
 49
-0.3856749311294436
 74
     0
  0
LTYPE
  5
3C
330
5
100
AcDbSymbolTableRecord
100
AcDbLinetypeTableRecord
  2
DIVIDE
 70
     0
  3
CADPAC LINETYPE
 72
    65
 73
     6
 40
8.099173553718856
 49
4.628099173553693
 74
     0
 49
-0.3856749311294436
 74
     0
 49
1.157024793388416
 74
     0
 49
-0.3856749311294436
 74
     0
 49
1.157024793388416
 74
     0
 49
-0.3856749311294436
 74
     0
  0
LTYPE
  5
3D
330
5
100
AcDbSymbolTableRecord
100
AcDbLinetypeTableRecord
  2
DIVIDE2
 70
     0
  3
CADPAC LINETYPE
 72
    65
 73
     6
 40
6.074380165289142
 49
3.47107438016527
 74
     0
 49
-0.2892561983470827
 74
     0
 49
0.8677685950413121
 74
     0
 49
-0.2892561983470827
 74
     0
 49
0.8677685950413121
 74
     0
 49
-0.2892561983470827
 74
     0
  0
LTYPE
  5
3E
330
5
100
AcDbSymbolTableRecord
100
AcDbLinetypeTableRecord
  2
BORDERX2
 70
     0
  3
CADPAC LINETYPE
 72
    65
 73
     6
 40
16.87327823691453
 49
4.820936639118436
 74
     0
 49
-2.410468319559218
 74
     0
 49
4.820936639118436
 74
     0
 49
-2.410468319559218
 74
     0
 49
0.0
 74
     0
 49
-2.410468319559218
 74
     0
  0
LTYPE
  5
3F
330
5
100
AcDbSymbolTableRecord
100
AcDbLinetypeTableRecord
  2
BORDER
 70
     0
  3
CADPAC LINETYPE
 72
    65
 73
     6
 40
13.49862258953162
 49
3.856749311294749
 74
     0
 49
-1.928374655647374
 74
     0
 49
3.856749311294749
 74
     0
 49
-1.928374655647374
 74
     0
 49
0.0
 74
     0
 49
-1.928374655647374
 74
     0
  0
LTYPE
  5
40
330
5
100
AcDbSymbolTableRecord
100
AcDbLinetypeTableRecord
  2
BORDER2
 70
     0
  3
CADPAC LINETYPE
 72
    65
 73
     6
 40
5.013774104683094
 49
2.314049586776832
 74
     0
 49
-0.3856749311294436
 74
     0
 49
0.0
 74
     0
 49
-0.3856749311294436
 74
     0
 49
0.0
 74
     0
 49
-1.928374655647374
 74
     0
  0
LTYPE
  5
41
330
5
100
AcDbSymbolTableRecord
100
AcDbLinetypeTableRecord
  2
PHANTOMX2
 70
     0
  3
CADPAC LINETYPE
 72
    65
 73
     6
 40
14.46280991735531
 49
4.820936639118436
 74
     0
 49
-1.928374655647374
 74
     0
 49
1.928374655647374
 74
     0
 49
-1.928374655647374
 74
     0
 49
1.928374655647374
 74
     0
 49
-1.928374655647374
 74
     0
  0
LTYPE
  5
42
330
5
100
AcDbSymbolTableRecord
100
AcDbLinetypeTableRecord
  2
PHANTOM
 70
     0
  3
CADPAC LINETYPE
 72
    65
 73
     6
 40
11.95592286501372
 49
3.856749311294749
 74
     0
 49
-1.928374655647374
 74
     0
 49
1.157024793388425
 74
     0
 49
-1.928374655647374
 74
     0
 49
1.157024793388425
 74
     0
 49
-1.928374655647374
 74
     0
  0
LTYPE
  5
43
330
5
100
AcDbSymbolTableRecord
100
AcDbLinetypeTableRecord
  2
PHANTOM2
 70
     0
  3
CADPAC LINETYPE
 72
    65
 73
     6
 40
10.22038567493108
 49
2.892561983471062
 74
     0
 49
-1.928374655647374
 74
     0
 49
0.7713498622589499
 74
     0
 49
-1.928374655647374
 74
     0
 49
0.7713498622589499
 74
     0
 49
-1.928374655647374
 74
     0
  0
LTYPE
  5
44
330
5
100
AcDbSymbolTableRecord
100
AcDbLinetypeTableRecord
  2
ACAD_ISO06W100
 70
     0
  3
CADPAC LINETYPE
 72
    65
 73
     8
 40
6.170798898071467
 49
4.628099173553693
 74
     0
 49
-0.3856749311294436
 74
     0
 49
0.0
 74
     0
 49
-0.3856749311294436
 74
     0
 49
0.0
 74
     0
 49
-0.3856749311294436
 74
     0
 49
0.0
 74
     0
 49
-0.3856749311294436
 74
     0
  0
LTYPE
  5
45
330
5
100
AcDbSymbolTableRecord
100
AcDbLinetypeTableRecord
  2
ACAD_ISO13W100
 70
     0
  3
CADPAC LINETYPE
 72
    65
 73
     8
 40
15.426997245179
 49
3.856749311294749
 74
     0
 49
-1.928374655647374
 74
     0
 49
3.856749311294749
 74
     0
 49
-1.928374655647374
 74
     0
 49
0.0
 74
     0
 49
-1.928374655647374
 74
     0
 49
0.0
 74
     0
 49
-1.928374655647374
 74
     0
  0
LTYPE
  5
46
330
5
100
AcDbSymbolTableRecord
100
AcDbLinetypeTableRecord
  2
ACAD_ISO14W100
 70
     0
  3
CADPAC LINETYPE
 72
    65
 73
     8
 40
11.57024793388425
 49
3.856749311294749
 74
     0
 49
-1.928374655647374
 74
     0
 49
0.0
 74
     0
 49
-1.928374655647374
 74
     0
 49
0.0
 74
     0
 49
-1.928374655647374
 74
     0
 49
0.0
 74
     0
 49
-1.928374655647374
 74
     0
  0
ENDTAB
  0
TABLE
  2
LAYER
  5
2
330
0
100
AcDbSymbolTable
 70
     1
  0
LAYER
  5
10
330
2
100
AcDbSymbolTableRecord
100
AcDbLayerTableRecord
  2
0
 70
     0
 62
     7
  6
CONTINUOUS
  0
ENDTAB
  0
TABLE
  2
STYLE
  5
3
330
0
100
AcDbSymbolTable
 70
     2
  0
STYLE
  5
11
330
3
100
AcDbSymbolTableRecord
100
AcDbTextStyleTableRecord
  2
STANDARD
 70
     0
 40
0.0
 41
1.0
 50
0.0
 71
     0
 42
0.2
  3
txt
  4

  0
STYLE
  5
1B5
330
3
100
AcDbSymbolTableRecord
100
AcDbTextStyleTableRecord
  2
FDASTYLE0
 70
     0
 40
4.150000095367432
 41
0.6600000138340222
 50
0.0
 71
     0
 42
0.2
  3
txt.shx
  4
bigfont
  0
ENDTAB
  0
TABLE
  2
VIEW
  5
6
330
0
100
AcDbSymbolTable
 70
     0
  0
ENDTAB
  0
TABLE
  2
UCS
  5
7
330
0
100
AcDbSymbolTable
 70
     0
  0
ENDTAB
  0
TABLE
  2
APPID
  5
9
330
0
100
AcDbSymbolTable
 70
     2
  0
APPID
  5
12
330
9
100
AcDbSymbolTableRecord
100
AcDbRegAppTableRecord
  2
ACAD
 70
     0
  0
APPID
  5
2A
330
9
100
AcDbSymbolTableRecord
100
AcDbRegAppTableRecord
  2
DAFUSIONOUT
 70
     0
  0
ENDTAB
  0
TABLE
  2
DIMSTYLE
  5
A
330
0
100
AcDbSymbolTable
 70
     1
  0
DIMSTYLE
105
27
330
A
100
AcDbSymbolTableRecord
100
AcDbDimStyleTableRecord
  2
STANDARD
 70
     0
  3

  4

  5

  6

  7

 40
1.0
 41
0.18
 42
0.0625
 43
0.38
 44
0.18
 45
0.0
 46
0.0
 47
0.0
 48
0.0
140
0.18
141
0.09
142
0.0
143
25.4
144
1.0
145
0.0
146
1.0
147
0.09
 71
     0
 72
     0
 73
     1
 74
     1
 75
     0
 76
     0
 77
     0
 78
     0
170
     0
171
     2
172
     0
173
     0
174
     0
175
     0
176
     0
177
     0
178
     0
270
     2
271
     4
272
     4
273
     2
274
     2
340
11
275
     0
280
     0
281
     0
282
     0
283
     1
284
     0
285
     0
286
     0
287
     3
288
     0
  0
ENDTAB
  0
TABLE
  2
BLOCK_RECORD
  5
1
330
0
100
AcDbSymbolTable
 70
     1
  0
BLOCK_RECORD
  5
1F
330
1
100
AcDbSymbolTableRecord
100
AcDbBlockTableRecord
  2
*MODEL_SPACE
  0
BLOCK_RECORD
  5
1B
330
1
100
AcDbSymbolTableRecord
100
AcDbBlockTableRecord
  2
*PAPER_SPACE
  0
ENDTAB
  0
ENDSEC
  0
SECTION
  2
BLOCKS
  0
BLOCK
  5
20
330
1F
100
AcDbEntity
  8
0
100
AcDbBlockBegin
  2
*MODEL_SPACE
 70
     0
 71
     0
 10
0.0
 20
0.0
 30
0.0
  3
*MODEL_SPACE
  1

  0
ENDBLK
  5
21
330
1F
100
AcDbEntity
  8
0
100
AcDbBlockEnd
  0
BLOCK
  5
1C
330
1B
100
AcDbEntity
 67
     1
  8
0
100
AcDbBlockBegin
  2
*PAPER_SPACE
 70
     0
 71
     0
 10
0.0
 20
0.0
 30
0.0
  3
*PAPER_SPACE
  1

  0
ENDBLK
  5
1D
330
1B
100
AcDbEntity
 67
     1
  8
0
100
AcDbBlockEnd
  0
ENDSEC
  0
SECTION
  2
ENTITIES
  0
LINE
  5
47
330
1F
100
AcDbEntity
  8
0
 62
     7
100
AcDbLine
 10
100.6086922731846
 20
12.099324271699
 30
0.0
 11
98.69994773055609
 21
13.25319291475171
 31
0.0
  0
LINE
  5
48
330
1F
100
AcDbEntity
  8
0
 62
     7
100
AcDbLine
 10
105.9172250957406
 20
17.88533382438354
 30
0.0
 11
106.8788583735484
 21
13.98384813590013
 31
0.0
  0
LINE
  5
49
330
1F
100
AcDbEntity
  8
0
 62
     7
100
AcDbLine
 10
107.2504682033171
 20
22.50467764795954
 30
0.0
 11
107.3701264369588
 21
22.01920683820694
 31
0.0
  0
LINE
  5
4A
330
1F
100
AcDbEntity
  8
0
 62
     7
100
AcDbLine
 10
108.0865222573522
 20
14.63925692600728
 30
0.0
 11
106.9326455178344
 21
16.54799657416106
 31
0.0
  0
LINE
  5
4B
330
1F
100
AcDbEntity
  8
0
 62
     7
100
AcDbLine
 10
115.476099349449
 20
17.29540393632814
 30
0.0
 11
114.5144693566483
 21
13.39390172271217
 31
0.0
  0
LINE
  5
4C
330
1F
100
AcDbEntity
  8
0
 62
     7
100
AcDbLine
 10
118.8033542365163
 20
20.76605419522929
 30
0.0
 11
118.6836968660192
 21
20.28058317273079
 31
0.0
  0
LINE
  5
4D
330
1F
100
AcDbEntity
  8
0
 62
     7
100
AcDbLine
 10
115.8881373630281
 20
13.41311852789664
 30
0.0
 11
115.7534654900026
 21
15.63945679084105
 31
0.0
  0
LINE
  5
4E
330
1F
100
AcDbEntity
  8
0
 62
     7
100
AcDbLine
 10
123.6656569532781
 20
12.3309094781838
 30
0.0
 11
121.0010577924961
 21
9.323192224474013
 31
0.0
  0
LINE
  5
4F
330
1F
100
AcDbEntity
  8
0
 62
     7
100
AcDbLine
 10
128.224681179427
 20
13.85776010595245
 30
0.0
 11
127.893120255376
 21
13.48350437300704
 31
0.0
  0
LINE
  5
50
330
1F
100
AcDbEntity
  8
0
 62
     7
100
AcDbLine
 10
122.2263156797774
 20
8.701839855642106
 30
0.0
 11
123.1417003693454
 21
10.7357497466007
 31
0.0
  0
LINE
  5
51
330
1F
100
AcDbEntity
  8
0
 62
     7
100
AcDbLine
 10
128.6100498216416
 20
4.129184178379632
 30
0.0
 11
124.8529087350265
 21
2.704283262114728
 31
0.0
  0
LINE
  5
52
330
1F
100
AcDbEntity
  8
0
 62
     7
100
AcDbLine
 10
133.3564140006311
 20
3.362454319239987
 30
0.0
 11
132.8889060959517
 21
3.185151304425887
 31
0.0
  0
LINE
  5
53
330
1F
100
AcDbEntity
  8
0
 62
     7
100
AcDbLine
 10
125.649052186262
 20
1.584706307276605
 30
0.0
 11
127.4047899329832
 21
2.960243852810208
 31
0.0
  0
LINE
  5
54
330
1F
100
AcDbEntity
  8
0
 62
     7
100
AcDbLine
 10
129.1765369785402
 20
-5.430885604704031
 30
0.0
 11
125.1875692228456
 21
-4.946542740677842
 31
0.0
  0
LINE
  5
55
330
1F
100
AcDbEntity
  8
0
 62
     7
100
AcDbLine
 10
133.0229282637588
 20
-8.315506682623095
 30
0.0
 11
132.5265737446425
 21
-8.255239018384032
 31
0.0
  0
LINE
  5
56
330
1F
100
AcDbEntity
  8
0
 62
     7
100
AcDbLine
 10
125.372235768961
 20
-6.307845848815134
 30
0.0
 11
127.5661084492109
 21
-5.905799536448427
 31
0.0
  0
LINE
  5
57
330
1F
100
AcDbEntity
  8
0
 62
     7
100
AcDbLine
 10
125.2353508784664
 20
-14.1591293548953
 30
0.0
 11
121.9283929388623
 21
-11.87650842181921
 31
0.0
  0
LINE
  5
58
330
1F
100
AcDbEntity
  8
0
 62
     7
100
AcDbLine
 10
127.3006028909198
 20
-18.50085390264599
 30
0.0
 11
126.8891105321253
 21
-18.21682214622831
 31
0.0
  0
LINE
  5
59
330
1F
100
AcDbEntity
  8
0
 62
     7
100
AcDbLine
 10
121.4592712016053
 20
-13.1677140447232
 30
0.0
 11
123.588689318382
 21
-13.8312628811907
 31
0.0
  0
LINE
  5
5A
330
1F
100
AcDbEntity
  8
0
 62
     7
100
AcDbLine
 10
117.6893916193152
 20
-20.05604739539754
 30
0.0
 11
115.8220121791871
 21
-16.49806718676584
 31
0.0
  0
LINE
  5
5B
330
1F
100
AcDbEntity
  8
0
 62
     7
100
AcDbLine
 10
117.500382057174
 20
-24.86022404794719
 30
0.0
 11
117.2680197518117
 21
-24.41749641266028
 31
0.0
  0
LINE
  5
5C
330
1F
100
AcDbEntity
  8
0
 62
     7
100
AcDbLine
 10
114.8065562349117
 20
-17.42336143730594
 30
0.0
 11
116.3836960449229
 21
-19.000494467241
 31
0.0
  0
LINE
  5
5D
330
1F
100
AcDbEntity
  8
0
 62
     7
100
AcDbLine
 10
108.2676162719727
 20
-21.7707366943359
 30
0.0
 11
108.2676162719727
 21
-17.75248718261719
 31
0.0
  0
LINE
  5
5E
330
1F
100
AcDbEntity
  8
0
 62
     7
100
AcDbLine
 10
105.8676376342773
 20
-25.93678283691411
 30
0.0
 11
105.8676376342773
 21
-25.43678283691411
 31
0.0
  0
LINE
  5
5F
330
1F
100
AcDbEntity
  8
0
 62
     7
100
AcDbLine
 10
106.9381919664538
 20
-18.09987598893792
 30
0.0
 11
107.601749957037
 21
-20.2292912531754
 31
0.0
  0
LINE
  5
60
330
1F
100
AcDbEntity
  8
0
 62
     7
100
AcDbLine
 10
99.12792738398838
 20
-18.91049058215657
 30
0.0
 11
100.9952987892734
 21
-15.35251046468036
 31
0.0
  0
LINE
  5
61
330
1F
100
AcDbEntity
  8
0
 62
     7
100
AcDbLine
 10
95.0667769509741
 20
-21.48401577040659
 30
0.0
 11
95.2991384771333
 21
-21.04128772616159
 31
0.0
  0
LINE
  5
62
330
1F
100
AcDbEntity
  8
0
 62
     7
100
AcDbLine
 10
99.6567258413919
 20
-15.04229129123431
 30
0.0
 11
99.2546889355345
 21
-17.23616569528829
 31
0.0
  0
LINE
  5
63
330
1F
100
AcDbEntity
  8
0
 62
     7
100
AcDbLine
 10
92.36433393136137
 20
-12.13044233421167
 30
0.0
 11
95.67128461835847
 21
-9.847817609163684
 31
0.0
  0
LINE
  5
64
330
1F
100
AcDbEntity
  8
0
 62
     7
100
AcDbLine
 10
87.57240203294009
 20
-12.5218840340562
 30
0.0
 11
87.98389387992309
 21
-12.23785153615049
 31
0.0
  0
LINE
  5
65
330
1F
100
AcDbEntity
  8
0
 62
     7
100
AcDbLine
 10
94.63022533030176
 20
-8.951083053679469
 30
0.0
 11
93.25469532012278
 21
-10.70682670396886
 31
0.0
  0
LINE
  5
66
330
1F
100
AcDbEntity
  8
0
 62
     7
100
AcDbLine
 10
89.52632890891611
 20
-2.983818353816417
 30
0.0
 11
93.51528064687241
 21
-2.499470162240328
 31
0.0
  0
LINE
  5
67
330
1F
100
AcDbEntity
  8
0
 62
     7
100
AcDbLine
 10
85.10137165776045
 20
-1.103501558983737
 30
0.0
 11
85.59772606859575
 21
-1.043233002966531
 31
0.0
  0
LINE
  5
68
330
1F
100
AcDbEntity
  8
0
 62
     7
100
AcDbLine
 10
93.01020581000157
 20
-1.221652059713279
 30
0.0
 11
90.97629982487146
 21
-2.137045427663082
 31
0.0
  0
LINE
  5
69
330
1F
100
AcDbEntity
  8
0
 62
     7
100
AcDbLine
 10
91.26404118864912
 20
6.433992761795054
 30
0.0
 11
95.0211705628497
 21
5.009103992821565
 31
0.0
  0
LINE
  5
6A
330
1F
100
AcDbEntity
  8
0
 62
     7
100
AcDbLine
 10
88.21976240649489
 20
10.15531035372544
 30
0.0
 11
88.68727062907341
 21
9.978008177141135
 31
0.0
  0
LINE
  5
6B
330
1F
100
AcDbEntity
  8
0
 62
     7
100
AcDbLine
 10
95.16779445688522
 20
6.37527491587926
 30
0.0
 11
92.94145561911802
 21
6.509937285840778
 31
0.0
  0
LINE
  5
6C
330
1F
100
AcDbEntity
  8
0
 62
     7
100
AcDbLine
 10
97.17938422065129
 20
13.96550367162311
 30
0.0
 11
99.84397859273081
 21
10.95780256102211
 31
0.0
  0
LINE
  5
6D
330
1F
100
AcDbEntity
  8
0
 62
     7
100
AcDbLine
 10
96.2131883302595
 20
18.67531100467878
 30
0.0
 11
96.54474991750149
 21
18.3010558592691
 31
0.0
  0
LINE
  5
6E
330
1F
100
AcDbEntity
  8
0
 62
     7
100
AcDbLine
 10
-10.5
 20
-26.25
 30
0.0
 11
-20.1000061035156
 21
-26.25
 31
0.0
  0
LINE
  5
6F
330
1F
100
AcDbEntity
  8
0
 62
     7
100
AcDbLine
 10
-22.1000061035156
 20
-24.25
 30
0.0
 11
-22.1000061035156
 21
-1.800003051757813
 31
0.0
  0
LINE
  5
70
330
1F
100
AcDbEntity
  8
0
 62
     7
100
AcDbLine
 10
-22.6000061035156
 20
-1.800003051757813
 30
0.0
 11
-22.6000061035156
 21
-17.80000305175781
 31
0.0
  0
LINE
  5
71
330
1F
100
AcDbEntity
  8
0
 62
     7
100
AcDbLine
 10
-22.6000061035156
 20
-17.80000305175781
 30
0.0
 11
-32.30000305175781
 21
-17.80000305175781
 31
0.0
  0
LINE
  5
72
330
1F
100
AcDbEntity
  8
0
 62
     7
100
AcDbLine
 10
-33.5
 20
-16.6000061035156
 30
0.0
 11
-33.5
 21
-1.800003051757813
 31
0.0
  0
LINE
  5
73
330
1F
100
AcDbEntity
  8
0
 62
     7
100
AcDbLine
 10
-22.6000061035156
 20
-15.80000305175781
 30
0.0
 11
-22.1000061035156
 21
-15.80000305175781
 31
0.0
  0
LINE
  5
74
330
1F
100
AcDbEntity
  8
0
 62
     7
100
AcDbLine
 10
-32.30001213032506
 20
-17.8000197783536
 30
0.0
 11
-33.50000910893238
 21
-16.60002279974628
 31
0.0
  0
LINE
  5
75
330
1F
100
AcDbEntity
  8
0
 62
     7
100
AcDbLine
 10
-32.3000183105469
 20
-1.800003051757813
 30
0.0
 11
-32.3000183105469
 21
-17.8000183105469
 31
0.0
  0
LINE
  5
76
330
1F
100
AcDbEntity
  8
0
 62
     7
100
AcDbLine
 10
-10.5
 20
-12.5218811035156
 30
0.0
 11
-11.80000305175781
 21
-12.5218811035156
 31
0.0
  0
LINE
  5
77
330
1F
100
AcDbEntity
  8
0
 62
     7
100
AcDbLine
 10
-10.5
 20
-21.48402404785161
 30
0.0
 11
-11.80000305175781
 21
-21.48402404785161
 31
0.0
  0
LINE
  5
78
330
1F
100
AcDbEntity
  8
0
 62
     7
100
AcDbLine
 10
-10.5
 20
-25.9367980957031
 30
0.0
 11
-11.80000305175781
 21
-25.9367980957031
 31
0.0
  0
LINE
  5
79
330
1F
100
AcDbEntity
  8
0
 62
     7
100
AcDbLine
 10
-11.80000305175781
 20
-9.721878051757813
 30
0.0
 11
-19.5
 21
-9.721878051757813
 31
0.0
  0
LINE
  5
7A
330
1F
100
AcDbEntity
  8
0
 62
     7
100
AcDbLine
 10
-19.5
 20
-9.721878051757813
 30
0.0
 11
-19.5
 21
-12.5218811035156
 31
0.0
  0
LINE
  5
7B
330
1F
100
AcDbEntity
  8
0
 62
     7
100
AcDbLine
 10
-11.80000305175781
 20
-9.721878051757813
 30
0.0
 11
-11.80000305175781
 21
-12.5218811035156
 31
0.0
  0
LINE
  5
7C
330
1F
100
AcDbEntity
  8
0
 62
     7
100
AcDbLine
 10
-11.80000305175781
 20
-19.68402099609369
 30
0.0
 11
-19.5
 21
-19.68402099609369
 31
0.0
  0
LINE
  5
7D
330
1F
100
AcDbEntity
  8
0
 62
     7
100
AcDbLine
 10
-19.5
 20
-19.68402099609369
 30
0.0
 11
-19.5
 21
-21.48402404785161
 31
0.0
  0
LINE
  5
7E
330
1F
100
AcDbEntity
  8
0
 62
     7
100
AcDbLine
 10
-11.80000305175781
 20
-19.68402099609369
 30
0.0
 11
-11.80000305175781
 21
-21.48402404785161
 31
0.0
  0
LINE
  5
7F
330
1F
100
AcDbEntity
  8
0
 62
     7
100
AcDbLine
 10
-11.80000305175781
 20
-24.9367980957031
 30
0.0
 11
-11.80000305175781
 21
-25.9367980957031
 31
0.0
  0
LINE
  5
80
330
1F
100
AcDbEntity
  8
0
 62
     7
100
AcDbLine
 10
-19.5
 20
-24.9367980957031
 30
0.0
 11
-11.80000305175781
 21
-24.9367980957031
 31
0.0
  0
LINE
  5
81
330
1F
100
AcDbEntity
  8
0
 62
     7
100
AcDbLine
 10
-19.5
 20
-25.9367980957031
 30
0.0
 11
-19.5
 21
-24.9367980957031
 31
0.0
  0
LINE
  5
82
330
1F
100
AcDbEntity
  8
0
 62
     7
100
AcDbLine
 10
-19.5
 20
-12.5218811035156
 30
0.0
 11
-20.80000305175781
 21
-12.5218811035156
 31
0.0
  0
LINE
  5
83
330
1F
100
AcDbEntity
  8
0
 62
     7
100
AcDbLine
 10
-19.5
 20
-21.48402404785161
 30
0.0
 11
-20.80000305175781
 21
-21.48402404785161
 31
0.0
  0
LINE
  5
84
330
1F
100
AcDbEntity
  8
0
 62
     7
100
AcDbLine
 10
-19.5
 20
-25.9367980957031
 30
0.0
 11
-20.80000305175781
 21
-25.9367980957031
 31
0.0
  0
LINE
  5
85
330
1F
100
AcDbEntity
  8
0
 62
     7
100
AcDbLine
 10
-10.5
 20
-26.25
 30
0.0
 11
-0.8999938964844034
 21
-26.25
 31
0.0
  0
LINE
  5
86
330
1F
100
AcDbEntity
  8
0
 62
     7
100
AcDbLine
 10
1.100006103515597
 20
-24.25
 30
0.0
 11
1.100006103515597
 21
-1.800003051757813
 31
0.0
  0
LINE
  5
87
330
1F
100
AcDbEntity
  8
0
 62
     7
100
AcDbLine
 10
1.600006103515597
 20
-1.800003051757813
 30
0.0
 11
1.600006103515597
 21
-17.80000305175781
 31
0.0
  0
LINE
  5
88
330
1F
100
AcDbEntity
  8
0
 62
     7
100
AcDbLine
 10
1.600006103515597
 20
-17.80000305175781
 30
0.0
 11
11.30000305175781
 21
-17.80000305175781
 31
0.0
  0
LINE
  5
89
330
1F
100
AcDbEntity
  8
0
 62
     7
100
AcDbLine
 10
12.5
 20
-16.6000061035156
 30
0.0
 11
12.5
 21
-1.800003051757813
 31
0.0
  0
LINE
  5
8A
330
1F
100
AcDbEntity
  8
0
 62
     7
100
AcDbLine
 10
1.600006103515597
 20
-15.80000305175781
 30
0.0
 11
1.100006103515597
 21
-15.80000305175781
 31
0.0
  0
LINE
  5
8B
330
1F
100
AcDbEntity
  8
0
 62
     7
100
AcDbLine
 10
11.30000307186026
 20
-17.80001708095531
 30
0.0
 11
12.50000005046746
 21
-16.600020102348
 31
0.0
  0
LINE
  5
8C
330
1F
100
AcDbEntity
  8
0
 62
     7
100
AcDbLine
 10
11.3000183105469
 20
-1.800003051757813
 30
0.0
 11
11.3000183105469
 21
-17.8000183105469
 31
0.0
  0
LINE
  5
8D
330
1F
100
AcDbEntity
  8
0
 62
     7
100
AcDbLine
 10
-10.5
 20
-12.5218811035156
 30
0.0
 11
-9.199996948242188
 21
-12.5218811035156
 31
0.0
  0
LINE
  5
8E
330
1F
100
AcDbEntity
  8
0
 62
     7
100
AcDbLine
 10
-10.5
 20
-21.48402404785161
 30
0.0
 11
-9.199996948242188
 21
-21.48402404785161
 31
0.0
  0
LINE
  5
8F
330
1F
100
AcDbEntity
  8
0
 62
     7
100
AcDbLine
 10
-10.5
 20
-25.9367980957031
 30
0.0
 11
-9.199996948242188
 21
-25.9367980957031
 31
0.0
  0
LINE
  5
90
330
1F
100
AcDbEntity
  8
0
 62
     7
100
AcDbLine
 10
-9.199996948242188
 20
-9.721878051757813
 30
0.0
 11
-1.5
 21
-9.721878051757813
 31
0.0
  0
LINE
  5
91
330
1F
100
AcDbEntity
  8
0
 62
     7
100
AcDbLine
 10
-1.5
 20
-9.721878051757813
 30
0.0
 11
-1.5
 21
-12.5218811035156
 31
0.0
  0
LINE
  5
92
330
1F
100
AcDbEntity
  8
0
 62
     7
100
AcDbLine
 10
-9.199996948242188
 20
-9.721878051757813
 30
0.0
 11
-9.199996948242188
 21
-12.5218811035156
 31
0.0
  0
LINE
  5
93
330
1F
100
AcDbEntity
  8
0
 62
     7
100
AcDbLine
 10
-9.199996948242188
 20
-19.68402099609369
 30
0.0
 11
-1.5
 21
-19.68402099609369
 31
0.0
  0
LINE
  5
94
330
1F
100
AcDbEntity
  8
0
 62
     7
100
AcDbLine
 10
-1.5
 20
-19.68402099609369
 30
0.0
 11
-1.5
 21
-21.48402404785161
 31
0.0
  0
LINE
  5
95
330
1F
100
AcDbEntity
  8
0
 62
     7
100
AcDbLine
 10
-9.199996948242188
 20
-19.68402099609369
 30
0.0
 11
-9.199996948242188
 21
-21.48402404785161
 31
0.0
  0
LINE
  5
96
330
1F
100
AcDbEntity
  8
0
 62
     7
100
AcDbLine
 10
-9.199996948242188
 20
-24.9367980957031
 30
0.0
 11
-9.199996948242188
 21
-25.9367980957031
 31
0.0
  0
LINE
  5
97
330
1F
100
AcDbEntity
  8
0
 62
     7
100
AcDbLine
 10
-1.5
 20
-24.9367980957031
 30
0.0
 11
-9.199996948242188
 21
-24.9367980957031
 31
0.0
  0
LINE
  5
98
330
1F
100
AcDbEntity
  8
0
 62
     7
100
AcDbLine
 10
-1.5
 20
-25.9367980957031
 30
0.0
 11
-1.5
 21
-24.9367980957031
 31
0.0
  0
LINE
  5
99
330
1F
100
AcDbEntity
  8
0
 62
     7
100
AcDbLine
 10
-1.5
 20
-12.5218811035156
 30
0.0
 11
-0.1999969482421875
 21
-12.5218811035156
 31
0.0
  0
LINE
  5
9A
330
1F
100
AcDbEntity
  8
0
 62
     7
100
AcDbLine
 10
-1.5
 20
-21.48402404785161
 30
0.0
 11
-0.1999969482421875
 21
-21.48402404785161
 31
0.0
  0
LINE
  5
9B
330
1F
100
AcDbEntity
  8
0
 62
     7
100
AcDbLine
 10
-1.5
 20
-25.9367980957031
 30
0.0
 11
-0.1999969482421875
 21
-25.9367980957031
 31
0.0
  0
LINE
  5
9C
330
1F
100
AcDbEntity
  8
0
 62
     7
100
AcDbLine
 10
-20.1000061035156
 20
22.6499938964844
 30
0.0
 11
-0.8999938964844034
 21
22.6499938964844
 31
0.0
  0
LINE
  5
9D
330
1F
100
AcDbEntity
  8
0
 62
     7
100
AcDbLine
 10
1.100006103515597
 20
20.6499938964844
 30
0.0
 11
1.100006103515597
 21
19.29997253417969
 31
0.0
  0
LINE
  5
9E
330
1F
100
AcDbEntity
  8
0
 62
     7
100
AcDbLine
 10
-22.1000061035156
 20
20.6499938964844
 30
0.0
 11
-22.1000061035156
 21
19.2999572753906
 31
0.0
  0
LINE
  5
9F
330
1F
100
AcDbEntity
  8
0
 62
     7
100
AcDbLine
 10
-18.03999328613281
 20
14.09999084472659
 30
0.0
 11
-22.1000061035156
 21
14.09999084472659
 31
0.0
  0
LINE
  5
A0
330
1F
100
AcDbEntity
  8
0
 62
     7
100
AcDbLine
 10
-2.960006713867188
 20
14.09999084472659
 30
0.0
 11
1.100006103515597
 21
14.09999084472659
 31
0.0
  0
LINE
  5
A1
330
1F
100
AcDbEntity
  8
0
 62
     7
100
AcDbLine
 10
-13.25999450683591
 20
14.09999084472659
 30
0.0
 11
-7.740005493164091
 21
14.09999084472659
 31
0.0
  0
LINE
  5
A2
330
1F
100
AcDbEntity
  8
0
 62
     7
100
AcDbLine
 10
-22.05000305175781
 20
19.34999084472659
 30
0.0
 11
-14.06578063964841
 21
19.34999084472659
 31
0.0
  0
LINE
  5
A3
330
1F
100
AcDbEntity
  8
0
 62
     7
100
AcDbLine
 10
-14.49999995169361
 20
18.09999910096101
 30
0.0
 11
-14.0000019555151
 21
18.39261791025399
 31
0.0
  0
LINE
  5
A4
330
1F
100
AcDbEntity
  8
0
 62
     7
100
AcDbLine
 10
-14.0
 20
18.3926086425781
 30
0.0
 11
-12.15000915527341
 21
18.3926086425781
 31
0.0
  0
LINE
  5
A5
330
1F
100
AcDbEntity
  8
0
 62
     7
100
AcDbLine
 10
-12.1499938964844
 20
18.3926086425781
 30
0.0
 11
-12.1499938964844
 21
18.09999084472659
 31
0.0
  0
LINE
  5
A6
330
1F
100
AcDbEntity
  8
0
 62
     7
100
AcDbLine
 10
-14.0
 20
19.3879699707031
 30
0.0
 11
-12.15000915527341
 21
19.3879699707031
 31
0.0
  0
LINE
  5
A7
330
1F
100
AcDbEntity
  8
0
 62
     7
100
AcDbLine
 10
-12.1499938964844
 20
19.3879699707031
 30
0.0
 11
-12.1499938964844
 21
19.34999084472659
 31
0.0
  0
LINE
  5
A8
330
1F
100
AcDbEntity
  8
0
 62
     7
100
AcDbLine
 10
-14.06580385146773
 20
19.35000345157636
 30
0.0
 11
-14.00002207383233
 21
19.38798257440595
 31
0.0
  0
LINE
  5
A9
330
1F
100
AcDbEntity
  8
0
 62
     7
100
AcDbLine
 10
-12.15000915527341
 20
19.34999084472659
 30
0.0
 11
-10.5
 21
19.34999084472659
 31
0.0
  0
LINE
  5
AA
330
1F
100
AcDbEntity
  8
0
 62
     7
100
AcDbLine
 10
-22.05000305175781
 20
16.84999084472659
 30
0.0
 11
-14.06578063964841
 21
16.84999084472659
 31
0.0
  0
LINE
  5
AB
330
1F
100
AcDbEntity
  8
0
 62
     7
100
AcDbLine
 10
-14.50000820333676
 20
18.1000105069779
 30
0.0
 11
-14.00002339148944
 21
17.80739937915257
 31
0.0
  0
LINE
  5
AC
330
1F
100
AcDbEntity
  8
0
 62
     7
100
AcDbLine
 10
-14.0
 20
17.807373046875
 30
0.0
 11
-12.15000915527341
 21
17.807373046875
 31
0.0
  0
LINE
  5
AD
330
1F
100
AcDbEntity
  8
0
 62
     7
100
AcDbLine
 10
-12.1499938964844
 20
17.807373046875
 30
0.0
 11
-12.1499938964844
 21
18.09999084472659
 31
0.0
  0
LINE
  5
AE
330
1F
100
AcDbEntity
  8
0
 62
     7
100
AcDbLine
 10
-14.0
 20
16.81201171875
 30
0.0
 11
-12.15000915527341
 21
16.81201171875
 31
0.0
  0
LINE
  5
AF
330
1F
100
AcDbEntity
  8
0
 62
     7
100
AcDbLine
 10
-12.1499938964844
 20
16.81201171875
 30
0.0
 11
-12.1499938964844
 21
16.84999084472659
 31
0.0
  0
LINE
  5
B0
330
1F
100
AcDbEntity
  8
0
 62
     7
100
AcDbLine
 10
-14.06576081178159
 20
16.84997144223667
 30
0.0
 11
-14.00000545515465
 21
16.81200759203432
 31
0.0
  0
LINE
  5
B1
330
1F
100
AcDbEntity
  8
0
 62
     7
100
AcDbLine
 10
-12.15000915527341
 20
16.84999084472659
 30
0.0
 11
-10.5
 21
16.84999084472659
 31
0.0
  0
LINE
  5
B2
330
1F
100
AcDbEntity
  8
0
 62
     7
100
AcDbLine
 10
-21.80000305175781
 20
16.84999084472659
 30
0.0
 11
-14.06578063964841
 21
16.84999084472659
 31
0.0
  0
LINE
  5
B3
330
1F
100
AcDbEntity
  8
0
 62
     7
100
AcDbLine
 10
-14.50000820333676
 20
18.1000105069779
 30
0.0
 11
-14.00002339148944
 21
17.80739937915257
 31
0.0
  0
LINE
  5
B4
330
1F
100
AcDbEntity
  8
0
 62
     7
100
AcDbLine
 10
-14.0
 20
17.807373046875
 30
0.0
 11
-12.15000915527341
 21
17.807373046875
 31
0.0
  0
LINE
  5
B5
330
1F
100
AcDbEntity
  8
0
 62
     7
100
AcDbLine
 10
-12.1499938964844
 20
17.807373046875
 30
0.0
 11
-12.1499938964844
 21
18.09999084472659
 31
0.0
  0
LINE
  5
B6
330
1F
100
AcDbEntity
  8
0
 62
     7
100
AcDbLine
 10
-14.0
 20
16.81201171875
 30
0.0
 11
-12.15000915527341
 21
16.81201171875
 31
0.0
  0
LINE
  5
B7
330
1F
100
AcDbEntity
  8
0
 62
     7
100
AcDbLine
 10
-12.1499938964844
 20
16.81201171875
 30
0.0
 11
-12.1499938964844
 21
16.84999084472659
 31
0.0
  0
LINE
  5
B8
330
1F
100
AcDbEntity
  8
0
 62
     7
100
AcDbLine
 10
-14.06576081178159
 20
16.84997144223667
 30
0.0
 11
-14.00000545515465
 21
16.81200759203432
 31
0.0
  0
LINE
  5
B9
330
1F
100
AcDbEntity
  8
0
 62
     7
100
AcDbLine
 10
-12.15000915527341
 20
16.84999084472659
 30
0.0
 11
-10.5
 21
16.84999084472659
 31
0.0
  0
LINE
  5
BA
330
1F
100
AcDbEntity
  8
0
 62
     7
100
AcDbLine
 10
-21.80000305175781
 20
19.34999084472659
 30
0.0
 11
-14.06578063964841
 21
19.34999084472659
 31
0.0
  0
LINE
  5
BB
330
1F
100
AcDbEntity
  8
0
 62
     7
100
AcDbLine
 10
-14.50001928887821
 20
18.09999814067498
 30
0.0
 11
-14.00002126883697
 21
18.39261690919378
 31
0.0
  0
LINE
  5
BC
330
1F
100
AcDbEntity
  8
0
 62
     7
100
AcDbLine
 10
-14.0
 20
18.3926086425781
 30
0.0
 11
-12.15000915527341
 21
18.3926086425781
 31
0.0
  0
LINE
  5
BD
330
1F
100
AcDbEntity
  8
0
 62
     7
100
AcDbLine
 10
-12.1499938964844
 20
18.3926086425781
 30
0.0
 11
-12.1499938964844
 21
18.09999084472659
 31
0.0
  0
LINE
  5
BE
330
1F
100
AcDbEntity
  8
0
 62
     7
100
AcDbLine
 10
-14.0
 20
19.3879699707031
 30
0.0
 11
-12.15000915527341
 21
19.3879699707031
 31
0.0
  0
LINE
  5
BF
330
1F
100
AcDbEntity
  8
0
 62
     7
100
AcDbLine
 10
-12.1499938964844
 20
19.3879699707031
 30
0.0
 11
-12.1499938964844
 21
19.34999084472659
 31
0.0
  0
LINE
  5
C0
330
1F
100
AcDbEntity
  8
0
 62
     7
100
AcDbLine
 10
-14.06575578409417
 20
19.34995225006426
 30
0.0
 11
-13.99997399846541
 21
19.38793135904876
 31
0.0
  0
LINE
  5
C1
330
1F
100
AcDbEntity
  8
0
 62
     7
100
AcDbLine
 10
-12.15000915527341
 20
19.34999084472659
 30
0.0
 11
-10.5
 21
19.34999084472659
 31
0.0
  0
LINE
  5
C2
330
1F
100
AcDbEntity
  8
0
 62
     7
100
AcDbLine
 10
1.050003051757813
 20
19.34999084472659
 30
0.0
 11
-6.934219360351591
 21
19.34999084472659
 31
0.0
  0
LINE
  5
C3
330
1F
100
AcDbEntity
  8
0
 62
     7
100
AcDbLine
 10
-6.499996210064467
 20
18.09999926661996
 30
0.0
 11
-6.999981021911793
 21
18.39261039444531
 31
0.0
  0
LINE
  5
C4
330
1F
100
AcDbEntity
  8
0
 62
     7
100
AcDbLine
 10
-7.0
 20
18.3926086425781
 30
0.0
 11
-8.850006103515597
 21
18.3926086425781
 31
0.0
  0
LINE
  5
C5
330
1F
100
AcDbEntity
  8
0
 62
     7
100
AcDbLine
 10
-8.850006103515597
 20
18.3926086425781
 30
0.0
 11
-8.850006103515597
 21
18.09999084472659
 31
0.0
  0
LINE
  5
C6
330
1F
100
AcDbEntity
  8
0
 62
     7
100
AcDbLine
 10
-7.0
 20
19.3879699707031
 30
0.0
 11
-8.850006103515597
 21
19.3879699707031
 31
0.0
  0
LINE
  5
C7
330
1F
100
AcDbEntity
  8
0
 62
     7
100
AcDbLine
 10
-8.850006103515597
 20
19.3879699707031
 30
0.0
 11
-8.850006103515597
 21
19.34999084472659
 31
0.0
  0
LINE
  5
C8
330
1F
100
AcDbEntity
  8
0
 62
     7
100
AcDbLine
 10
-6.934224176428103
 20
19.3499853398063
 30
0.0
 11
-7.000005962056861
 21
19.3879644487908
 31
0.0
  0
LINE
  5
C9
330
1F
100
AcDbEntity
  8
0
 62
     7
100
AcDbLine
 10
-8.850006103515597
 20
19.34999084472659
 30
0.0
 11
-10.5
 21
19.34999084472659
 31
0.0
  0
LINE
  5
CA
330
1F
100
AcDbEntity
  8
0
 62
     7
100
AcDbLine
 10
1.050003051757813
 20
16.84999084472659
 30
0.0
 11
-6.934219360351591
 21
16.84999084472659
 31
0.0
  0
LINE
  5
CB
330
1F
100
AcDbEntity
  8
0
 62
     7
100
AcDbLine
 10
-6.500011953447171
 20
18.10000117118861
 30
0.0
 11
-7.000016558127868
 21
17.8073785490763
 31
0.0
  0
LINE
  5
CC
330
1F
100
AcDbEntity
  8
0
 62
     7
100
AcDbLine
 10
-7.0
 20
17.807373046875
 30
0.0
 11
-8.850006103515597
 21
17.807373046875
 31
0.0
  0
LINE
  5
CD
330
1F
100
AcDbEntity
  8
0
 62
     7
100
AcDbLine
 10
-8.850006103515597
 20
17.807373046875
 30
0.0
 11
-8.850006103515597
 21
18.09999084472659
 31
0.0
  0
LINE
  5
CE
330
1F
100
AcDbEntity
  8
0
 62
     7
100
AcDbLine
 10
-7.0
 20
16.81201171875
 30
0.0
 11
-8.850006103515597
 21
16.81201171875
 31
0.0
  0
LINE
  5
CF
330
1F
100
AcDbEntity
  8
0
 62
     7
100
AcDbLine
 10
-8.850006103515597
 20
16.81201171875
 30
0.0
 11
-8.850006103515597
 21
16.84999084472659
 31
0.0
  0
LINE
  5
D0
330
1F
100
AcDbEntity
  8
0
 62
     7
100
AcDbLine
 10
-6.934218400467273
 20
16.84998283283366
 30
0.0
 11
-7.00000018609606
 21
16.81200372384916
 31
0.0
  0
LINE
  5
D1
330
1F
100
AcDbEntity
  8
0
 62
     7
100
AcDbLine
 10
-8.850006103515597
 20
16.84999084472659
 30
0.0
 11
-10.5
 21
16.84999084472659
 31
0.0
  0
LINE
  5
D2
330
1F
100
AcDbEntity
  8
0
 62
     7
100
AcDbLine
 10
0.8000030517578125
 20
16.84999084472659
 30
0.0
 11
-6.934219360351591
 21
16.84999084472659
 31
0.0
  0
LINE
  5
D3
330
1F
100
AcDbEntity
  8
0
 62
     7
100
AcDbLine
 10
-6.500011953447171
 20
18.10000117118861
 30
0.0
 11
-7.000016558127868
 21
17.8073785490763
 31
0.0
  0
LINE
  5
D4
330
1F
100
AcDbEntity
  8
0
 62
     7
100
AcDbLine
 10
-7.0
 20
17.807373046875
 30
0.0
 11
-8.850006103515597
 21
17.807373046875
 31
0.0
  0
LINE
  5
D5
330
1F
100
AcDbEntity
  8
0
 62
     7
100
AcDbLine
 10
-8.850006103515597
 20
17.807373046875
 30
0.0
 11
-8.850006103515597
 21
18.09999084472659
 31
0.0
  0
LINE
  5
D6
330
1F
100
AcDbEntity
  8
0
 62
     7
100
AcDbLine
 10
-7.0
 20
16.81201171875
 30
0.0
 11
-8.850006103515597
 21
16.81201171875
 31
0.0
  0
LINE
  5
D7
330
1F
100
AcDbEntity
  8
0
 62
     7
100
AcDbLine
 10
-8.850006103515597
 20
16.81201171875
 30
0.0
 11
-8.850006103515597
 21
16.84999084472659
 31
0.0
  0
LINE
  5
D8
330
1F
100
AcDbEntity
  8
0
 62
     7
100
AcDbLine
 10
-6.934218400467273
 20
16.84998283283366
 30
0.0
 11
-7.00000018609606
 21
16.81200372384916
 31
0.0
  0
LINE
  5
D9
330
1F
100
AcDbEntity
  8
0
 62
     7
100
AcDbLine
 10
-8.850006103515597
 20
16.84999084472659
 30
0.0
 11
-10.5
 21
16.84999084472659
 31
0.0
  0
LINE
  5
DA
330
1F
100
AcDbEntity
  8
0
 62
     7
100
AcDbLine
 10
0.8000030517578125
 20
19.34999084472659
 30
0.0
 11
-6.934219360351591
 21
19.34999084472659
 31
0.0
  0
LINE
  5
DB
330
1F
100
AcDbEntity
  8
0
 62
     7
100
AcDbLine
 10
-6.50001633750324
 20
18.09998651356938
 30
0.0
 11
-7.000001242232713
 21
18.39259748268711
 31
0.0
  0
LINE
  5
DC
330
1F
100
AcDbEntity
  8
0
 62
     7
100
AcDbLine
 10
-7.0
 20
18.3926086425781
 30
0.0
 11
-8.850006103515597
 21
18.3926086425781
 31
0.0
  0
LINE
  5
DD
330
1F
100
AcDbEntity
  8
0
 62
     7
100
AcDbLine
 10
-8.850006103515597
 20
18.3926086425781
 30
0.0
 11
-8.850006103515597
 21
18.09999084472659
 31
0.0
  0
LINE
  5
DE
330
1F
100
AcDbEntity
  8
0
 62
     7
100
AcDbLine
 10
-7.0
 20
19.3879699707031
 30
0.0
 11
-8.850006103515597
 21
19.3879699707031
 31
0.0
  0
LINE
  5
DF
330
1F
100
AcDbEntity
  8
0
 62
     7
100
AcDbLine
 10
-8.850006103515597
 20
19.3879699707031
 30
0.0
 11
-8.850006103515597
 21
19.34999084472659
 31
0.0
  0
LINE
  5
E0
330
1F
100
AcDbEntity
  8
0
 62
     7
100
AcDbLine
 10
-6.934224176428103
 20
19.3499853398063
 30
0.0
 11
-7.000005962056861
 21
19.3879644487908
 31
0.0
  0
LINE
  5
E1
330
1F
100
AcDbEntity
  8
0
 62
     7
100
AcDbLine
 10
-8.850006103515597
 20
19.34999084472659
 30
0.0
 11
-10.5
 21
19.34999084472659
 31
0.0
  0
LINE
  5
E2
330
1F
100
AcDbEntity
  8
0
 62
     7
100
AcDbLine
 10
-22.3500061035156
 20
19.04998779296881
 30
0.0
 11
-22.3500061035156
 21
17.1499938964844
 31
0.0
  0
LINE
  5
E3
330
1F
100
AcDbEntity
  8
0
 62
     7
100
AcDbLine
 10
1.350006103515597
 20
19.04998779296881
 30
0.0
 11
1.350006103515597
 21
17.1499938964844
 31
0.0
  0
LINE
  5
E4
330
1F
100
AcDbEntity
  8
0
 62
     7
100
AcDbLine
 10
-22.34997246553647
 20
19.04996228338538
 30
0.0
 11
-22.04997043497738
 21
19.34996413692656
 31
0.0
  0
LINE
  5
E5
330
1F
100
AcDbEntity
  8
0
 62
     7
100
AcDbLine
 10
-22.34998714949049
 20
17.14999091254299
 30
0.0
 11
-22.04999321112871
 21
16.84999715119429
 31
0.0
  0
LINE
  5
E6
330
1F
100
AcDbEntity
  8
0
 62
     7
100
AcDbLine
 10
1.350013308918506
 20
19.04997109208111
 30
0.0
 11
1.050019370556697
 21
19.34996485342967
 31
0.0
  0
LINE
  5
E7
330
1F
100
AcDbEntity
  8
0
 62
     7
100
AcDbLine
 10
1.350032038965566
 20
17.14996726815539
 30
0.0
 11
1.050030008406594
 21
16.84996541461433
 31
0.0
  0
LINE
  5
E8
330
1F
100
AcDbEntity
  8
0
 62
     7
100
AcDbLine
 10
-22.05000305175781
 20
19.34999084472659
 30
0.0
 11
-22.05000305175781
 21
16.84999084472659
 31
0.0
  0
LINE
  5
E9
330
1F
100
AcDbEntity
  8
0
 62
     7
100
AcDbLine
 10
1.050003051757813
 20
19.34999084472659
 30
0.0
 11
1.050003051757813
 21
16.84999084472659
 31
0.0
  0
LINE
  5
EA
330
1F
100
AcDbEntity
  8
0
 62
     7
100
AcDbLine
 10
-19.5
 20
22.6499938964844
 30
0.0
 11
-19.5
 21
19.34999084472659
 31
0.0
  0
LINE
  5
EB
330
1F
100
AcDbEntity
  8
0
 62
     7
100
AcDbLine
 10
-1.5
 20
14.09999084472659
 30
0.0
 11
-1.5
 21
16.84999084472659
 31
0.0
  0
LINE
  5
EC
330
1F
100
AcDbEntity
  8
0
 62
     7
100
AcDbLine
 10
-19.5
 20
16.84999084472659
 30
0.0
 11
-19.5
 21
14.09999084472659
 31
0.0
  0
LINE
  5
ED
330
1F
100
AcDbEntity
  8
0
 62
     7
100
AcDbLine
 10
-1.5
 20
19.34999084472659
 30
0.0
 11
-1.5
 21
22.6499938964844
 31
0.0
  0
LINE
  5
EE
330
1F
100
AcDbEntity
  8
0
 62
     7
100
AcDbLine
 10
-22.1000061035156
 20
16.90000915527341
 30
0.0
 11
-22.1000061035156
 21
12.19999694824219
 31
0.0
  0
LINE
  5
EF
330
1F
100
AcDbEntity
  8
0
 62
     7
100
AcDbLine
 10
1.100006103515597
 20
16.89996337890631
 30
0.0
 11
1.100006103515597
 21
12.19999694824219
 31
0.0
  0
LINE
  5
F0
330
1F
100
AcDbEntity
  8
0
 62
     7
100
AcDbLine
 10
-18.03999328613281
 20
16.80421447753909
 30
0.0
 11
-18.03999328613281
 21
12.23338317871091
 31
0.0
  0
LINE
  5
F1
330
1F
100
AcDbEntity
  8
0
 62
     7
100
AcDbLine
 10
-13.25999450683591
 20
16.82167053222659
 30
0.0
 11
-13.25999450683591
 21
14.09999084472659
 31
0.0
  0
LINE
  5
F2
330
1F
100
AcDbEntity
  8
0
 62
     7
100
AcDbLine
 10
-7.740005493164091
 20
16.75187683105469
 30
0.0
 11
-7.740005493164091
 21
14.09999084472659
 31
0.0
  0
LINE
  5
F3
330
1F
100
AcDbEntity
  8
0
 62
     7
100
AcDbLine
 10
-2.960006713867188
 20
16.839111328125
 30
0.0
 11
-2.960006713867188
 21
12.23338317871091
 31
0.0
  0
LINE
  5
F4
330
1F
100
AcDbEntity
  8
0
 62
     7
100
AcDbLine
 10
-11.80000305175781
 20
22.6499938964844
 30
0.0
 11
-11.80000305175781
 21
19.34999084472659
 31
0.0
  0
LINE
  5
F5
330
1F
100
AcDbEntity
  8
0
 62
     7
100
AcDbLine
 10
-9.199996948242188
 20
22.6499938964844
 30
0.0
 11
-9.199996948242188
 21
19.34999084472659
 31
0.0
  0
LINE
  5
F6
330
1F
100
AcDbEntity
  8
0
 62
     7
100
AcDbLine
 10
-11.80000305175781
 20
16.84999084472659
 30
0.0
 11
-11.80000305175781
 21
14.09999084472659
 31
0.0
  0
LINE
  5
F7
330
1F
100
AcDbEntity
  8
0
 62
     7
100
AcDbLine
 10
-9.199996948242188
 20
16.84999084472659
 30
0.0
 11
-9.199996948242188
 21
14.09999084472659
 31
0.0
  0
LINE
  5
F8
330
1F
100
AcDbEntity
  8
0
 62
     7
100
AcDbLine
 10
-13.5
 20
2.964996337890597
 30
0.0
 11
-13.5
 21
-1.800003051757813
 31
0.0
  0
LINE
  5
F9
330
1F
100
AcDbEntity
  8
0
 62
     7
100
AcDbLine
 10
-7.5
 20
2.964996337890597
 30
0.0
 11
-7.5
 21
-1.800003051757813
 31
0.0
  0
LINE
  5
FA
330
1F
100
AcDbEntity
  8
0
 62
     7
100
AcDbLine
 10
12.5
 20
2.964996337890597
 30
0.0
 11
12.5
 21
-1.800003051757813
 31
0.0
  0
LINE
  5
FB
330
1F
100
AcDbEntity
  8
0
 62
     7
100
AcDbLine
 10
-33.5
 20
2.964996337890597
 30
0.0
 11
-33.5
 21
-1.800003051757813
 31
0.0
  0
LINE
  5
FC
330
1F
100
AcDbEntity
  8
0
 62
     7
100
AcDbLine
 10
-30.0
 20
14.19999694824219
 30
0.0
 11
-25.0
 21
14.19999694824219
 31
0.0
  0
LINE
  5
FD
330
1F
100
AcDbEntity
  8
0
 62
     7
100
AcDbLine
 10
-30.0
 20
2.964996337890597
 30
0.0
 11
-25.0
 21
2.964996337890597
 31
0.0
  0
LINE
  5
FE
330
1F
100
AcDbEntity
  8
0
 62
     7
100
AcDbLine
 10
4.0
 20
14.19999694824219
 30
0.0
 11
9.0
 21
14.19999694824219
 31
0.0
  0
LINE
  5
FF
330
1F
100
AcDbEntity
  8
0
 62
     7
100
AcDbLine
 10
9.0
 20
2.964996337890597
 30
0.0
 11
4.0
 21
2.964996337890597
 31
0.0
  0
LINE
  5
100
330
1F
100
AcDbEntity
  8
0
 62
     7
100
AcDbLine
 10
-33.5
 20
13.0
 30
0.0
 11
-33.5
 21
2.964996814727783
 31
0.0
  0
LINE
  5
101
330
1F
100
AcDbEntity
  8
0
 62
     7
100
AcDbLine
 10
-32.29998602190617
 20
14.19998318742231
 30
0.0
 11
-33.49998300051342
 21
12.99998620881505
 31
0.0
  0
LINE
  5
102
330
1F
100
AcDbEntity
  8
0
 62
     7
100
AcDbLine
 10
-22.60000610351563
 20
14.19999694824219
 30
0.0
 11
-25.0
 21
14.19999694824219
 31
0.0
  0
LINE
  5
103
330
1F
100
AcDbEntity
  8
0
 62
     7
100
AcDbLine
 10
-13.5
 20
2.964996814727783
 30
0.0
 11
-25.0
 21
2.964996814727783
 31
0.0
  0
LINE
  5
104
330
1F
100
AcDbEntity
  8
0
 62
     7
100
AcDbLine
 10
-22.60000610351563
 20
14.19999694824219
 30
0.0
 11
-22.60000610351563
 21
12.59999084472656
 31
0.0
  0
LINE
  5
105
330
1F
100
AcDbEntity
  8
0
 62
     7
100
AcDbLine
 10
-18.19998168945313
 20
12.19999694824219
 30
0.0
 11
-22.20001220703125
 21
12.19999694824219
 31
0.0
  0
LINE
  5
106
330
1F
100
AcDbEntity
  8
0
 62
     7
100
AcDbLine
 10
-17.79998779296875
 20
15.39999389648438
 30
0.0
 11
-17.79998779296875
 21
12.59999084472656
 31
0.0
  0
LINE
  5
107
330
1F
100
AcDbEntity
  8
0
 62
     7
100
AcDbLine
 10
-13.5
 20
15.55999755859375
 30
0.0
 11
-17.79998779296875
 21
15.55999755859375
 31
0.0
  0
LINE
  5
108
330
1F
100
AcDbEntity
  8
0
 62
     7
100
AcDbLine
 10
-13.5
 20
15.39999389648438
 30
0.0
 11
-13.5
 21
2.964996814727783
 31
0.0
  0
LINE
  5
109
330
1F
100
AcDbEntity
  8
0
 62
     7
100
AcDbLine
 10
-30.0
 20
14.19999694824219
 30
0.0
 11
-32.30000305175781
 21
14.19999694824219
 31
0.0
  0
LINE
  5
10A
330
1F
100
AcDbEntity
  8
0
 62
     7
100
AcDbLine
 10
-30.0
 20
2.964996814727783
 30
0.0
 11
-33.5
 21
2.964996814727783
 31
0.0
  0
LINE
  5
10B
330
1F
100
AcDbEntity
  8
0
 62
     7
100
AcDbLine
 10
12.5
 20
13.0
 30
0.0
 11
12.5
 21
2.964996814727783
 31
0.0
  0
LINE
  5
10C
330
1F
100
AcDbEntity
  8
0
 62
     7
100
AcDbLine
 10
11.29998568473144
 20
14.19998352459709
 30
0.0
 11
12.4999826633387
 21
12.99998654598983
 31
0.0
  0
LINE
  5
10D
330
1F
100
AcDbEntity
  8
0
 62
     7
100
AcDbLine
 10
1.600006103515625
 20
14.19999694824219
 30
0.0
 11
4.0
 21
14.19999694824219
 31
0.0
  0
LINE
  5
10E
330
1F
100
AcDbEntity
  8
0
 62
     7
100
AcDbLine
 10
-7.5
 20
2.964996814727783
 30
0.0
 11
4.0
 21
2.964996814727783
 31
0.0
  0
LINE
  5
10F
330
1F
100
AcDbEntity
  8
0
 62
     7
100
AcDbLine
 10
1.600006103515625
 20
14.19999694824219
 30
0.0
 11
1.600006103515625
 21
12.59999084472656
 31
0.0
  0
LINE
  5
110
330
1F
100
AcDbEntity
  8
0
 62
     7
100
AcDbLine
 10
-2.800018310546875
 20
12.19999694824219
 30
0.0
 11
1.20001220703125
 21
12.19999694824219
 31
0.0
  0
LINE
  5
111
330
1F
100
AcDbEntity
  8
0
 62
     7
100
AcDbLine
 10
-3.20001220703125
 20
15.39999389648438
 30
0.0
 11
-3.20001220703125
 21
12.59999084472656
 31
0.0
  0
LINE
  5
112
330
1F
100
AcDbEntity
  8
0
 62
     7
100
AcDbLine
 10
-7.5
 20
15.55999755859375
 30
0.0
 11
-3.20001220703125
 21
15.55999755859375
 31
0.0
  0
LINE
  5
113
330
1F
100
AcDbEntity
  8
0
 62
     7
100
AcDbLine
 10
-7.5
 20
15.39999389648438
 30
0.0
 11
-7.5
 21
2.964996814727783
 31
0.0
  0
LINE
  5
114
330
1F
100
AcDbEntity
  8
0
 62
     7
100
AcDbLine
 10
9.0
 20
14.19999694824219
 30
0.0
 11
11.30000305175781
 21
14.19999694824219
 31
0.0
  0
LINE
  5
115
330
1F
100
AcDbEntity
  8
0
 62
     7
100
AcDbLine
 10
9.0
 20
2.964996814727783
 30
0.0
 11
12.5
 21
2.964996814727783
 31
0.0
  0
CIRCLE
  5
116
330
1F
100
AcDbEntity
  8
0
 62
     7
100
AcDbCircle
 10
100.2519760131836
 20
15.820556640625
 30
0.0
 40
1.25
  0
ARC
  5
117
330
1F
100
AcDbEntity
  8
0
 62
     7
100
AcDbCircle
 10
108.3727416992187
 20
2.836685180664091
 30
0.0
 40
19.70000076293945
100
AcDbArc
 50
91.64733484925856
 51
117.3363934875394
  0
ARC
  5
118
330
1F
100
AcDbEntity
  8
0
 62
     7
100
AcDbCircle
 10
107.92138671875
 20
18.53021240234381
 30
0.0
 40
4.0
100
AcDbArc
 50
66.49583941941437
 51
91.64732118888014
  0
ARC
  5
119
330
1F
100
AcDbEntity
  8
0
 62
     7
100
AcDbCircle
 10
100.2519760131836
 20
15.820556640625
 30
0.0
 40
3.0
100
AcDbArc
 50
193.8462500991423
 51
238.8462547664763
  0
ARC
  5
11A
330
1F
100
AcDbEntity
  8
0
 62
     7
100
AcDbCircle
 10
102.1938781738281
 20
16.2991943359375
 30
0.0
 40
5.0
100
AcDbArc
 50
135.6236239336017
 51
193.8462327962985
  0
ARC
  5
11B
330
1F
100
AcDbEntity
  8
0
 62
     7
100
AcDbCircle
 10
100.4731750488281
 20
18.1179504394531
 30
0.0
 40
2.5
100
AcDbArc
 50
114.6993667320241
 51
137.8376024323045
  0
ARC
  5
11C
330
1F
100
AcDbEntity
  8
0
 62
     7
100
AcDbCircle
 10
101.6433868408203
 20
13.8109130859375
 30
0.0
 40
2.0
100
AcDbArc
 50
238.8462547664764
 51
256.5569967560219
  0
ARC
  5
11D
330
1F
100
AcDbEntity
  8
0
 62
     7
100
AcDbCircle
 10
109.8012390136719
 20
18.8426208496094
 30
0.0
 40
4.0
100
AcDbArc
 50
127.4244053067297
 51
193.8462327962988
  0
CIRCLE
  5
11E
330
1F
100
AcDbEntity
  8
0
 62
     7
100
AcDbCircle
 10
109.5
 20
18.09999084472659
 30
0.0
 40
1.25
  0
ARC
  5
11F
330
1F
100
AcDbEntity
  8
0
 62
     7
100
AcDbCircle
 10
110.6566390991211
 20
2.829452514648409
 30
0.0
 40
19.70000076293945
100
AcDbArc
 50
63.95496806703465
 51
89.64402670531545
  0
ARC
  5
120
330
1F
100
AcDbEntity
  8
0
 62
     7
100
AcDbCircle
 10
117.5501556396484
 20
16.93511962890631
 30
0.0
 40
4.0
100
AcDbArc
 50
38.80347946737955
 51
63.95496123684544
  0
ARC
  5
121
330
1F
100
AcDbEntity
  8
0
 62
     7
100
AcDbCircle
 10
109.5
 20
18.09999084472659
 30
0.0
 40
3.0
100
AcDbArc
 50
166.1538591838849
 51
211.1538638512191
  0
ARC
  5
122
330
1F
100
AcDbEntity
  8
0
 62
     7
100
AcDbCircle
 10
111.4418869018555
 20
17.6213684082031
 30
0.0
 40
5.0
100
AcDbArc
 50
107.9312571513777
 51
166.1538591838849
  0
ARC
  5
123
330
1F
100
AcDbEntity
  8
0
 62
     7
100
AcDbCircle
 10
110.7635116577148
 20
20.03144836425781
 30
0.0
 40
2.5
100
AcDbArc
 50
87.00699994980022
 51
110.1452356500806
  0
ARC
  5
124
330
1F
100
AcDbEntity
  8
0
 62
     7
100
AcDbCircle
 10
109.798095703125
 20
15.6739196777344
 30
0.0
 40
2.0
100
AcDbArc
 50
211.1538811540629
 51
228.8646299737975
  0
ARC
  5
125
330
1F
100
AcDbEntity
  8
0
 62
     7
100
AcDbCircle
 10
119.35986328125
 20
16.338134765625
 30
0.0
 40
4.0
100
AcDbArc
 50
99.73204535469513
 51
166.1538591838849
  0
CIRCLE
  5
126
330
1F
100
AcDbEntity
  8
0
 62
     7
100
AcDbCircle
 10
118.7479858398438
 20
15.82057189941409
 30
0.0
 40
1.25
  0
ARC
  5
127
330
1F
100
AcDbEntity
  8
0
 62
     7
100
AcDbCircle
 10
112.6755676269531
 20
1.761657714843807
 30
0.0
 40
19.70000076293945
100
AcDbArc
 50
36.26266958670249
 51
61.95172822498327
  0
ARC
  5
128
330
1F
100
AcDbEntity
  8
0
 62
     7
100
AcDbCircle
 10
125.3347015380859
 20
11.04803466796881
 30
0.0
 40
4.0
100
AcDbArc
 50
11.11117927950037
 51
36.26266275651334
  0
ARC
  5
129
330
1F
100
AcDbEntity
  8
0
 62
     7
100
AcDbCircle
 10
118.7479858398438
 20
15.82057189941409
 30
0.0
 40
3.0
100
AcDbArc
 50
138.4615538733636
 51
183.4615585406976
  0
ARC
  5
12A
330
1F
100
AcDbEntity
  8
0
 62
     7
100
AcDbCircle
 10
120.2450103759766
 20
14.49432373046881
 30
0.0
 40
5.0
100
AcDbArc
 50
80.23895867104554
 51
138.4615538733634
  0
ARC
  5
12B
330
1F
100
AcDbEntity
  8
0
 62
     7
100
AcDbCircle
 10
120.7643585205078
 20
16.943603515625
 30
0.0
 40
2.5
100
AcDbArc
 50
59.31470146946812
 51
82.45293716974827
  0
ARC
  5
12C
330
1F
100
AcDbEntity
  8
0
 62
     7
100
AcDbCircle
 10
117.8844833374023
 20
13.53385925292969
 30
0.0
 40
2.0
100
AcDbArc
 50
183.4615758435419
 51
201.1723246632769
  0
ARC
  5
12D
330
1F
100
AcDbEntity
  8
0
 62
     7
100
AcDbCircle
 10
126.6596832275391
 20
9.678421020507813
 30
0.0
 40
4.0
100
AcDbArc
 50
72.03974687436282
 51
138.4615538733635
  0
CIRCLE
  5
12E
330
1F
100
AcDbEntity
  8
0
 62
     7
100
AcDbCircle
 10
125.8773727416992
 20
9.504486083984403
 30
0.0
 40
1.25
  0
ARC
  5
12F
330
1F
100
AcDbEntity
  8
0
 62
     7
100
AcDbCircle
 10
113.9670104980469
 20
-0.1220703125
 30
0.0
 40
19.70000076293945
100
AcDbArc
 50
8.570369398823006
 51
34.25942974465109
  0
ARC
  5
130
330
1F
100
AcDbEntity
  8
0
 62
     7
100
AcDbCircle
 10
129.4917144775391
 20
2.217620849609403
 30
0.0
 40
4.0
100
AcDbArc
 50
343.4188790916217
 51
368.5703625686339
  0
ARC
  5
131
330
1F
100
AcDbEntity
  8
0
 62
     7
100
AcDbCircle
 10
125.8773727416992
 20
9.504486083984403
 30
0.0
 40
3.0
100
AcDbArc
 50
110.7692553930312
 51
155.7692532301759
  0
ARC
  5
132
330
1F
100
AcDbEntity
  8
0
 62
     7
100
AcDbCircle
 10
126.5865859985352
 20
7.634460449218807
 30
0.0
 40
5.0
100
AcDbArc
 50
52.54666019071316
 51
110.7692553930313
  0
ARC
  5
133
330
1F
100
AcDbEntity
  8
0
 62
     7
100
AcDbCircle
 10
128.1846771240234
 20
9.561828613281307
 30
0.0
 40
2.5
100
AcDbArc
 50
31.62240298913619
 51
54.7606386894161
  0
ARC
  5
134
330
1F
100
AcDbEntity
  8
0
 62
     7
100
AcDbCircle
 10
124.0500946044922
 20
7.880996704101591
 30
0.0
 40
2.0
100
AcDbArc
 50
155.7692532301759
 51
173.4800020499104
  0
ARC
  5
135
330
1F
100
AcDbEntity
  8
0
 62
     7
100
AcDbCircle
 10
130.028434753418
 20
0.3891296386719034
 30
0.0
 40
4.0
100
AcDbArc
 50
44.34744839403046
 51
110.7692553930313
  0
CIRCLE
  5
136
330
1F
100
AcDbEntity
  8
0
 62
     7
100
AcDbCircle
 10
129.2548980712891
 20
0.5986785888671875
 30
0.0
 40
1.25
  0
ARC
  5
137
330
1F
100
AcDbEntity
  8
0
 62
     7
100
AcDbCircle
 10
114.2351150512695
 20
-2.390182495117188
 30
0.0
 40
19.70000076293945
100
AcDbArc
 50
340.8780692109442
 51
366.5671295567716
  0
ARC
  5
138
330
1F
100
AcDbEntity
  8
0
 62
     7
100
AcDbCircle
 10
129.0688629150391
 20
-7.533187866210909
 30
0.0
 40
4.0
100
AcDbArc
 50
315.7265771961945
 51
340.8780623807551
  0
ARC
  5
139
330
1F
100
AcDbEntity
  8
0
 62
     7
100
AcDbCircle
 10
129.2548980712891
 20
0.5986785888671875
 30
0.0
 40
3.0
100
AcDbArc
 50
83.07695691269906
 51
128.0769479196542
  0
ARC
  5
13A
330
1F
100
AcDbEntity
  8
0
 62
     7
100
AcDbCircle
 10
129.0138320922852
 20
-1.386734008789091
 30
0.0
 40
5.0
100
AcDbArc
 50
24.85436000283357
 51
83.07695691269906
  0
ARC
  5
13B
330
1F
100
AcDbEntity
  8
0
 62
     7
100
AcDbCircle
 10
131.3245697021484
 20
-0.4228057861328125
 30
0.0
 40
2.5
100
AcDbArc
 50
3.930102801256291
 51
27.06833850153689
  0
ARC
  5
13C
330
1F
100
AcDbEntity
  8
0
 62
     7
100
AcDbCircle
 10
126.882453918457
 20
0.0103302001953125
 30
0.0
 40
2.0
100
AcDbArc
 50
128.0769479196542
 51
145.787696739389
  0
ARC
  5
13D
330
1F
100
AcDbEntity
  8
0
 62
     7
100
AcDbCircle
 10
128.6943664550781
 20
-9.401657104492188
 30
0.0
 40
4.0
100
AcDbArc
 50
16.65514820615124
 51
83.07695691269906
  0
CIRCLE
  5
13E
330
1F
100
AcDbEntity
  8
0
 62
     7
100
AcDbCircle
 10
128.106819152832
 20
-8.856628417968693
 30
0.0
 40
1.25
  0
ARC
  5
13F
330
1F
100
AcDbEntity
  8
0
 62
     7
100
AcDbCircle
 10
113.4184646606445
 20
-4.523101806640597
 30
0.0
 40
19.70000076293945
100
AcDbArc
 50
313.1857673155174
 51
338.8748293688928
  0
ARC
  5
140
330
1F
100
AcDbEntity
  8
0
 62
     7
100
AcDbCircle
 10
124.1630249023438
 20
-15.9705810546875
 30
0.0
 40
4.0
100
AcDbArc
 50
288.0342787158624
 51
313.1857604853282
  0
ARC
  5
141
330
1F
100
AcDbEntity
  8
0
 62
     7
100
AcDbCircle
 10
128.106819152832
 20
-8.856628417968693
 30
0.0
 40
3.0
100
AcDbArc
 50
55.38465843236672
 51
100.3846494393222
  0
ARC
  5
142
330
1F
100
AcDbEntity
  8
0
 62
     7
100
AcDbCircle
 10
126.9706954956055
 20
-10.5025939941406
 30
0.0
 40
5.0
100
AcDbArc
 50
357.1620598149551
 51
415.3846584323669
  0
ARC
  5
143
330
1F
100
AcDbEntity
  8
0
 62
     7
100
AcDbCircle
 10
129.464714050293
 20
-10.7229309082031
 30
0.0
 40
2.5
100
AcDbArc
 50
336.2378026133774
 51
359.3760383136581
  0
ARC
  5
144
330
1F
100
AcDbEntity
  8
0
 62
     7
100
AcDbCircle
 10
125.7327041625977
 20
-8.275054931640597
 30
0.0
 40
2.0
100
AcDbArc
 50
100.3846494393224
 51
118.0953914288679
  0
ARC
  5
145
330
1F
100
AcDbEntity
  8
0
 62
     7
100
AcDbCircle
 10
122.9631042480469
 20
-17.45100402832031
 30
0.0
 40
4.0
100
AcDbArc
 50
348.9628480182727
 51
415.3846584323669
  0
CIRCLE
  5
146
330
1F
100
AcDbEntity
  8
0
 62
     7
100
AcDbCircle
 10
122.6961441040039
 20
-16.69535827636719
 30
0.0
 40
1.25
  0
ARC
  5
147
330
1F
100
AcDbEntity
  8
0
 62
     7
100
AcDbCircle
 10
111.7041397094727
 20
-6.032196044921903
 30
0.0
 40
19.70000076293945
100
AcDbArc
 50
285.4934688351851
 51
311.1825274734661
  0
ARC
  5
148
330
1F
100
AcDbEntity
  8
0
 62
     7
100
AcDbCircle
 10
115.8980712890625
 20
-21.16167449951171
 30
0.0
 40
4.0
100
AcDbArc
 50
260.3419802355301
 51
285.4934620049962
  0
ARC
  5
149
330
1F
100
AcDbEntity
  8
0
 62
     7
100
AcDbCircle
 10
122.6961441040039
 20
-16.69535827636719
 30
0.0
 40
3.0
100
AcDbArc
 50
27.69235824448715
 51
72.69235095898993
  0
ARC
  5
14A
330
1F
100
AcDbEntity
  8
0
 62
     7
100
AcDbCircle
 10
120.9252395629883
 20
-17.62480163574219
 30
0.0
 40
5.0
100
AcDbArc
 50
329.4697579195282
 51
387.6923582444874
  0
ARC
  5
14B
330
1F
100
AcDbEntity
  8
0
 62
     7
100
AcDbCircle
 10
123.0311889648438
 20
-18.97892761230469
 30
0.0
 40
2.5
100
AcDbArc
 50
308.545500717951
 51
331.6837381257783
  0
ARC
  5
14C
330
1F
100
AcDbEntity
  8
0
 62
     7
100
AcDbCircle
 10
120.8642425537109
 20
-15.07708740234369
 30
0.0
 40
2.0
100
AcDbArc
 50
72.69235095898993
 51
90.40309294853579
  0
ARC
  5
14D
330
1F
100
AcDbEntity
  8
0
 62
     7
100
AcDbCircle
 10
114.1476058959961
 20
-21.91489410400391
 30
0.0
 40
4.0
100
AcDbArc
 50
321.2705461228455
 51
387.6923582444873
  0
CIRCLE
  5
14E
330
1F
100
AcDbEntity
  8
0
 62
     7
100
AcDbCircle
 10
114.2623901367188
 20
-21.1217346191406
 30
0.0
 40
1.25
  0
ARC
  5
14F
330
1F
100
AcDbEntity
  8
0
 62
     7
100
AcDbCircle
 10
109.4848709106445
 20
-6.571731567382813
 30
0.0
 40
19.70000076293945
100
AcDbArc
 50
257.8011703548531
 51
283.4902289931339
  0
ARC
  5
150
330
1F
100
AcDbEntity
  8
0
 62
     7
100
AcDbCircle
 10
106.1673965454102
 20
-21.9172439575195
 30
0.0
 40
4.0
100
AcDbArc
 50
232.6496749250089
 51
257.8011635246639
  0
ARC
  5
151
330
1F
100
AcDbEntity
  8
0
 62
     7
100
AcDbCircle
 10
114.2623901367188
 20
-21.1217346191406
 30
0.0
 40
3.0
100
AcDbArc
 50
0.0000580566079451
 51
45.00005247865797
  0
ARC
  5
152
330
1F
100
AcDbEntity
  8
0
 62
     7
100
AcDbCircle
 10
112.2623977661133
 20
-21.1217422485352
 30
0.0
 40
5.0
100
AcDbArc
 50
301.777459439196
 51
360.0000580566079
  0
ARC
  5
153
330
1F
100
AcDbEntity
  8
0
 62
     7
100
AcDbCircle
 10
113.4978332519531
 20
-23.2994384765625
 30
0.0
 40
2.5
100
AcDbArc
 50
280.8532022376185
 51
303.991437937899
  0
ARC
  5
154
330
1F
100
AcDbEntity
  8
0
 62
     7
100
AcDbCircle
 10
113.3923721313477
 20
-18.83750915527341
 30
0.0
 40
2.0
100
AcDbArc
 50
45.00005247865769
 51
62.71079446820339
  0
ARC
  5
155
330
1F
100
AcDbEntity
  8
0
 62
     7
100
AcDbCircle
 10
104.2673950195312
 20
-21.7707061767578
 30
0.0
 40
4.0
100
AcDbArc
 50
293.5782476425134
 51
360.0000580566079
  0
CIRCLE
  5
156
330
1F
100
AcDbEntity
  8
0
 62
     7
100
AcDbCircle
 10
104.7376327514648
 20
-21.1217422485352
 30
0.0
 40
1.25
  0
ARC
  5
157
330
1F
100
AcDbEntity
  8
0
 62
     7
100
AcDbCircle
 10
107.2690734863281
 20
-6.018127441406193
 30
0.0
 40
19.70000076293945
100
AcDbArc
 50
230.1088718745209
 51
255.7979305128017
  0
ARC
  5
158
330
1F
100
AcDbEntity
  8
0
 62
     7
100
AcDbCircle
 10
97.2001800537109
 20
-18.06419372558591
 30
0.0
 40
4.0
100
AcDbArc
 50
204.9573696144875
 51
230.1088582141424
  0
ARC
  5
159
330
1F
100
AcDbEntity
  8
0
 62
     7
100
AcDbCircle
 10
104.7376327514648
 20
-21.1217422485352
 30
0.0
 40
3.0
100
AcDbArc
 50
332.3077578687293
 51
377.3077522907785
  0
ARC
  5
15A
330
1F
100
AcDbEntity
  8
0
 62
     7
100
AcDbCircle
 10
102.9667205810547
 20
-20.19230651855469
 30
0.0
 40
5.0
100
AcDbArc
 50
274.0851609588639
 51
332.3077578687293
  0
ARC
  5
15B
330
1F
100
AcDbEntity
  8
0
 62
     7
100
AcDbCircle
 10
103.0486221313477
 20
-22.694694519043
 30
0.0
 40
2.5
100
AcDbArc
 50
253.1609037572866
 51
276.2991394575667
  0
ARC
  5
15C
330
1F
100
AcDbEntity
  8
0
 62
     7
100
AcDbCircle
 10
105.0288009643555
 20
-18.69483947753909
 30
0.0
 40
2.0
100
AcDbArc
 50
17.30775229077854
 51
35.01849598787113
  0
ARC
  5
15D
330
1F
100
AcDbEntity
  8
0
 62
     7
100
AcDbCircle
 10
95.58591461181641
 20
-17.05146789550781
 30
0.0
 40
4.0
100
AcDbArc
 50
265.8859491621813
 51
332.307757868729
  0
CIRCLE
  5
15E
330
1F
100
AcDbEntity
  8
0
 62
     7
100
AcDbCircle
 10
96.3038787841797
 20
-16.69537353515619
 30
0.0
 40
1.25
  0
ARC
  5
15F
330
1F
100
AcDbEntity
  8
0
 62
     7
100
AcDbCircle
 10
105.5643539428711
 20
-4.498199462890597
 30
0.0
 40
19.70000076293945
100
AcDbArc
 50
202.4165665639995
 51
228.1056320324695
  0
ARC
  5
160
330
1F
100
AcDbEntity
  8
0
 62
     7
100
AcDbCircle
 10
91.0507049560547
 20
-10.48521423339841
 30
0.0
 40
4.0
100
AcDbArc
 50
177.2650470011215
 51
202.4165356007772
  0
ARC
  5
161
330
1F
100
AcDbEntity
  8
0
 62
     7
100
AcDbCircle
 10
96.3038787841797
 20
-16.69537353515619
 30
0.0
 40
3.0
100
AcDbArc
 50
304.6154576808497
 51
349.6154521028994
  0
ARC
  5
162
330
1F
100
AcDbEntity
  8
0
 62
     7
100
AcDbCircle
 10
95.16773986816411
 20
-15.0494079589844
 30
0.0
 40
5.0
100
AcDbArc
 50
246.3928624785316
 51
304.6154576808498
  0
ARC
  5
163
330
1F
100
AcDbEntity
  8
0
 62
     7
100
AcDbCircle
 10
94.0773468017578
 20
-17.30322265625
 30
0.0
 40
2.5
100
AcDbArc
 50
225.4686052769546
 51
248.6068409772347
  0
ARC
  5
164
330
1F
100
AcDbEntity
  8
0
 62
     7
100
AcDbCircle
 10
97.6895294189453
 20
-14.6817626953125
 30
0.0
 40
2.0
100
AcDbArc
 50
349.6154521028994
 51
367.3261957999918
  0
ARC
  5
165
330
1F
100
AcDbEntity
  8
0
 62
     7
100
AcDbCircle
 10
90.09197998046869
 20
-8.838302612304688
 30
0.0
 40
4.0
100
AcDbArc
 50
238.1936438516597
 51
304.6154576808498
  0
CIRCLE
  5
166
330
1F
100
AcDbEntity
  8
0
 62
     7
100
AcDbCircle
 10
90.8931884765625
 20
-8.856658935546903
 30
0.0
 40
1.25
  0
ARC
  5
167
330
1F
100
AcDbEntity
  8
0
 62
     7
100
AcDbCircle
 10
104.7612457275391
 20
-2.360153198242188
 30
0.0
 40
19.70000076293945
100
AcDbArc
 50
174.7242439506335
 51
200.4133094191041
  0
ARC
  5
168
330
1F
100
AcDbEntity
  8
0
 62
     7
100
AcDbCircle
 10
89.12773895263671
 20
-0.9165649414061932
 30
0.0
 40
4.0
100
AcDbArc
 50
149.5727416906002
 51
174.7242302902551
  0
ARC
  5
169
330
1F
100
AcDbEntity
  8
0
 62
     7
100
AcDbCircle
 10
90.8931884765625
 20
-8.856658935546903
 30
0.0
 40
3.0
100
AcDbArc
 50
276.9231592005176
 51
321.9231502074726
  0
ARC
  5
16A
330
1F
100
AcDbEntity
  8
0
 62
     7
100
AcDbCircle
 10
90.6521072387695
 20
-6.871231079101591
 30
0.0
 40
5.0
100
AcDbArc
 50
218.7005571680103
 51
276.9231592005175
  0
ARC
  5
16B
330
1F
100
AcDbEntity
  8
0
 62
     7
100
AcDbCircle
 10
88.63921356201171
 20
-8.360168457031193
 30
0.0
 40
2.5
100
AcDbArc
 50
197.7762999664329
 51
220.9145356667135
  0
ARC
  5
16C
330
1F
100
AcDbEntity
  8
0
 62
     7
100
AcDbCircle
 10
93.0558929443359
 20
-7.717636108398409
 30
0.0
 40
2.0
100
AcDbArc
 50
321.9231502074729
 51
339.6338956121131
  0
ARC
  5
16D
330
1F
100
AcDbEntity
  8
0
 62
     7
100
AcDbCircle
 10
89.044189453125
 20
0.9872436523438068
 30
0.0
 40
4.0
100
AcDbArc
 50
210.5013385411383
 51
276.9231592005177
  0
CIRCLE
  5
16E
330
1F
100
AcDbEntity
  8
0
 62
     7
100
AcDbCircle
 10
89.74509429931641
 20
0.5986480712890909
 30
0.0
 40
1.25
  0
ARC
  5
16F
330
1F
100
AcDbEntity
  8
0
 62
     7
100
AcDbCircle
 10
105.0437240600586
 20
-0.0937805175780966
 30
0.0
 40
19.70000076293945
100
AcDbArc
 50
147.0319386401121
 51
172.7210041085821
  0
ARC
  5
170
330
1F
100
AcDbEntity
  8
0
 62
     7
100
AcDbCircle
 10
91.8718109130859
 20
8.44970703125
 30
0.0
 40
4.0
100
AcDbArc
 50
121.8804363800788
 51
147.0319249797337
  0
ARC
  5
171
330
1F
100
AcDbEntity
  8
0
 62
     7
100
AcDbCircle
 10
89.74509429931641
 20
0.5986480712890909
 30
0.0
 40
3.0
100
AcDbArc
 50
249.2308607201852
 51
294.2308517271406
  0
ARC
  5
172
330
1F
100
AcDbEntity
  8
0
 62
     7
100
AcDbCircle
 10
90.4542999267578
 20
2.468704223632813
 30
0.0
 40
5.0
100
AcDbArc
 50
191.0082518574887
 51
249.2308607201854
  0
ARC
  5
173
330
1F
100
AcDbEntity
  8
0
 62
     7
100
AcDbCircle
 10
87.9800262451172
 20
2.085754394531307
 30
0.0
 40
2.5
100
AcDbArc
 50
170.0839773530668
 51
193.2222130533477
  0
ARC
  5
174
330
1F
100
AcDbEntity
  8
0
 62
     7
100
AcDbCircle
 10
92.1894073486328
 20
0.6021423339844034
 30
0.0
 40
2.0
100
AcDbArc
 50
294.2308517271408
 51
311.9415937166864
  0
ARC
  5
175
330
1F
100
AcDbEntity
  8
0
 62
     7
100
AcDbCircle
 10
92.6825714111328
 20
10.17427062988281
 30
0.0
 40
4.0
100
AcDbArc
 50
182.8090332306174
 51
249.2308607201852
  0
CIRCLE
  5
176
330
1F
100
AcDbEntity
  8
0
 62
     7
100
AcDbCircle
 10
93.1226043701172
 20
9.504455566406307
 30
0.0
 40
1.25
  0
ARC
  5
177
330
1F
100
AcDbEntity
  8
0
 62
     7
100
AcDbCircle
 10
106.3470840454102
 20
1.781723022460909
 30
0.0
 40
19.70000076293945
100
AcDbArc
 50
119.3396333295907
 51
145.0286987980608
  0
ARC
  5
178
330
1F
100
AcDbEntity
  8
0
 62
     7
100
AcDbCircle
 10
98.6542892456055
 20
15.4678955078125
 30
0.0
 40
4.0
100
AcDbArc
 50
94.18813789974658
 51
119.3396196692123
  0
ARC
  5
179
330
1F
100
AcDbEntity
  8
0
 62
     7
100
AcDbCircle
 10
93.1226043701172
 20
9.504455566406307
 30
0.0
 40
3.0
100
AcDbArc
 50
221.538555409664
 51
266.5385532468083
  0
ARC
  5
17A
330
1F
100
AcDbEntity
  8
0
 62
     7
100
AcDbCircle
 10
94.6196365356445
 20
10.8307189941406
 30
0.0
 40
5.0
100
AcDbArc
 50
163.3159292441229
 51
221.5385381068199
  0
ARC
  5
17B
330
1F
100
AcDbEntity
  8
0
 62
     7
100
AcDbCircle
 10
92.2508087158203
 20
11.64149475097659
 30
0.0
 40
2.5
100
AcDbArc
 50
142.3916720425455
 51
165.5299077428259
  0
ARC
  5
17C
330
1F
100
AcDbEntity
  8
0
 62
     7
100
AcDbCircle
 10
95.2885589599609
 20
8.371627807617188
 30
0.0
 40
2.0
100
AcDbArc
 50
266.5385532468086
 51
284.2492952363539
  0
ARC
  5
17D
330
1F
100
AcDbEntity
  8
0
 62
     7
100
AcDbCircle
 10
100.1736297607422
 20
16.6181335449219
 30
0.0
 40
4.0
100
AcDbArc
 50
155.1167106172513
 51
221.5385381068201
  0
CIRCLE
  5
17E
330
1F
100
AcDbEntity
  8
0
 62
     7
100
AcDbCircle
 10
109.5
 20
-1.800003051757813
 30
0.0
 40
16.0
  0
ARC
  5
17F
330
1F
100
AcDbEntity
  8
0
 62
     7
100
AcDbCircle
 10
-23.6000061035156
 20
15.3999938964844
 30
0.0
 40
10.10000038146973
100
AcDbArc
 50
0.0
 51
7.598911593172012
  0
ARC
  5
180
330
1F
100
AcDbEntity
  8
0
 62
     7
100
AcDbCircle
 10
-20.1000061035156
 20
-24.25
 30
0.0
 40
2.0
100
AcDbArc
 50
179.9999640278211
 51
269.9999460417329
  0
ARC
  5
181
330
1F
100
AcDbEntity
  8
0
 62
     7
100
AcDbCircle
 10
-13.3000183105469
 20
15.3999938964844
 30
0.0
 40
10.10000038146973
100
AcDbArc
 50
0.0
 51
8.108875714719956
  0
ARC
  5
182
330
1F
100
AcDbEntity
  8
0
 62
     7
100
AcDbCircle
 10
-0.8999938964844034
 20
-24.25
 30
0.0
 40
2.0
100
AcDbArc
 50
270.0000179860899
 51
360.0
  0
ARC
  5
183
330
1F
100
AcDbEntity
  8
0
 62
     7
100
AcDbCircle
 10
-20.1000061035156
 20
20.6499938964844
 30
0.0
 40
2.0
100
AcDbArc
 50
89.99998201391099
 51
179.9999640278211
  0
ARC
  5
184
330
1F
100
AcDbEntity
  8
0
 62
     7
100
AcDbCircle
 10
-0.8999938964844034
 20
20.6499938964844
 30
0.0
 40
2.0
100
AcDbArc
 50
0.0
 51
89.99998201391099
  0
ARC
  5
185
330
1F
100
AcDbEntity
  8
0
 62
     7
100
AcDbCircle
 10
-7.699981689453097
 20
15.3999938964844
 30
0.0
 40
10.10000038146973
100
AcDbArc
 50
172.0199125110369
 51
179.9999640278214
  0
ARC
  5
186
330
1F
100
AcDbEntity
  8
0
 62
     7
100
AcDbCircle
 10
2.600006103515597
 20
15.3999938964844
 30
0.0
 40
10.10000038146973
100
AcDbArc
 50
172.206403996135
 51
179.9999640278214
  0
CIRCLE
  5
187
330
1F
100
AcDbEntity
  8
0
 62
     7
100
AcDbCircle
 10
109.5
 20
-1.800003051757813
 30
0.0
 40
4.764999866485596
  0
ARC
  5
188
330
1F
100
AcDbEntity
  8
0
 62
     7
100
AcDbCircle
 10
-22.20001220703125
 20
12.59999084472656
 30
0.0
 40
0.4000000059604645
100
AcDbArc
 50
179.9999640278213
 51
269.9999460417327
  0
ARC
  5
189
330
1F
100
AcDbEntity
  8
0
 62
     7
100
AcDbCircle
 10
-18.19998168945313
 20
12.59999084472656
 30
0.0
 40
0.4000000059604645
100
AcDbArc
 50
269.9999633445768
 51
360.0
  0
ARC
  5
18A
330
1F
100
AcDbEntity
  8
0
 62
     7
100
AcDbCircle
 10
-7.699981689453125
 20
15.39999389648438
 30
0.0
 40
10.10000038146973
100
AcDbArc
 50
179.0923001890183
 51
179.9999640278214
  0
ARC
  5
18B
330
1F
100
AcDbEntity
  8
0
 62
     7
100
AcDbCircle
 10
-23.60000610351563
 20
15.39999389648438
 30
0.0
 40
10.10000038146973
100
AcDbArc
 50
0.0
 51
0.907713998004704
  0
ARC
  5
18C
330
1F
100
AcDbEntity
  8
0
 62
     7
100
AcDbCircle
 10
1.20001220703125
 20
12.59999084472656
 30
0.0
 40
0.4000000059604645
100
AcDbArc
 50
270.0000179860901
 51
360.0
  0
ARC
  5
18D
330
1F
100
AcDbEntity
  8
0
 62
     7
100
AcDbCircle
 10
-2.800018310546875
 20
12.59999084472656
 30
0.0
 40
0.4000000059604645
100
AcDbArc
 50
179.9999640278213
 51
270.0000006832462
  0
ARC
  5
18E
330
1F
100
AcDbEntity
  8
0
 62
     7
100
AcDbCircle
 10
-13.30001831054688
 20
15.39999389648438
 30
0.0
 40
10.10000038146973
100
AcDbArc
 50
0.0
 51
0.9076638388029875
  0
ARC
  5
18F
330
1F
100
AcDbEntity
  8
0
 62
     7
100
AcDbCircle
 10
2.600006103515625
 20
15.39999389648438
 30
0.0
 40
10.10000038146973
100
AcDbArc
 50
179.0922455475051
 51
179.9999640278214
  0
LINE
  5
190
330
1F
100
AcDbEntity
  8
0
  6
CENTER
 62
     7
100
AcDbLine
 10
79.5
 20
-1.800003051757813
 30
0.0
 11
139.5
 21
-1.800003051757813
 31
0.0
  0
LINE
  5
191
330
1F
100
AcDbEntity
  8
0
  6
CENTER
 62
     7
100
AcDbLine
 10
109.5
 20
28.19999694824219
 30
0.0
 11
109.5
 21
-31.8000030517578
 31
0.0
  0
LINE
  5
192
330
1F
100
AcDbEntity
  8
0
  6
CENTER
 62
     7
100
AcDbLine
 10
-27.5
 20
15.98295593261719
 30
0.0
 11
-27.5
 21
1.450210571289091
 31
0.0
  0
LINE
  5
193
330
1F
100
AcDbEntity
  8
0
  6
CENTER
 62
     7
100
AcDbLine
 10
-35.5
 20
-1.800003051757813
 30
0.0
 11
14.5
 21
-1.800003051757813
 31
0.0
  0
LINE
  5
194
330
1F
100
AcDbEntity
  8
0
  6
CENTER
 62
     7
100
AcDbLine
 10
6.5
 20
15.98295593261719
 30
0.0
 11
6.5
 21
1.450210571289091
 31
0.0
  0
LINE
  5
195
330
1F
100
AcDbEntity
  8
0
  6
CENTER
 62
     7
100
AcDbLine
 10
2.548004150390597
 20
18.09999084472659
 30
0.0
 11
-23.375
 21
18.09999084472659
 31
0.0
  0
CIRCLE
  5
196
330
1F
100
AcDbEntity
  8
0
  6
CENTER
 62
     7
100
AcDbCircle
 10
109.5
 20
-1.800003051757813
 30
0.0
 40
19.89999961853027
  0
LINE
  5
197
330
1F
100
AcDbEntity
  8
0
  6
DIVIDE
 62
     9
100
AcDbLine
 10
-14.7135009765625
 20
20.19999694824219
 30
0.0
 11
-15.6499938964844
 21
20.19999694824219
 31
0.0
  0
LINE
  5
198
330
1F
100
AcDbEntity
  8
0
  6
DIVIDE
 62
     9
100
AcDbLine
 10
-16.58648681640631
 20
20.19999694824219
 30
0.0
 11
-15.6499938964844
 21
20.19999694824219
 31
0.0
  0
LINE
  5
199
330
1F
100
AcDbEntity
  8
0
  6
DIVIDE
 62
     9
100
AcDbLine
 10
-6.2864990234375
 20
20.19999694824219
 30
0.0
 11
-5.350006103515597
 21
20.19999694824219
 31
0.0
  0
LINE
  5
19A
330
1F
100
AcDbEntity
  8
0
  6
DIVIDE
 62
     9
100
AcDbLine
 10
-4.413513183593807
 20
20.19999694824219
 30
0.0
 11
-5.350006103515597
 21
20.19999694824219
 31
0.0
  0
LINE
  5
19B
330
1F
100
AcDbEntity
  8
0
  6
DIVIDE
 62
     9
100
AcDbLine
 10
4.399993896484403
 20
14.19999694824219
 30
0.0
 11
4.399993896484403
 21
2.964996337890597
 31
0.0
  0
LINE
  5
19C
330
1F
100
AcDbEntity
  8
0
  6
DIVIDE
 62
     9
100
AcDbLine
 10
-17.03999328613281
 20
20.94999694824219
 30
0.0
 11
-14.25999450683591
 21
20.94999694824219
 31
0.0
  0
LINE
  5
19D
330
1F
100
AcDbEntity
  8
0
  6
DIVIDE
 62
     9
100
AcDbLine
 10
-18.03999328613281
 20
19.94999694824219
 30
0.0
 11
-18.03999328613281
 21
16.83677673339841
 31
0.0
  0
LINE
  5
19E
330
1F
100
AcDbEntity
  8
0
  6
DIVIDE
 62
     9
100
AcDbLine
 10
-2.960006713867188
 20
19.94999694824219
 30
0.0
 11
-2.960006713867188
 21
16.88749694824219
 31
0.0
  0
LINE
  5
19F
330
1F
100
AcDbEntity
  8
0
  6
DIVIDE
 62
     9
100
AcDbLine
 10
-13.25999450683591
 20
19.94999694824219
 30
0.0
 11
-13.25999450683591
 21
16.86213684082031
 31
0.0
  0
LINE
  5
1A0
330
1F
100
AcDbEntity
  8
0
  6
DIVIDE
 62
     9
100
AcDbLine
 10
-7.740005493164091
 20
19.94999694824219
 30
0.0
 11
-7.740005493164091
 21
16.83677673339841
 31
0.0
  0
LINE
  5
1A1
330
1F
100
AcDbEntity
  8
0
  6
DIVIDE
 62
     9
100
AcDbLine
 10
-6.740005493164091
 20
20.94999694824219
 30
0.0
 11
-3.960006713867188
 21
20.94999694824219
 31
0.0
  0
LINE
  5
1A2
330
1F
100
AcDbEntity
  8
0
  6
DIVIDE
 62
     9
100
AcDbLine
 10
-30.0
 20
14.19999694824219
 30
0.0
 11
-30.0
 21
2.964996337890597
 31
0.0
  0
LINE
  5
1A3
330
1F
100
AcDbEntity
  8
0
  6
DIVIDE
 62
     9
100
AcDbLine
 10
-30.0
 20
14.19999694824219
 30
0.0
 11
-30.0
 21
2.964996337890597
 31
0.0
  0
LINE
  5
1A4
330
1F
100
AcDbEntity
  8
0
  6
DIVIDE
 62
     9
100
AcDbLine
 10
-30.0
 20
14.19999694824219
 30
0.0
 11
-30.0
 21
2.964996337890597
 31
0.0
  0
LINE
  5
1A5
330
1F
100
AcDbEntity
  8
0
  6
DIVIDE
 62
     9
100
AcDbLine
 10
-30.0
 20
14.19999694824219
 30
0.0
 11
-30.0
 21
2.964996337890597
 31
0.0
  0
LINE
  5
1A6
330
1F
100
AcDbEntity
  8
0
  6
DIVIDE
 62
     9
100
AcDbLine
 10
8.600006103515597
 20
14.19999694824219
 30
0.0
 11
8.600006103515597
 21
2.964996337890597
 31
0.0
  0
LINE
  5
1A7
330
1F
100
AcDbEntity
  8
0
  6
DIVIDE
 62
     9
100
AcDbLine
 10
-25.3999938964844
 20
14.19999694824219
 30
0.0
 11
-25.3999938964844
 21
2.964996337890597
 31
0.0
  0
LINE
  5
1A8
330
1F
100
AcDbEntity
  8
0
  6
DIVIDE
 62
     9
100
AcDbLine
 10
-29.6000061035156
 20
14.19999694824219
 30
0.0
 11
-29.6000061035156
 21
2.964996337890597
 31
0.0
  0
LINE
  5
1A9
330
1F
100
AcDbEntity
  8
0
  6
DIVIDE
 62
     9
100
AcDbLine
 10
-30.0
 20
14.19999694824219
 30
0.0
 11
-30.0
 21
2.964996814727783
 31
0.0
  0
LINE
  5
1AA
330
1F
100
AcDbEntity
  8
0
  6
DIVIDE
 62
     9
100
AcDbLine
 10
-25.0
 20
14.19999694824219
 30
0.0
 11
-25.0
 21
2.964996814727783
 31
0.0
  0
LINE
  5
1AB
330
1F
100
AcDbEntity
  8
0
  6
DIVIDE
 62
     9
100
AcDbLine
 10
9.0
 20
14.19999694824219
 30
0.0
 11
9.0
 21
2.964996814727783
 31
0.0
  0
LINE
  5
1AC
330
1F
100
AcDbEntity
  8
0
  6
DIVIDE
 62
     9
100
AcDbLine
 10
4.0
 20
14.19999694824219
 30
0.0
 11
4.0
 21
2.964996814727783
 31
0.0
  0
ARC
  5
1AD
330
1F
100
AcDbEntity
  8
0
  6
DIVIDE
 62
     9
100
AcDbCircle
 10
-7.699981689453097
 20
15.3999938964844
 30
0.0
 40
10.10000038146973
100
AcDbArc
 50
151.6245305172721
 51
172.0875860253334
  0
ARC
  5
1AE
330
1F
100
AcDbEntity
  8
0
  6
DIVIDE
 62
     9
100
AcDbCircle
 10
2.600006103515597
 20
15.3999938964844
 30
0.0
 40
10.10000038146973
100
AcDbArc
 50
151.6245305172721
 51
172.2732305669743
  0
ARC
  5
1AF
330
1F
100
AcDbEntity
  8
0
  6
DIVIDE
 62
     9
100
AcDbCircle
 10
-17.03999328613281
 20
19.94999694824219
 30
0.0
 40
1.0
100
AcDbArc
 50
89.99998201391099
 51
179.999964027822
  0
ARC
  5
1B0
330
1F
100
AcDbEntity
  8
0
  6
DIVIDE
 62
     9
100
AcDbCircle
 10
-14.25999450683591
 20
19.94999694824219
 30
0.0
 40
1.0
100
AcDbArc
 50
0.0
 51
89.99998201391099
  0
ARC
  5
1B1
330
1F
100
AcDbEntity
  8
0
  6
DIVIDE
 62
     9
100
AcDbCircle
 10
-6.740005493164091
 20
19.94999694824219
 30
0.0
 40
1.0
100
AcDbArc
 50
89.99998201391099
 51
179.999964027822
  0
ARC
  5
1B2
330
1F
100
AcDbEntity
  8
0
  6
DIVIDE
 62
     9
100
AcDbCircle
 10
-3.960006713867188
 20
19.94999694824219
 30
0.0
 40
1.0
100
AcDbArc
 50
0.0
 51
89.99998201391099
  0
ARC
  5
1B3
330
1F
100
AcDbEntity
  8
0
  6
DIVIDE
 62
     9
100
AcDbCircle
 10
-23.6000061035156
 20
15.3999938964844
 30
0.0
 40
10.10000038146973
100
AcDbArc
 50
8.061843885869021
 51
28.37543351054932
  0
ARC
  5
1B4
330
1F
100
AcDbEntity
  8
0
  6
DIVIDE
 62
     9
100
AcDbCircle
 10
-13.3000183105469
 20
15.3999938964844
 30
0.0
 40
10.10000038146973
100
AcDbArc
 50
8.450637036446315
 51
28.37543351054932
  0
TEXT
  5
1B6
330
1F
100
AcDbEntity
  8
0
 62
     7
100
AcDbText
 10
153.5321421659354
 20
-109.8750183582306
 30
0.0
 40
4.150000095367432
  1
ＣＮ３１３
 41
0.6600000138340222
  7
FDASTYLE0
 72
     5
 11
173.0964288747672
 21
-109.8750183582306
 31
0.0
100
AcDbText
  0
VIEWPORT
  5
2B
330
1B
100
AcDbEntity
 67
     1
  8
0
100
AcDbViewport
 10
64.68749988024145
 20
-40.8375107049942
 30
0.0
 40
601.1249992814487
 41
414.2250459194183
 68
     1
 69
     1
1001
ACAD
1000
MVIEW
1002
{
1070
    16
1010
0.0
1020
0.0
1030
0.0
1010
0.0
1020
0.0
1030
1.0
1040
0.0
1040
414.2250459194183
1040
64.68749988024145
1040
-40.8375107049942
1040
50.0
1040
0.0
1040
0.0
1070
     0
1070
   100
1070
     0
1070
     1
1070
     0
1070
     0
1070
     0
1070
     0
1040
0.0
1040
0.0
1040
0.0
1040
0.5
1040
0.5
1040
0.0
1040
0.0
1070
     0
1002
{
1002
}
1002
}
  0
ENDSEC
  0
SECTION
  2
OBJECTS
  0
DICTIONARY
  5
C
330
0
100
AcDbDictionary
  3
ACAD_GROUP
350
D
  3
ACAD_LAYOUT
350
1A
  3
ACAD_MLINESTYLE
350
17
  3
ACAD_PLOTSETTINGS
350
19
  3
ACDBHEADERROUNDTRIPXREC
350
1B7
  0
DICTIONARY
  5
D
102
{ACAD_REACTORS
330
C
102
}
330
C
100
AcDbDictionary
  0
DICTIONARY
  5
1A
102
{ACAD_REACTORS
330
C
102
}
330
C
100
AcDbDictionary
  0
DICTIONARY
  5
17
102
{ACAD_REACTORS
330
C
102
}
330
C
100
AcDbDictionary
  3
STANDARD
350
18
  0
DICTIONARY
  5
19
102
{ACAD_REACTORS
330
C
102
}
330
C
100
AcDbDictionary
  0
DICTIONARY
  5
1B7
102
{ACAD_REACTORS
330
C
102
}
330
C
100
AcDbDictionary
  3
CEPSNTYPE
350
1C0
  3
DIMSTYLEDATA
350
1D6
  3
FINGERPRINTGUID
350
1C1
  3
HYPERLINKBASE
350
1BA
  3
INSUNITS
350
1BF
  3
LAYOUTDICT
350
1BC
  3
LWETCUNION
350
1BE
  3
PLOTSETDICT
350
1BD
  3
PSVPSCALE
350
1C3
  3
PUCSBASE
350
1C6
  3
PUCSORGBACK
350
1CC
  3
PUCSORGBOTTOM
350
1C8
  3
PUCSORGFRONT
350
1CB
  3
PUCSORGLEFT
350
1C9
  3
PUCSORGRIGHT
350
1CA
  3
PUCSORGTOP
350
1C7
  3
PUCSORTHOREF
350
1C4
  3
PUCSORTHOVIEW
350
1C5
  3
STYLESHEET
350
1BB
  3
TSTACKALIGN
350
1B8
  3
TSTACKSIZE
350
1B9
  3
UCSBASE
350
1CF
  3
UCSORGBACK
350
1D5
  3
UCSORGBOTTOM
350
1D1
  3
UCSORGFRONT
350
1D4
  3
UCSORGLEFT
350
1D2
  3
UCSORGRIGHT
350
1D3
  3
UCSORGTOP
350
1D0
  3
UCSORTHOREF
350
1CD
  3
UCSORTHOVIEW
350
1CE
  3
VERSIONGUID
350
1C2
  0
MLINESTYLE
  5
18
102
{ACAD_REACTORS
330
17
102
}
330
17
100
AcDbMlineStyle
  2
Standard
 70
     0
  3

 62
   256
 51
90.0
 52
90.0
 71
     2
 49
0.5
 62
   256
  6
BYLAYER
 49
-0.5
 62
   256
  6
BYLAYER
  0
XRECORD
  5
1C0
102
{ACAD_REACTORS
330
1B7
102
}
330
1B7
100
AcDbXrecord
 90
        0
  0
XRECORD
  5
1D6
102
{ACAD_REACTORS
330
1B7
102
}
330
1B7
100
AcDbXrecord
1000
DSTYLE
1002
{
1070
   171
 70
     2
1070
   143
 40
25.4
1070
   274
 70
     2
1070
   141
 40
0.09
1070
   271
 70
     4
1070
    43
 40
0.38
1070
    44
 40
0.18
1070
   278
 70
    46
1070
    42
 40
0.0625
1070
   147
 40
0.09
1070
    77
 70
     3
1070
   272
 70
     4
1070
    73
 70
     1
1070
   172
 70
     0
1070
    74
 70
     1
1070
   283
 70
     1
1070
   340
340
11
1070
   140
 40
0.18
1070
   284
 70
     0
1070
    78
 70
     0
1002
}
  0
XRECORD
  5
1C1
102
{ACAD_REACTORS
330
1B7
102
}
330
1B7
100
AcDbXrecord
  1
{9A3F0CAA-D1EA-41BC-93D8-F123B38F754B}
  0
XRECORD
  5
1BA
102
{ACAD_REACTORS
330
1B7
102
}
330
1B7
100
AcDbXrecord
  1

  0
XRECORD
  5
1BF
102
{ACAD_REACTORS
330
1B7
102
}
330
1B7
100
AcDbXrecord
 90
        4
  0
XRECORD
  5
1BC
102
{ACAD_REACTORS
330
1B7
102
}
330
1B7
100
AcDbXrecord
340
1A
  0
XRECORD
  5
1BE
102
{ACAD_REACTORS
330
1B7
102
}
330
1B7
100
AcDbXrecord
 90
    10781
  0
XRECORD
  5
1BD
102
{ACAD_REACTORS
330
1B7
102
}
330
1B7
100
AcDbXrecord
340
19
  0
XRECORD
  5
1C3
102
{ACAD_REACTORS
330
1B7
102
}
330
1B7
100
AcDbXrecord
 40
0.0
  0
XRECORD
  5
1C6
102
{ACAD_REACTORS
330
1B7
102
}
330
1B7
100
AcDbXrecord
340
0
  0
XRECORD
  5
1CC
102
{ACAD_REACTORS
330
1B7
102
}
330
1B7
100
AcDbXrecord
 10
0.0
 20
0.0
 30
0.0
  0
XRECORD
  5
1C8
102
{ACAD_REACTORS
330
1B7
102
}
330
1B7
100
AcDbXrecord
 10
0.0
 20
0.0
 30
0.0
  0
XRECORD
  5
1CB
102
{ACAD_REACTORS
330
1B7
102
}
330
1B7
100
AcDbXrecord
 10
0.0
 20
0.0
 30
0.0
  0
XRECORD
  5
1C9
102
{ACAD_REACTORS
330
1B7
102
}
330
1B7
100
AcDbXrecord
 10
0.0
 20
0.0
 30
0.0
  0
XRECORD
  5
1CA
102
{ACAD_REACTORS
330
1B7
102
}
330
1B7
100
AcDbXrecord
 10
0.0
 20
0.0
 30
0.0
  0
XRECORD
  5
1C7
102
{ACAD_REACTORS
330
1B7
102
}
330
1B7
100
AcDbXrecord
 10
0.0
 20
0.0
 30
0.0
  0
XRECORD
  5
1C4
102
{ACAD_REACTORS
330
1B7
102
}
330
1B7
100
AcDbXrecord
340
0
  0
XRECORD
  5
1C5
102
{ACAD_REACTORS
330
1B7
102
}
330
1B7
100
AcDbXrecord
 70
     0
  0
XRECORD
  5
1BB
102
{ACAD_REACTORS
330
1B7
102
}
330
1B7
100
AcDbXrecord
  1

  0
XRECORD
  5
1B8
102
{ACAD_REACTORS
330
1B7
102
}
330
1B7
100
AcDbXrecord
 90
        1
  0
XRECORD
  5
1B9
102
{ACAD_REACTORS
330
1B7
102
}
330
1B7
100
AcDbXrecord
 90
       70
  0
XRECORD
  5
1CF
102
{ACAD_REACTORS
330
1B7
102
}
330
1B7
100
AcDbXrecord
340
0
  0
XRECORD
  5
1D5
102
{ACAD_REACTORS
330
1B7
102
}
330
1B7
100
AcDbXrecord
 10
0.0
 20
0.0
 30
0.0
  0
XRECORD
  5
1D1
102
{ACAD_REACTORS
330
1B7
102
}
330
1B7
100
AcDbXrecord
 10
0.0
 20
0.0
 30
0.0
  0
XRECORD
  5
1D4
102
{ACAD_REACTORS
330
1B7
102
}
330
1B7
100
AcDbXrecord
 10
0.0
 20
0.0
 30
0.0
  0
XRECORD
  5
1D2
102
{ACAD_REACTORS
330
1B7
102
}
330
1B7
100
AcDbXrecord
 10
0.0
 20
0.0
 30
0.0
  0
XRECORD
  5
1D3
102
{ACAD_REACTORS
330
1B7
102
}
330
1B7
100
AcDbXrecord
 10
0.0
 20
0.0
 30
0.0
  0
XRECORD
  5
1D0
102
{ACAD_REACTORS
330
1B7
102
}
330
1B7
100
AcDbXrecord
 10
0.0
 20
0.0
 30
0.0
  0
XRECORD
  5
1CD
102
{ACAD_REACTORS
330
1B7
102
}
330
1B7
100
AcDbXrecord
340
0
  0
XRECORD
  5
1CE
102
{ACAD_REACTORS
330
1B7
102
}
330
1B7
100
AcDbXrecord
 70
     0
  0
XRECORD
  5
1C2
102
{ACAD_REACTORS
330
1B7
102
}
330
1B7
100
AcDbXrecord
  1
{FAEB1C32-E019-11D5-929B-00C0DF256EC4}
  0
ENDSEC
  0
EOF
