  0
SECTION
  2
HEADER
  9
$ACADVER
  1
AC1014
  9
$ACADMAINTVER
 70
         0
  9
$DWGCODEPAGE
  3
ANSI_932
  9
$INSBASE
 10
0.0
 20
0.0
 30
0.0
  9
$EXTMIN
 10
-54.999995
 20
-199.7749544124
 30
0.0
  9
$EXTMAX
 10
347.999988
 20
181.038959
 30
0.0
  9
$LIMMIN
 10
-54.999995
 20
-199.7749544124
  9
$LIMMAX
 10
347.999988
 20
181.038959
  9
$ORTHOMODE
 70
         0
  9
$REGENMODE
 70
         1
  9
$FILLMODE
 70
         1
  9
$QTEXTMODE
 70
         0
  9
$MIRRTEXT
 70
         1
  9
$DRAGMODE
 70
         2
  9
$LTSCALE
 40
1.0
  9
$OSMODE
 70
         0
  9
$ATTMODE
 70
         1
  9
$TEXTSIZE
 40
3.2000000477
  9
$TRACEWID
 40
0.05
  9
$TEXTSTYLE
  7
MX_NOTE_STANDARD
  9
$CLAYER
  8
LY_3
  9
$CELTYPE
  6
CONTINUOUS
  9
$CECOLOR
 62
       256
  9
$CELTSCALE
 40
1.0
  9
$DELOBJ
 70
         1
  9
$DISPSILH
 70
         0
  9
$DIMSCALE
 40
1.0
  9
$DIMASZ
 40
2.5
  9
$DIMEXO
 40
0.0
  9
$DIMDLI
 40
3.75
  9
$DIMRND
 40
0.0
  9
$DIMDLE
 40
0.0
  9
$DIMEXE
 40
2.5
  9
$DIMTP
 40
0.0
  9
$DIMTM
 40
0.0
  9
$DIMTXT
 40
3.2000000477
  9
$DIMCEN
 40
2.5
  9
$DIMTSZ
 40
0.0
  9
$DIMTOL
 70
         0
  9
$DIMLIM
 70
         0
  9
$DIMTIH
 70
         0
  9
$DIMTOH
 70
         0
  9
$DIMSE1
 70
         0
  9
$DIMSE2
 70
         0
  9
$DIMTAD
 70
         1
  9
$DIMZIN
 70
         8
  9
$DIMBLK
  1

  9
$DIMASO
 70
         1
  9
$DIMSHO
 70
         1
  9
$DIMPOST
  1

  9
$DIMAPOST
  1

  9
$DIMALT
 70
         0
  9
$DIMALTD
 70
         4
  9
$DIMALTF
 40
0.0393700787
  9
$DIMLFAC
 40
1.0
  9
$DIMTOFL
 70
         1
  9
$DIMTVP
 40
0.0
  9
$DIMTIX
 70
         0
  9
$DIMSOXD
 70
         0
  9
$DIMSAH
 70
         1
  9
$DIMBLK1
  1
_OPEN30
  9
$DIMBLK2
  1
_OPEN30
  9
$DIMSTYLE
  2
MXDIMSTYLE
  9
$DIMCLRD
 70
         0
  9
$DIMCLRE
 70
         0
  9
$DIMCLRT
 70
         0
  9
$DIMTFAC
 40
1.0
  9
$DIMGAP
 40
1.0
  9
$DIMJUST
 70
         0
  9
$DIMSD1
 70
         0
  9
$DIMSD2
 70
         0
  9
$DIMTOLJ
 70
         0
  9
$DIMTZIN
 70
         0
  9
$DIMALTZ
 70
         0
  9
$DIMALTTZ
 70
         0
  9
$DIMFIT
 70
         3
  9
$DIMUPT
 70
         0
  9
$DIMUNIT
 70
         2
  9
$DIMDEC
 70
         2
  9
$DIMTDEC
 70
         2
  9
$DIMALTU
 70
         2
  9
$DIMALTTD
 70
         4
  9
$DIMTXSTY
  7
MX_NOTE_STANDARD
  9
$DIMAUNIT
 70
         0
  9
$LUNITS
 70
         2
  9
$LUPREC
 70
         4
  9
$SKETCHINC
 40
0.1
  9
$FILLETRAD
 40
0.0
  9
$AUNITS
 70
         0
  9
$AUPREC
 70
         0
  9
$MENU
  1
acad
  9
$ELEVATION
 40
0.0
  9
$PELEVATION
 40
0.0
  9
$THICKNESS
 40
0.0
  9
$LIMCHECK
 70
         0
  9
$BLIPMODE
 70
         1
  9
$CHAMFERA
 40
0.0
  9
$CHAMFERB
 40
0.0
  9
$CHAMFERC
 40
0.0
  9
$CHAMFERD
 40
0.0
  9
$SKPOLY
 70
         0
  9
$TDCREATE
 40
2456603.417384259
  9
$TDUPDATE
 40
2456603.417384259
  9
$TDINDWG
 40
0.0000000000
  9
$TDUSRTIMER
 40
0.0000000000
  9
$USRTIMER
 70
         1
  9
$ANGBASE
 50
0.0
  9
$ANGDIR
 70
         0
  9
$PDMODE
 70
         0
  9
$PDSIZE
 40
0.0
  9
$PLINEWID
 40
0.0
  9
$COORDS
 70
         1
  9
$SPLFRAME
 70
         0
  9
$SPLINETYPE
 70
         6
  9
$SPLINESEGS
 70
         8
  9
$ATTDIA
 70
         0
  9
$ATTREQ
 70
         1
  9
$HANDLING
 70
         1
  9
$HANDSEED
  5
1BA
  9
$SURFTAB1
 70
         6
  9
$SURFTAB2
 70
         6
  9
$SURFTYPE
 70
         6
  9
$SURFU
 70
         6
  9
$SURFV
 70
         6
  9
$UCSNAME
  2

  9
$UCSORG
 10
0.0
 20
0.0
 30
0.0
  9
$UCSXDIR
 10
1.0
 20
0.0
 30
0.0
  9
$UCSYDIR
 10
0.0
 20
1.0
 30
0.0
  9
$PUCSNAME
  2

  9
$PUCSORG
 10
0.0
 20
0.0
 30
0.0
  9
$PUCSXDIR
 10
1.0
 20
0.0
 30
0.0
  9
$PUCSYDIR
 10
0.0
 20
1.0
 30
0.0
  9
$USERI1
 70
         0
  9
$USERI2
 70
         0
  9
$USERI3
 70
         0
  9
$USERI4
 70
         0
  9
$USERI5
 70
         0
  9
$USERR1
 40
0.0
  9
$USERR2
 40
0.0
  9
$USERR3
 40
0.0
  9
$USERR4
 40
0.0
  9
$USERR5
 40
0.0
  9
$WORLDVIEW
 70
         1
  9
$SHADEDGE
 70
         3
  9
$SHADEDIF
 70
        70
  9
$TILEMODE
 70
         1
  9
$MAXACTVP
 70
        16
  9
$PINSBASE
 10
0.0
 20
0.0
 30
0.0
  9
$PLIMCHECK
 70
         0
  9
$PEXTMIN
 10
1.0000000000E+20
 20
1.0000000000E+20
 30
1.0000000000E+20
  9
$PEXTMAX
 10
-1.0000000000E+20
 20
-1.0000000000E+20
 30
-1.0000000000E+20
  9
$PLIMMIN
 10
0.0
 20
0.0
  9
$PLIMMAX
 10
12.0
 20
9.0
  9
$UNITMODE
 70
         0
  9
$VISRETAIN
 70
         0
  9
$PLINEGEN
 70
         1
  9
$PSLTSCALE
 70
         0
  9
$TREEDEPTH
 70
      3020
  9
$PICKSTYLE
 70
         1
  9
$CMLSTYLE
  2
Standard
  9
$CMLJUST
 70
         0
  9
$CMLSCALE
 40
1.0
  9
$PROXYGRAPHICS
 70
         0
  9
$MEASUREMENT
 70
         1
  0
ENDSEC
  0
SECTION
  2
CLASSES
  0
CLASS
  1
LWPOLYLINE
  2
AcDbPolyline
  3
"AutoCAD"
 90
        0
280
         0
281
         1
  0
CLASS
  1
IMAGE
  2
AcDbRasterImage
  3
ISM
 90
      127
280
         0
281
         1
  0
CLASS
  1
OLE2FRAME
  2
AcDbOle2Frame
  3
""
 90
        0
280
         0
281
         1
  0
CLASS
  1
HATCH
  2
AcDbHatch
  3
"ACAD_SEDONA"
 90
        0
280
         0
281
         1
  0
CLASS
  1
DICTIONARYVAR
  2
AcDbDictionaryVar
  3
"AutoCAD"
 90
        0
280
         0
281
         0
  0
CLASS
  1
RASTERVARIABLES
  2
AcDbRasterVariables
  3
ISM
 90
        0
280
         0
281
         0
  0
CLASS
  1
IMAGEDEF
  2
AcDbRasterImageDef
  3
ISM
 90
        0
280
         0
281
         0
  0
CLASS
  1
IMAGEDEF_REACTOR
  2
AcDbRasterImageDefReactor
  3
ISM
 90
        1
280
         0
281
         0
  0
CLASS
  1
IDBUFFER
  2
AcDbIdBuffer
  3
"Acad"
 90
        0
280
         0
281
         0
  0
CLASS
  1
SPATIAL_FILTER
  2
AcDbSpatialFilter
  3
"Acad"
 90
        0
280
         0
281
         0
  0
CLASS
  1
XRECORD
  2
AcDbXrecord
  3
"<Built In>"
 90
        0
280
         0
281
         0
  0
CLASS
  1
SORTENTSTABLE
  2
AcDbSortentsTable
  3
"AutoCAD"
 90
        0
280
         0
281
         0
  0
CLASS
  1
LAYER_INDEX
  2
AcDbLayerIndex
  3
"Acad"
 90
        0
280
         0
281
         0
  0
CLASS
  1
SPATIAL_INDEX
  2
AcDbSpatialIndex
  3
"Acad"
 90
        0
280
         0
281
         0
  0
CLASS
  1
OBJECT_PTR
  2
CAseDLPNTableRecord
  3
"ASE-LPNTableRecord"
 90
        1
280
         0
281
         0
  0
CLASS
  1
LAYOUT
  2
AcDbLayout
  3
"AutoCAD 2000"
 90
        0
280
         0
281
         0
  0
CLASS
  1
PLOTSETTINGS
  2
AcDbPlotSettings
  3
"AutoCAD 2000"
 90
        0
280
         0
281
         0
  0
CLASS
  1
ACDBDICTIONARYWDFLT
  2
AcDbDictionaryWithDefault
  3
"AutoCAD 2000"
 90
        0
280
         0
281
         0
  0
CLASS
  1
ACDBPLACEHOLDER
  2
AcDbPlaceHolder
  3
"AutoCAD 2000"
 90
        0
280
         0
281
         0
  0
ENDSEC
  0
SECTION
  2
TABLES
  0
TABLE
  2
VPORT
  5
7
100
AcDbSymbolTable
 70
         1
  0
VPORT
  5
15
100
AcDbSymbolTableRecord
100
AcDbViewportTableRecord
  2
*ACTIVE
 70
         0
 10
0.0
 20
0.0
 11
1.0
 21
1.0
 12
146.4999965
 22
-9.3679977062
 13
0.0
 23
0.0
 14
1.0
 24
1.0
 15
0.0
 25
0.0
 16
0.0
 26
0.0
 36
1.0
 17
0.0
 27
0.0
 37
0.0
 40
384.6220525465
 41
1.7320508076
 42
50.0
 43
0.0
 44
0.0
 50
0.0
 51
0.0
 71
         0
 72
       100
 73
         1
 74
         1
 75
         0
 76
         0
 77
         0
 78
         0
  0
ENDTAB
  0
TABLE
  2
LTYPE
  5
4
100
AcDbSymbolTable
 70
         5
  0
LTYPE
  5
11
100
AcDbSymbolTableRecord
100
AcDbLinetypeTableRecord
  2
BYBLOCK
 70
        64
  3

 72
        65
 73
         0
 40
0.0
  0
LTYPE
  5
12
100
AcDbSymbolTableRecord
100
AcDbLinetypeTableRecord
  2
BYLAYER
 70
        64
  3

 72
        65
 73
         0
 40
0.0
  0
LTYPE
  5
13
100
AcDbSymbolTableRecord
100
AcDbLinetypeTableRecord
  2
CONTINUOUS
 70
        64
  3
Solid line
 72
        65
 73
         0
 40
0.0
  0
LTYPE
  5
26
100
AcDbSymbolTableRecord
100
AcDbLinetypeTableRecord
  2
DASHED
 70
        64
  3
Dashed __ __ __ __ __ __ __ __ __ __ __ __ __ _
 72
        65
 73
         2
 40
19.05
 49
12.7
 74
         0
 49
-6.35
 74
         0
  0
LTYPE
  5
EC
100
AcDbSymbolTableRecord
100
AcDbLinetypeTableRecord
  2
CENTER
 70
        64
  3
Center ____ _ ____ _ ____ _ ____ _ ____ _ ____
 72
        65
 73
         4
 40
50.8
 49
31.75
 74
         0
 49
-6.35
 74
         0
 49
6.35
 74
         0
 49
-6.35
 74
         0
  0
ENDTAB
  0
TABLE
  2
LAYER
  5
2
100
AcDbSymbolTable
 70
         3
  0
LAYER
  5
14
100
AcDbSymbolTableRecord
100
AcDbLayerTableRecord
  2
0
 70
         0
 62
         7
  6
CONTINUOUS
  0
LAYER
  5
1D
100
AcDbSymbolTableRecord
100
AcDbLayerTableRecord
  2
DEFPOINTS
 70
         0
 62
         7
  6
CONTINUOUS
  0
LAYER
  5
1E
100
AcDbSymbolTableRecord
100
AcDbLayerTableRecord
  2
LY_3
 70
         0
 62
       254
  6
CONTINUOUS
  0
ENDTAB
  0
TABLE
  2
STYLE
  5
3
100
AcDbSymbolTable
 70
         1
  0
STYLE
  5
17
100
AcDbSymbolTableRecord
100
AcDbTextStyleTableRecord
  2
MX_NOTE_STANDARD
 70
         0
 40
0.0
 41
1.0
 50
0.0
 71
         0
 42
3.2000000477
  3
txt.shx
  4
extfont.shx
  0
ENDTAB
  0
TABLE
  2
VIEW
  5
5
100
AcDbSymbolTable
 70
         0
  0
ENDTAB
  0
TABLE
  2
UCS
  5
6
100
AcDbSymbolTable
 70
         0
  0
ENDTAB
  0
TABLE
  2
APPID
  5
8
100
AcDbSymbolTable
 70
         1
  0
APPID
  5
16
100
AcDbSymbolTableRecord
100
AcDbRegAppTableRecord
  2
ACAD
 70
         0
  0
ENDTAB
  0
TABLE
  2
DIMSTYLE
  5
9
100
AcDbSymbolTable
 70
         1
  0
DIMSTYLE
105
18
100
AcDbSymbolTableRecord
100
AcDbDimStyleTableRecord
  2
MXDIMSTYLE
 70
         0
  3

  4

  5

  6
_OPEN30
  7
_OPEN30
 40
1.0
 41
2.5
 42
0.0
 43
3.75
 44
2.5
 45
0.0
 46
0.0
 47
0.0
 48
0.0
 71
         0
 72
         0
 73
         0
 74
         0
 75
         0
 76
         0
 77
         1
 78
         8
140
3.2000000477
141
2.5
142
0.0
143
0.0393700787
144
1.0
145
0.0
146
1.0
147
1.0
170
         0
171
         4
172
         1
173
         1
174
         0
175
         0
176
         0
177
         0
178
         0
270
         2
271
         2
272
         2
273
         2
274
         4
275
         0
280
         0
281
         0
282
         0
283
         0
284
         0
285
         0
286
         0
287
         3
288
         0
340
17
  0
ENDTAB
  0
TABLE
  2
BLOCK_RECORD
  5
1
100
AcDbSymbolTable
 70
         1
  0
BLOCK_RECORD
  5
A
100
AcDbSymbolTableRecord
100
AcDbBlockTableRecord
  2
*MODEL_SPACE
  0
BLOCK_RECORD
  5
B
100
AcDbSymbolTableRecord
100
AcDbBlockTableRecord
  2
*PAPER_SPACE
  0
BLOCK_RECORD
  5
1F
100
AcDbSymbolTableRecord
100
AcDbBlockTableRecord
  2
_OPEN30
  0
ENDTAB
  0
ENDSEC
  0
SECTION
  2
BLOCKS
  0
BLOCK
  5
D
100
AcDbEntity
  8
0
100
AcDbBlockBegin
  2
*MODEL_SPACE
 70
         0
 10
0.0
 20
0.0
 30
0.0
  3
*MODEL_SPACE
  1

  0
ENDBLK
  5
E
100
AcDbEntity
  8
0
100
AcDbBlockEnd
  0
BLOCK
  5
F
100
AcDbEntity
 67
         1
  8
0
100
AcDbBlockBegin
  2
*PAPER_SPACE
 70
         0
 10
0.0
 20
0.0
 30
0.0
  3
*PAPER_SPACE
  1

  0
ENDBLK
  5
10
100
AcDbEntity
 67
         1
  8
0
100
AcDbBlockEnd
  0
BLOCK
  5
20
100
AcDbEntity
  8
0
  6
ByBlock
 62
         0
100
AcDbBlockBegin
  2
_OPEN30
 70
         2
 10
0.0
 20
0.0
 30
0.0
  3
_OPEN30
  1

  0
LINE
  5
21
100
AcDbEntity
  8
0
  6
ByBlock
 62
         0
100
AcDbLine
 10
-1.0
 20
0.267949
 30
0.0
 11
0.0
 21
0.0
 31
0.0
  0
LINE
  5
22
100
AcDbEntity
  8
0
  6
ByBlock
 62
         0
100
AcDbLine
 10
0.0
 20
0.0
 30
0.0
 11
-1.0
 21
-0.267949
 31
0.0
  0
LINE
  5
23
100
AcDbEntity
  8
0
  6
ByBlock
 62
         0
100
AcDbLine
 10
0.0
 20
0.0
 30
0.0
 11
-1.0
 21
0.0
 31
0.0
  0
ENDBLK
  5
24
100
AcDbEntity
  8
0
  6
ByBlock
 62
         0
100
AcDbBlockEnd
  0
ENDSEC
  0
SECTION
  2
ENTITIES
  0
MTEXT
  5
25
100
AcDbEntity
  8
LY_3
  6
CONTINUOUS
 62
       110
100
AcDbMText
 10
54.5902468839
 20
-195.5082878808
 30
0.0
 40
3.2000000477
 41
0.0
 71
         1
 72
         1
  1
\W1.050;\A1;TSUBAKI
  0
LINE
  5
27
100
AcDbEntity
  8
LY_3
  6
DASHED
 62
        80
100
AcDbLine
 10
12.000045
 20
163.099976
 30
0.0
 11
0.0
 21
162.993781
 31
0.0
  0
ARC
  5
28
100
AcDbEntity
  8
LY_3
  6
CONTINUOUS
 62
         3
100
AcDbCircle
 10
341.499973
 20
19.360457
 30
0.0
 40
3.0
100
AcDbArc
 50
119.999997
 51
180.0
  0
ARC
  5
29
100
AcDbEntity
  8
LY_3
  6
CONTINUOUS
 62
         3
100
AcDbCircle
 10
343.99995
 20
44.81085
 30
0.0
 40
3.0
100
AcDbArc
 50
0.0
 51
88.0
  0
ARC
  5
2A
100
AcDbEntity
  8
LY_3
  6
CONTINUOUS
 62
         3
100
AcDbCircle
 10
341.499973
 20
-19.360471
 30
0.0
 40
3.0
100
AcDbArc
 50
180.0
 51
240.000003
  0
ARC
  5
2B
100
AcDbEntity
  8
LY_3
  6
CONTINUOUS
 62
         3
100
AcDbCircle
 10
343.99995
 20
-44.81085
 30
0.0
 40
3.0
100
AcDbArc
 50
272.0
 51
0.0
  0
ARC
  5
2C
100
AcDbEntity
  8
LY_3
  6
CONTINUOUS
 62
         3
100
AcDbCircle
 10
276.000043
 20
44.81085
 30
0.0
 40
3.0
100
AcDbArc
 50
92.0
 51
180.0
  0
ARC
  5
2D
100
AcDbEntity
  8
LY_3
  6
CONTINUOUS
 62
         3
100
AcDbCircle
 10
278.50002
 20
19.360447
 30
0.0
 40
3.0
100
AcDbArc
 50
0.0
 51
60.000003
  0
ARC
  5
2E
100
AcDbEntity
  8
LY_3
  6
CONTINUOUS
 62
         3
100
AcDbCircle
 10
278.50002
 20
-19.36046
 30
0.0
 40
3.0
100
AcDbArc
 50
299.999997
 51
0.0
  0
ARC
  5
2F
100
AcDbEntity
  8
LY_3
  6
CONTINUOUS
 62
         3
100
AcDbCircle
 10
276.000043
 20
-44.81085
 30
0.0
 40
3.0
100
AcDbArc
 50
180.0
 51
268.0
  0
ARC
  5
30
100
AcDbEntity
  8
LY_3
  6
CONTINUOUS
 62
         3
100
AcDbCircle
 10
279.50002
 20
-111.886066
 30
0.0
 40
3.0
100
AcDbArc
 50
271.0
 51
0.0
  0
ARC
  5
31
100
AcDbEntity
  8
LY_3
  6
CONTINUOUS
 62
         3
100
AcDbCircle
 10
303.999997
 20
-111.458418
 30
0.0
 40
3.0
100
AcDbArc
 50
271.0
 51
0.0
  0
ARC
  5
32
100
AcDbEntity
  8
LY_3
  6
CONTINUOUS
 62
         3
100
AcDbCircle
 10
315.999997
 20
-111.458418
 30
0.0
 40
3.0
100
AcDbArc
 50
180.0
 51
269.0
  0
ARC
  5
33
100
AcDbEntity
  8
LY_3
  6
CONTINUOUS
 62
         3
100
AcDbCircle
 10
340.499973
 20
-111.886066
 30
0.0
 40
3.0
100
AcDbArc
 50
180.0
 51
269.0
  0
ARC
  5
34
100
AcDbEntity
  8
LY_3
  6
CONTINUOUS
 62
         3
100
AcDbCircle
 10
347.49998
 20
-23.462022
 30
0.0
 40
5.0
100
AcDbArc
 50
264.260477
 51
268.0
  0
ARC
  5
35
100
AcDbEntity
  8
LY_3
  6
CONTINUOUS
 62
         3
100
AcDbCircle
 10
272.500013
 20
23.462022
 30
0.0
 40
5.0
100
AcDbArc
 50
84.260477
 51
88.0
  0
ARC
  5
36
100
AcDbEntity
  8
LY_3
  6
CONTINUOUS
 62
         3
100
AcDbCircle
 10
274.500021
 20
-116.474027
 30
0.0
 40
1.5
100
AcDbArc
 50
91.0
 51
180.0
  0
ARC
  5
37
100
AcDbEntity
  8
LY_3
  6
CONTINUOUS
 62
         3
100
AcDbCircle
 10
295.00002
 20
39.999983
 30
0.0
 40
3.0
100
AcDbArc
 50
90.0
 51
180.0
  0
ARC
  5
38
100
AcDbEntity
  8
LY_3
  6
CONTINUOUS
 62
         3
100
AcDbCircle
 10
329.499973
 20
24.098645
 30
0.0
 40
3.0
100
AcDbArc
 50
231.021146
 51
0.0
  0
ARC
  5
39
100
AcDbEntity
  8
LY_3
  6
CONTINUOUS
 62
         3
100
AcDbCircle
 10
336.999973
 20
-37.999991
 30
0.0
 40
9.0
100
AcDbArc
 50
128.682188
 51
180.0
  0
ARC
  5
3A
100
AcDbEntity
  8
LY_3
  6
CONTINUOUS
 62
         3
100
AcDbCircle
 10
336.999973
 20
37.999991
 30
0.0
 40
9.0
100
AcDbArc
 50
180.0
 51
231.317812
  0
ARC
  5
3B
100
AcDbEntity
  8
LY_3
  6
CONTINUOUS
 62
         3
100
AcDbCircle
 10
295.00002
 20
-39.999983
 30
0.0
 40
3.0
100
AcDbArc
 50
180.0
 51
270.0
  0
CIRCLE
  5
3C
100
AcDbEntity
  8
LY_3
  6
CONTINUOUS
 62
         3
100
AcDbCircle
 10
309.999997
 20
-66.999997
 30
0.0
 40
5.85004
  0
ARC
  5
3D
100
AcDbEntity
  8
LY_3
  6
CONTINUOUS
 62
         3
100
AcDbCircle
 10
303.999997
 20
-75.616839
 30
0.0
 40
3.0
100
AcDbArc
 50
0.0
 51
55.150089
  0
ARC
  5
3E
100
AcDbEntity
  8
LY_3
  6
CONTINUOUS
 62
         3
100
AcDbCircle
 10
290.50002
 20
-24.098645
 30
0.0
 40
3.0
100
AcDbArc
 50
51.021146
 51
180.0
  0
ARC
  5
3F
100
AcDbEntity
  8
LY_3
  6
CONTINUOUS
 62
         3
100
AcDbCircle
 10
309.999997
 20
-66.999997
 30
0.0
 40
7.499998
100
AcDbArc
 50
180.000036
 51
235.150089
  0
ARC
  5
40
100
AcDbEntity
  8
LY_3
  6
CONTINUOUS
 62
         3
100
AcDbCircle
 10
329.499973
 20
28.632494
 30
0.0
 40
3.0
100
AcDbArc
 50
0.0
 51
51.317812
  0
ARC
  5
41
100
AcDbEntity
  8
LY_3
  6
CONTINUOUS
 62
         3
100
AcDbCircle
 10
309.999997
 20
-66.999997
 30
0.0
 40
7.499998
100
AcDbArc
 50
124.849911
 51
179.999964
  0
ARC
  5
42
100
AcDbEntity
  8
LY_3
  6
CONTINUOUS
 62
         3
100
AcDbCircle
 10
340.499973
 20
-50.916055
 30
0.0
 40
3.0
100
AcDbArc
 50
99.593997
 51
180.0
  0
ARC
  5
43
100
AcDbEntity
  8
LY_3
  6
CONTINUOUS
 62
         3
100
AcDbCircle
 10
309.999997
 20
0.0
 30
0.0
 40
27.9999
100
AcDbArc
 50
51.021146
 51
128.978854
  0
ARC
  5
44
100
AcDbEntity
  8
LY_3
  6
CONTINUOUS
 62
         3
100
AcDbCircle
 10
324.999973
 20
39.999983
 30
0.0
 40
3.0
100
AcDbArc
 50
0.0
 51
90.0
  0
CIRCLE
  5
45
100
AcDbEntity
  8
LY_3
  6
CONTINUOUS
 62
         3
100
AcDbCircle
 10
283.00002
 20
-37.999991
 30
0.0
 40
4.399999
  0
ARC
  5
46
100
AcDbEntity
  8
LY_3
  6
CONTINUOUS
 62
         3
100
AcDbCircle
 10
290.50002
 20
28.632494
 30
0.0
 40
3.0
100
AcDbArc
 50
128.682188
 51
180.0
  0
ARC
  5
47
100
AcDbEntity
  8
LY_3
  6
CONTINUOUS
 62
         3
100
AcDbCircle
 10
276.000043
 20
-27.732009
 30
0.0
 40
2.999998
100
AcDbArc
 50
119.999867
 51
179.999745
  0
ARC
  5
48
100
AcDbEntity
  8
LY_3
  6
CONTINUOUS
 62
         3
100
AcDbCircle
 10
303.999997
 20
-58.383155
 30
0.0
 40
3.0
100
AcDbArc
 50
304.849911
 51
0.0
  0
CIRCLE
  5
49
100
AcDbEntity
  8
LY_3
  6
CONTINUOUS
 62
         3
100
AcDbCircle
 10
283.00002
 20
37.999991
 30
0.0
 40
4.399999
  0
ARC
  5
4A
100
AcDbEntity
  8
LY_3
  6
CONTINUOUS
 62
         3
100
AcDbCircle
 10
283.00002
 20
37.999991
 30
0.0
 40
9.0
100
AcDbArc
 50
308.682188
 51
0.0
  0
ARC
  5
4B
100
AcDbEntity
  8
LY_3
  6
CONTINUOUS
 62
         3
100
AcDbCircle
 10
276.000043
 20
27.732009
 30
0.0
 40
2.999998
100
AcDbArc
 50
180.000255
 51
240.000133
  0
ARC
  5
4C
100
AcDbEntity
  8
LY_3
  6
CONTINUOUS
 62
         3
100
AcDbCircle
 10
290.50002
 20
-28.632494
 30
0.0
 40
3.0
100
AcDbArc
 50
180.0
 51
231.317812
  0
ARC
  5
4D
100
AcDbEntity
  8
LY_3
  6
CONTINUOUS
 62
         3
100
AcDbCircle
 10
279.50002
 20
-50.916055
 30
0.0
 40
3.0
100
AcDbArc
 50
0.0
 51
80.406003
  0
ARC
  5
4E
100
AcDbEntity
  8
LY_3
  6
CONTINUOUS
 62
         3
100
AcDbCircle
 10
315.999997
 20
-75.616839
 30
0.0
 40
3.0
100
AcDbArc
 50
124.849911
 51
180.0
  0
ARC
  5
4F
100
AcDbEntity
  8
LY_3
  6
CONTINUOUS
 62
         3
100
AcDbCircle
 10
324.999973
 20
-39.999983
 30
0.0
 40
3.0
100
AcDbArc
 50
270.0
 51
0.0
  0
ARC
  5
50
100
AcDbEntity
  8
LY_3
  6
CONTINUOUS
 62
         3
100
AcDbCircle
 10
309.999997
 20
-66.999997
 30
0.0
 40
7.499998
100
AcDbArc
 50
304.849911
 51
359.999983
  0
ARC
  5
51
100
AcDbEntity
  8
LY_3
  6
CONTINUOUS
 62
         3
100
AcDbCircle
 10
309.999997
 20
-66.999997
 30
0.0
 40
7.499998
100
AcDbArc
 50
0.0
 51
55.150089
  0
CIRCLE
  5
52
100
AcDbEntity
  8
LY_3
  6
CONTINUOUS
 62
         3
100
AcDbCircle
 10
336.999973
 20
-37.999991
 30
0.0
 40
4.399999
  0
ARC
  5
53
100
AcDbEntity
  8
LY_3
  6
CONTINUOUS
 62
         3
100
AcDbCircle
 10
343.99995
 20
-27.732009
 30
0.0
 40
2.999998
100
AcDbArc
 50
0.000218
 51
60.000097
  0
CIRCLE
  5
54
100
AcDbEntity
  8
LY_3
  6
CONTINUOUS
 62
         3
100
AcDbCircle
 10
336.999973
 20
37.999991
 30
0.0
 40
4.399999
  0
ARC
  5
55
100
AcDbEntity
  8
LY_3
  6
CONTINUOUS
 62
         3
100
AcDbCircle
 10
343.99995
 20
27.732009
 30
0.0
 40
2.999998
100
AcDbArc
 50
299.999903
 51
359.999782
  0
ARC
  5
56
100
AcDbEntity
  8
LY_3
  6
CONTINUOUS
 62
         3
100
AcDbCircle
 10
283.00002
 20
-37.999991
 30
0.0
 40
9.0
100
AcDbArc
 50
0.0
 51
51.317812
  0
ARC
  5
57
100
AcDbEntity
  8
LY_3
  6
CONTINUOUS
 62
         3
100
AcDbCircle
 10
290.50002
 20
24.098645
 30
0.0
 40
3.0
100
AcDbArc
 50
180.0
 51
308.978854
  0
ARC
  5
58
100
AcDbEntity
  8
LY_3
  6
CONTINUOUS
 62
         3
100
AcDbCircle
 10
347.49998
 20
23.462022
 30
0.0
 40
5.0
100
AcDbArc
 50
92.0
 51
95.739523
  0
ARC
  5
59
100
AcDbEntity
  8
LY_3
  6
CONTINUOUS
 62
         3
100
AcDbCircle
 10
329.499973
 20
-28.632494
 30
0.0
 40
3.0
100
AcDbArc
 50
308.682188
 51
0.0
  0
ARC
  5
5A
100
AcDbEntity
  8
LY_3
  6
CONTINUOUS
 62
         3
100
AcDbCircle
 10
272.500013
 20
-23.462022
 30
0.0
 40
5.0
100
AcDbArc
 50
272.0
 51
275.739523
  0
ARC
  5
5B
100
AcDbEntity
  8
LY_3
  6
CONTINUOUS
 62
         3
100
AcDbCircle
 10
315.999997
 20
-58.383155
 30
0.0
 40
3.0
100
AcDbArc
 50
180.0
 51
235.150089
  0
ARC
  5
5C
100
AcDbEntity
  8
LY_3
  6
CONTINUOUS
 62
         3
100
AcDbCircle
 10
309.999997
 20
0.0
 30
0.0
 40
27.9999
100
AcDbArc
 50
231.021146
 51
308.978854
  0
ARC
  5
5D
100
AcDbEntity
  8
LY_3
  6
CONTINUOUS
 62
         3
100
AcDbCircle
 10
329.499973
 20
-24.098645
 30
0.0
 40
3.0
100
AcDbArc
 50
0.0
 51
128.978854
  0
ARC
  5
5E
100
AcDbEntity
  8
LY_3
  6
CONTINUOUS
 62
         3
100
AcDbCircle
 10
345.499973
 20
-116.474027
 30
0.0
 40
1.5
100
AcDbArc
 50
0.0
 51
89.0
  0
ARC
  5
5F
100
AcDbEntity
  8
LY_3
  6
CONTINUOUS
 62
         3
100
AcDbCircle
 10
82.033514
 20
24.814905
 30
0.0
 40
5.0
100
AcDbArc
 50
26.565069
 51
114.588961
  0
ARC
  5
60
100
AcDbEntity
  8
LY_3
  6
CONTINUOUS
 62
         3
100
AcDbCircle
 10
123.499989
 20
-116.499913
 30
0.0
 40
1.5
100
AcDbArc
 50
0.0
 51
90.0
  0
ARC
  5
61
100
AcDbEntity
  8
LY_3
  6
CONTINUOUS
 62
         3
100
AcDbCircle
 10
10.499977
 20
47.499983
 30
0.0
 40
1.5
100
AcDbArc
 50
0.0
 51
90.0
  0
ARC
  5
62
100
AcDbEntity
  8
LY_3
  6
CONTINUOUS
 62
         3
100
AcDbCircle
 10
28.499976
 20
-116.499913
 30
0.0
 40
1.5
100
AcDbArc
 50
90.0
 51
180.0
  0
ARC
  5
63
100
AcDbEntity
  8
LY_3
  6
CONTINUOUS
 62
         3
100
AcDbCircle
 10
141.499988
 20
-47.49996
 30
0.0
 40
1.5
100
AcDbArc
 50
180.0
 51
270.0
  0
ARC
  5
64
100
AcDbEntity
  8
LY_3
  6
CONTINUOUS
 62
         3
100
AcDbCircle
 10
67.325283
 20
46.999968
 30
0.0
 40
3.0
100
AcDbArc
 50
270.0
 51
313.945672
  0
ARC
  5
65
100
AcDbEntity
  8
LY_3
  6
CONTINUOUS
 62
         3
100
AcDbCircle
 10
84.674682
 20
46.999968
 30
0.0
 40
3.0
100
AcDbArc
 50
226.054328
 51
270.0
  0
ARC
  5
66
100
AcDbEntity
  8
LY_3
  6
CONTINUOUS
 62
         3
100
AcDbCircle
 10
20.875065
 20
-66.999948
 30
0.0
 40
28.624918
100
AcDbArc
 50
348.078404
 51
11.921596
  0
ARC
  5
67
100
AcDbEntity
  8
LY_3
  6
CONTINUOUS
 62
         3
100
AcDbCircle
 10
52.491345
 20
-37.499978
 30
0.0
 40
5.0
100
AcDbArc
 50
181.976108
 51
270.0
  0
ARC
  5
68
100
AcDbEntity
  8
LY_3
  6
CONTINUOUS
 62
         3
100
AcDbCircle
 10
44.927927
 20
-25.262106
 30
0.0
 40
5.0
100
AcDbArc
 50
153.434931
 51
241.458823
  0
ARC
  5
69
100
AcDbEntity
  8
LY_3
  6
CONTINUOUS
 62
         3
100
AcDbCircle
 10
45.499982
 20
-50.499978
 30
0.0
 40
3.0
100
AcDbArc
 50
0.0
 51
90.0
  0
ARC
  5
6A
100
AcDbEntity
  8
LY_3
  6
CONTINUOUS
 62
         3
100
AcDbCircle
 10
106.499982
 20
-111.999913
 30
0.0
 40
3.0
100
AcDbArc
 50
180.0
 51
270.0
  0
ARC
  5
6B
100
AcDbEntity
  8
LY_3
  6
CONTINUOUS
 62
         3
100
AcDbCircle
 10
58.274545
 20
30.499976
 30
0.0
 40
3.0
100
AcDbArc
 50
270.0
 51
333.434931
  0
ARC
  5
6C
100
AcDbEntity
  8
LY_3
  6
CONTINUOUS
 62
         3
100
AcDbCircle
 10
46.925715
 20
-61.499959
 30
0.0
 40
2.0
100
AcDbArc
 50
11.921596
 51
90.0
  0
CIRCLE
  5
6D
100
AcDbEntity
  8
LY_3
  6
CONTINUOUS
 62
         3
100
AcDbCircle
 10
37.999968
 20
-37.999978
 30
0.0
 40
4.399999
  0
CIRCLE
  5
6E
100
AcDbEntity
  8
LY_3
  6
CONTINUOUS
 62
         3
100
AcDbCircle
 10
75.999982
 20
37.999991
 30
0.0
 40
9.5
  0
ARC
  5
6F
100
AcDbEntity
  8
LY_3
  6
CONTINUOUS
 62
         3
100
AcDbCircle
 10
14.916046
 20
-46.999962
 30
0.0
 40
2.999998
100
AcDbArc
 50
90.000146
 51
170.405898
  0
ARC
  5
70
100
AcDbEntity
  8
LY_3
  6
CONTINUOUS
 62
         3
100
AcDbCircle
 10
105.07425
 20
-72.499937
 30
0.0
 40
2.0
100
AcDbArc
 50
191.921596
 51
270.0
  0
ARC
  5
71
100
AcDbEntity
  8
LY_3
  6
CONTINUOUS
 62
         3
100
AcDbCircle
 10
136.999988
 20
30.499976
 30
0.0
 40
3.0
100
AcDbArc
 50
270.0
 51
0.0
  0
ARC
  5
72
100
AcDbEntity
  8
LY_3
  6
CONTINUOUS
 62
         3
100
AcDbCircle
 10
45.499982
 20
-111.999913
 30
0.0
 40
3.0
100
AcDbArc
 50
270.0
 51
0.0
  0
ARC
  5
73
100
AcDbEntity
  8
LY_3
  6
CONTINUOUS
 62
         3
100
AcDbCircle
 10
28.999969
 20
-112.083798
 30
0.0
 40
2.999998
100
AcDbArc
 50
279.593975
 51
0.000255
  0
ARC
  5
74
100
AcDbEntity
  8
LY_3
  6
CONTINUOUS
 62
         3
100
AcDbCircle
 10
131.1249
 20
-66.999948
 30
0.0
 40
28.624918
100
AcDbArc
 50
168.078404
 51
191.921596
  0
ARC
  5
75
100
AcDbEntity
  8
LY_3
  6
CONTINUOUS
 62
         3
100
AcDbCircle
 10
27.774548
 20
-30.499971
 30
0.0
 40
3.0
100
AcDbArc
 50
333.434931
 51
90.0
  0
ARC
  5
76
100
AcDbEntity
  8
LY_3
  6
CONTINUOUS
 62
         3
100
AcDbCircle
 10
136.999988
 20
-30.499971
 30
0.0
 40
3.0
100
AcDbArc
 50
0.0
 51
90.0
  0
ARC
  5
77
100
AcDbEntity
  8
LY_3
  6
CONTINUOUS
 62
         3
100
AcDbCircle
 10
107.072038
 20
-25.262106
 30
0.0
 40
5.0
100
AcDbArc
 50
298.541177
 51
26.565069
  0
ARC
  5
78
100
AcDbEntity
  8
LY_3
  6
CONTINUOUS
 62
         3
100
AcDbCircle
 10
14.916046
 20
46.999945
 30
0.0
 40
2.999998
100
AcDbArc
 50
189.59372
 51
269.999745
  0
ARC
  5
79
100
AcDbEntity
  8
LY_3
  6
CONTINUOUS
 62
         3
100
AcDbCircle
 10
8.999977
 20
28.999946
 30
0.0
 40
2.999998
100
AcDbArc
 50
270.000018
 51
0.000036
  0
ARC
  5
7A
100
AcDbEntity
  8
LY_3
  6
CONTINUOUS
 62
         3
100
AcDbCircle
 10
8.999977
 20
-28.999986
 30
0.0
 40
2.999998
100
AcDbArc
 50
0.000036
 51
89.999982
  0
ARC
  5
7B
100
AcDbEntity
  8
LY_3
  6
CONTINUOUS
 62
         3
100
AcDbCircle
 10
141.499988
 20
47.499983
 30
0.0
 40
1.5
100
AcDbArc
 50
90.0
 51
180.0
  0
ARC
  5
7C
100
AcDbEntity
  8
LY_3
  6
CONTINUOUS
 62
         3
100
AcDbCircle
 10
28.999969
 20
-46.999962
 30
0.0
 40
2.999998
100
AcDbArc
 50
0.000036
 51
89.999982
  0
CIRCLE
  5
7D
100
AcDbEntity
  8
LY_3
  6
CONTINUOUS
 62
         3
100
AcDbCircle
 10
113.999997
 20
-37.999978
 30
0.0
 40
9.5
  0
CIRCLE
  5
7E
100
AcDbEntity
  8
LY_3
  6
CONTINUOUS
 62
         3
100
AcDbCircle
 10
113.999997
 20
-37.999978
 30
0.0
 40
4.399999
  0
CIRCLE
  5
7F
100
AcDbEntity
  8
LY_3
  6
CONTINUOUS
 62
         3
100
AcDbCircle
 10
76.000005
 20
37.999991
 30
0.0
 40
4.399999
  0
ARC
  5
80
100
AcDbEntity
  8
LY_3
  6
CONTINUOUS
 62
         3
100
AcDbCircle
 10
137.083919
 20
-46.999962
 30
0.0
 40
2.999998
100
AcDbArc
 50
9.594049
 51
89.999818
  0
ARC
  5
81
100
AcDbEntity
  8
LY_3
  6
CONTINUOUS
 62
         3
100
AcDbCircle
 10
14.999977
 20
-30.499971
 30
0.0
 40
3.0
100
AcDbArc
 50
90.0
 51
180.0
  0
ARC
  5
82
100
AcDbEntity
  8
LY_3
  6
CONTINUOUS
 62
         3
100
AcDbCircle
 10
106.499982
 20
-50.499978
 30
0.0
 40
3.0
100
AcDbArc
 50
90.0
 51
180.0
  0
ARC
  5
83
100
AcDbEntity
  8
LY_3
  6
CONTINUOUS
 62
         3
100
AcDbCircle
 10
122.999996
 20
-112.083798
 30
0.0
 40
2.999998
100
AcDbArc
 50
179.999745
 51
260.406044
  0
ARC
  5
84
100
AcDbEntity
  8
LY_3
  6
CONTINUOUS
 62
         3
100
AcDbCircle
 10
14.999977
 20
30.499976
 30
0.0
 40
3.0
100
AcDbArc
 50
180.0
 51
270.0
  0
ARC
  5
85
100
AcDbEntity
  8
LY_3
  6
CONTINUOUS
 62
         3
100
AcDbCircle
 10
137.083919
 20
46.999945
 30
0.0
 40
2.999998
100
AcDbArc
 50
270.000291
 51
350.40632
  0
ARC
  5
86
100
AcDbEntity
  8
LY_3
  6
CONTINUOUS
 62
         3
100
AcDbCircle
 10
142.999988
 20
28.999946
 30
0.0
 40
2.999998
100
AcDbArc
 50
179.999964
 51
270.000001
  0
ARC
  5
87
100
AcDbEntity
  8
LY_3
  6
CONTINUOUS
 62
         3
100
AcDbCircle
 10
142.999988
 20
-28.999986
 30
0.0
 40
2.999998
100
AcDbArc
 50
89.999982
 51
179.999964
  0
ARC
  5
88
100
AcDbEntity
  8
LY_3
  6
CONTINUOUS
 62
         3
100
AcDbCircle
 10
10.499977
 20
-47.49996
 30
0.0
 40
1.5
100
AcDbArc
 50
270.0
 51
0.0
  0
ARC
  5
89
100
AcDbEntity
  8
LY_3
  6
CONTINUOUS
 62
         3
100
AcDbCircle
 10
122.999996
 20
-46.999962
 30
0.0
 40
2.999998
100
AcDbArc
 50
89.999982
 51
179.999964
  0
ARC
  5
8A
100
AcDbEntity
  8
LY_3
  6
CONTINUOUS
 62
         3
100
AcDbCircle
 10
46.925715
 20
-72.499937
 30
0.0
 40
2.0
100
AcDbArc
 50
270.0
 51
348.078404
  0
ARC
  5
8B
100
AcDbEntity
  8
LY_3
  6
CONTINUOUS
 62
         3
100
AcDbCircle
 10
93.72542
 20
30.499976
 30
0.0
 40
3.0
100
AcDbArc
 50
206.565069
 51
270.0
  0
ARC
  5
8C
100
AcDbEntity
  8
LY_3
  6
CONTINUOUS
 62
         3
100
AcDbCircle
 10
69.966451
 20
24.814905
 30
0.0
 40
5.0
100
AcDbArc
 50
65.411039
 51
153.434931
  0
ARC
  5
8D
100
AcDbEntity
  8
LY_3
  6
CONTINUOUS
 62
         3
100
AcDbCircle
 10
99.50862
 20
-37.499978
 30
0.0
 40
5.0
100
AcDbArc
 50
270.0
 51
358.023892
  0
ARC
  5
8E
100
AcDbEntity
  8
LY_3
  6
CONTINUOUS
 62
         3
100
AcDbCircle
 10
105.07425
 20
-61.499959
 30
0.0
 40
2.0
100
AcDbArc
 50
90.0
 51
168.078404
  0
CIRCLE
  5
8F
100
AcDbEntity
  8
LY_3
  6
CONTINUOUS
 62
         3
100
AcDbCircle
 10
37.999968
 20
-37.999978
 30
0.0
 40
9.5
  0
ARC
  5
90
100
AcDbEntity
  8
LY_3
  6
CONTINUOUS
 62
         3
100
AcDbCircle
 10
124.225417
 20
-30.499971
 30
0.0
 40
3.0
100
AcDbArc
 50
90.0
 51
206.565069
  0
CIRCLE
  5
91
100
AcDbEntity
  8
LY_3
  6
CONTINUOUS
 62
         3
100
AcDbCircle
 10
309.999997
 20
0.0
 30
0.0
 40
20.999977
  0
LINE
  5
92
100
AcDbEntity
  8
LY_3
  6
CONTINUOUS
 62
         3
100
AcDbLine
 10
306.999997
 20
-48.895221
 30
0.0
 11
306.999997
 21
-58.383155
 31
0.0
  0
LINE
  5
93
100
AcDbEntity
  8
LY_3
  6
CONTINUOUS
 62
         3
100
AcDbLine
 10
312.999997
 20
-48.895221
 30
0.0
 11
312.999997
 21
-58.383155
 31
0.0
  0
LINE
  5
94
100
AcDbEntity
  8
LY_3
  6
CONTINUOUS
 62
         3
100
AcDbLine
 10
327.999973
 20
37.999991
 30
0.0
 11
327.999973
 21
39.999983
 31
0.0
  0
LINE
  5
95
100
AcDbEntity
  8
LY_3
  6
CONTINUOUS
 62
         3
100
AcDbLine
 10
345.051808
 20
-47.620404
 30
0.0
 11
347.999988
 21
-47.517452
 31
0.0
  0
LINE
  5
96
100
AcDbEntity
  8
LY_3
  6
CONTINUOUS
 62
         3
100
AcDbLine
 10
292.00002
 20
37.999991
 30
0.0
 11
292.00002
 21
39.999983
 31
0.0
  0
LINE
  5
97
100
AcDbEntity
  8
LY_3
  6
CONTINUOUS
 62
         3
100
AcDbLine
 10
274.948186
 20
-47.620404
 30
0.0
 11
272.000005
 21
-47.517452
 31
0.0
  0
LINE
  5
98
100
AcDbEntity
  8
LY_3
  6
CONTINUOUS
 62
         3
100
AcDbLine
 10
346.99995
 20
28.447609
 30
0.0
 11
347.999988
 21
28.482531
 31
0.0
  0
LINE
  5
99
100
AcDbEntity
  8
LY_3
  6
CONTINUOUS
 62
         3
100
AcDbLine
 10
347.999988
 20
-47.517452
 30
0.0
 11
347.999988
 21
-28.482531
 31
0.0
  0
LINE
  5
9A
100
AcDbEntity
  8
LY_3
  6
CONTINUOUS
 62
         3
100
AcDbLine
 10
272.000005
 20
-47.517452
 30
0.0
 11
272.000005
 21
-28.482531
 31
0.0
  0
LINE
  5
9B
100
AcDbEntity
  8
LY_3
  6
CONTINUOUS
 62
         3
100
AcDbLine
 10
282.50002
 20
-50.916055
 30
0.0
 11
282.50002
 21
-111.886066
 31
0.0
  0
LINE
  5
9C
100
AcDbEntity
  8
LY_3
  6
CONTINUOUS
 62
         3
100
AcDbLine
 10
346.99995
 20
-28.447609
 30
0.0
 11
347.999988
 21
-28.482531
 31
0.0
  0
LINE
  5
9D
100
AcDbEntity
  8
LY_3
  6
CONTINUOUS
 62
         3
100
AcDbLine
 10
327.999973
 20
-37.999991
 30
0.0
 11
327.999973
 21
-39.999983
 31
0.0
  0
LINE
  5
9E
100
AcDbEntity
  8
LY_3
  6
CONTINUOUS
 62
         3
100
AcDbLine
 10
272.000005
 20
47.517452
 30
0.0
 11
272.000005
 21
28.482531
 31
0.0
  0
LINE
  5
9F
100
AcDbEntity
  8
LY_3
  6
CONTINUOUS
 62
         3
100
AcDbLine
 10
312.999997
 20
-75.616839
 30
0.0
 11
312.999997
 21
-111.458418
 31
0.0
  0
LINE
  5
A0
100
AcDbEntity
  8
LY_3
  6
CONTINUOUS
 62
         3
100
AcDbLine
 10
295.00002
 20
-42.999983
 30
0.0
 11
324.999973
 21
-42.999983
 31
0.0
  0
LINE
  5
A1
100
AcDbEntity
  8
LY_3
  6
CONTINUOUS
 62
         3
100
AcDbLine
 10
342.49998
 20
23.401914
 30
0.0
 11
342.49998
 21
-23.462022
 31
0.0
  0
LINE
  5
A2
100
AcDbEntity
  8
LY_3
  6
CONTINUOUS
 62
         3
100
AcDbLine
 10
309.999997
 20
-114.354144
 30
0.0
 11
345.526151
 21
-114.974256
 31
0.0
  0
LINE
  5
A3
100
AcDbEntity
  8
LY_3
  6
CONTINUOUS
 62
         3
100
AcDbLine
 10
274.473842
 20
-114.974256
 30
0.0
 11
309.999997
 21
-114.354144
 31
0.0
  0
LINE
  5
A4
100
AcDbEntity
  8
LY_3
  6
CONTINUOUS
 62
         3
100
AcDbLine
 10
306.999997
 20
-75.616839
 30
0.0
 11
306.999997
 21
-111.458418
 31
0.0
  0
LINE
  5
A5
100
AcDbEntity
  8
LY_3
  6
CONTINUOUS
 62
         3
100
AcDbLine
 10
292.00002
 20
-37.999991
 30
0.0
 11
292.00002
 21
-39.999983
 31
0.0
  0
LINE
  5
A6
100
AcDbEntity
  8
LY_3
  6
CONTINUOUS
 62
         3
100
AcDbLine
 10
332.499973
 20
-24.098645
 30
0.0
 11
332.499973
 21
-28.632494
 31
0.0
  0
LINE
  5
A7
100
AcDbEntity
  8
LY_3
  6
CONTINUOUS
 62
         3
100
AcDbLine
 10
309.999997
 20
48.999983
 30
0.0
 11
275.895345
 21
47.809023
 31
0.0
  0
LINE
  5
A8
100
AcDbEntity
  8
LY_3
  6
CONTINUOUS
 62
         3
100
AcDbLine
 10
273.000043
 20
-28.447609
 30
0.0
 11
272.000005
 21
-28.482531
 31
0.0
  0
LINE
  5
A9
100
AcDbEntity
  8
LY_3
  6
CONTINUOUS
 62
         3
100
AcDbLine
 10
332.499973
 20
24.098645
 30
0.0
 11
332.499973
 21
28.632494
 31
0.0
  0
LINE
  5
AA
100
AcDbEntity
  8
LY_3
  6
CONTINUOUS
 62
         3
100
AcDbLine
 10
277.500013
 20
-23.401916
 30
0.0
 11
277.500013
 21
23.401903
 31
0.0
  0
LINE
  5
AB
100
AcDbEntity
  8
LY_3
  6
CONTINUOUS
 62
         3
100
AcDbLine
 10
295.00002
 20
42.999983
 30
0.0
 11
324.999973
 21
42.999983
 31
0.0
  0
LINE
  5
AC
100
AcDbEntity
  8
LY_3
  6
CONTINUOUS
 62
         3
100
AcDbLine
 10
338.499973
 20
0.0
 30
0.0
 11
338.499973
 21
-19.360471
 31
0.0
  0
LINE
  5
AD
100
AcDbEntity
  8
LY_3
  6
CONTINUOUS
 62
         3
100
AcDbLine
 10
309.999997
 20
-48.999983
 30
0.0
 11
344.104648
 21
-47.809023
 31
0.0
  0
LINE
  5
AE
100
AcDbEntity
  8
LY_3
  6
CONTINUOUS
 62
         3
100
AcDbLine
 10
345.499895
 20
-25.133928
 30
0.0
 11
339.999973
 21
-21.958547
 31
0.0
  0
LINE
  5
AF
100
AcDbEntity
  8
LY_3
  6
CONTINUOUS
 62
         3
100
AcDbLine
 10
346.99995
 20
-27.732009
 30
0.0
 11
346.99995
 21
-44.81085
 31
0.0
  0
LINE
  5
B0
100
AcDbEntity
  8
LY_3
  6
CONTINUOUS
 62
         3
100
AcDbLine
 10
337.499973
 20
-50.916055
 30
0.0
 11
337.499973
 21
-111.886066
 31
0.0
  0
LINE
  5
B1
100
AcDbEntity
  8
LY_3
  6
CONTINUOUS
 62
         3
100
AcDbLine
 10
338.499973
 20
19.360457
 30
0.0
 11
338.499973
 21
0.0
 31
0.0
  0
LINE
  5
B2
100
AcDbEntity
  8
LY_3
  6
CONTINUOUS
 62
         3
100
AcDbLine
 10
309.999997
 20
48.999983
 30
0.0
 11
344.104648
 21
47.809023
 31
0.0
  0
LINE
  5
B3
100
AcDbEntity
  8
LY_3
  6
CONTINUOUS
 62
         3
100
AcDbLine
 10
339.999973
 20
21.958534
 30
0.0
 11
345.499923
 21
25.133931
 31
0.0
  0
LINE
  5
B4
100
AcDbEntity
  8
LY_3
  6
CONTINUOUS
 62
         3
100
AcDbLine
 10
346.99995
 20
44.81085
 30
0.0
 11
346.99995
 21
27.732009
 31
0.0
  0
LINE
  5
B5
100
AcDbEntity
  8
LY_3
  6
CONTINUOUS
 62
         3
100
AcDbLine
 10
347.999988
 20
47.517452
 30
0.0
 11
347.999988
 21
28.482531
 31
0.0
  0
LINE
  5
B6
100
AcDbEntity
  8
LY_3
  6
CONTINUOUS
 62
         3
100
AcDbLine
 10
273.000021
 20
-126.999981
 30
0.0
 11
346.999973
 21
-126.999981
 31
0.0
  0
LINE
  5
B7
100
AcDbEntity
  8
LY_3
  6
CONTINUOUS
 62
         3
100
AcDbLine
 10
287.50002
 20
28.632494
 30
0.0
 11
287.50002
 21
24.098645
 31
0.0
  0
LINE
  5
B8
100
AcDbEntity
  8
LY_3
  6
CONTINUOUS
 62
         3
100
AcDbLine
 10
287.50002
 20
-28.632494
 30
0.0
 11
287.50002
 21
-24.098645
 31
0.0
  0
LINE
  5
B9
100
AcDbEntity
  8
LY_3
  6
CONTINUOUS
 62
         3
100
AcDbLine
 10
273.000021
 20
-126.999981
 30
0.0
 11
273.000021
 21
-116.474027
 31
0.0
  0
LINE
  5
BA
100
AcDbEntity
  8
LY_3
  6
CONTINUOUS
 62
         3
100
AcDbLine
 10
281.50002
 20
-19.36046
 30
0.0
 11
281.50002
 21
0.0
 31
0.0
  0
LINE
  5
BB
100
AcDbEntity
  8
LY_3
  6
CONTINUOUS
 62
         3
100
AcDbLine
 10
309.999997
 20
-48.999983
 30
0.0
 11
275.895345
 21
-47.809023
 31
0.0
  0
LINE
  5
BC
100
AcDbEntity
  8
LY_3
  6
CONTINUOUS
 62
         3
100
AcDbLine
 10
280.00002
 20
-21.958536
 30
0.0
 11
274.500079
 21
-25.133928
 31
0.0
  0
LINE
  5
BD
100
AcDbEntity
  8
LY_3
  6
CONTINUOUS
 62
         3
100
AcDbLine
 10
273.000043
 20
-44.81085
 30
0.0
 11
273.000043
 21
-27.732009
 31
0.0
  0
LINE
  5
BE
100
AcDbEntity
  8
LY_3
  6
CONTINUOUS
 62
         3
100
AcDbLine
 10
281.50002
 20
0.0
 30
0.0
 11
281.50002
 21
19.360447
 31
0.0
  0
LINE
  5
BF
100
AcDbEntity
  8
LY_3
  6
CONTINUOUS
 62
         3
100
AcDbLine
 10
274.500051
 20
25.133931
 30
0.0
 11
280.00002
 21
21.958523
 31
0.0
  0
LINE
  5
C0
100
AcDbEntity
  8
LY_3
  6
CONTINUOUS
 62
         3
100
AcDbLine
 10
273.000043
 20
27.732009
 30
0.0
 11
273.000043
 21
44.81085
 31
0.0
  0
LINE
  5
C1
100
AcDbEntity
  8
LY_3
  6
CONTINUOUS
 62
         3
100
AcDbLine
 10
345.051808
 20
47.620404
 30
0.0
 11
347.999988
 21
47.517452
 31
0.0
  0
LINE
  5
C2
100
AcDbEntity
  8
LY_3
  6
CONTINUOUS
 62
         3
100
AcDbLine
 10
274.948186
 20
47.620404
 30
0.0
 11
272.000005
 21
47.517452
 31
0.0
  0
LINE
  5
C3
100
AcDbEntity
  8
LY_3
  6
CONTINUOUS
 62
         3
100
AcDbLine
 10
273.000043
 20
28.447609
 30
0.0
 11
272.000005
 21
28.482531
 31
0.0
  0
LINE
  5
C4
100
AcDbEntity
  8
LY_3
  6
CONTINUOUS
 62
         3
100
AcDbLine
 10
346.999973
 20
-116.474027
 30
0.0
 11
346.999973
 21
-126.999981
 31
0.0
  0
LINE
  5
C5
100
AcDbEntity
  8
LY_3
  6
CONTINUOUS
 62
         3
100
AcDbLine
 10
65.494316
 20
27.050974
 30
0.0
 11
40.455791
 21
-23.026037
 31
0.0
  0
LINE
  5
C6
100
AcDbEntity
  8
LY_3
  6
CONTINUOUS
 62
         3
100
AcDbLine
 10
111.544174
 20
-23.026037
 30
0.0
 11
86.505649
 21
27.050974
 31
0.0
  0
LINE
  5
C7
100
AcDbEntity
  8
LY_3
  6
CONTINUOUS
 62
         3
100
AcDbLine
 10
105.07425
 20
-74.499937
 30
0.0
 11
119.999996
 21
-74.499937
 31
0.0
  0
LINE
  5
C8
100
AcDbEntity
  8
LY_3
  6
CONTINUOUS
 62
         3
100
AcDbLine
 10
105.07425
 20
-59.499959
 30
0.0
 11
119.999996
 21
-59.499959
 31
0.0
  0
LINE
  5
C9
100
AcDbEntity
  8
LY_3
  6
CONTINUOUS
 62
         3
100
AcDbLine
 10
28.499976
 20
-114.999913
 30
0.0
 11
123.499989
 21
-114.999913
 31
0.0
  0
LINE
  5
CA
100
AcDbEntity
  8
LY_3
  6
CONTINUOUS
 62
         3
100
AcDbLine
 10
31.999969
 20
-112.083798
 30
0.0
 11
31.999969
 21
-46.999962
 31
0.0
  0
LINE
  5
CB
100
AcDbEntity
  8
LY_3
  6
CONTINUOUS
 62
         3
100
AcDbLine
 10
14.999977
 20
27.499976
 30
0.0
 11
58.274545
 21
27.499976
 31
0.0
  0
LINE
  5
CC
100
AcDbEntity
  8
LY_3
  6
CONTINUOUS
 62
         3
100
AcDbLine
 10
26.999976
 20
-126.999912
 30
0.0
 11
26.999976
 21
-116.499913
 31
0.0
  0
LINE
  5
CD
100
AcDbEntity
  8
LY_3
  6
CONTINUOUS
 62
         3
100
AcDbLine
 10
14.916046
 20
-43.999963
 30
0.0
 11
28.999969
 21
-43.999963
 31
0.0
  0
LINE
  5
CE
100
AcDbEntity
  8
LY_3
  6
CONTINUOUS
 62
         3
100
AcDbLine
 10
48.499982
 20
-50.499978
 30
0.0
 11
48.499982
 21
-59.499959
 31
0.0
  0
LINE
  5
CF
100
AcDbEntity
  8
LY_3
  6
CONTINUOUS
 62
         3
100
AcDbLine
 10
0.0
 20
-25.999986
 30
0.0
 11
8.999977
 21
-25.999986
 31
0.0
  0
LINE
  5
D0
100
AcDbEntity
  8
LY_3
  6
CONTINUOUS
 62
         3
100
AcDbLine
 10
103.499982
 20
-50.499978
 30
0.0
 11
103.499982
 21
-59.499959
 31
0.0
  0
LINE
  5
D1
100
AcDbEntity
  8
LY_3
  6
CONTINUOUS
 62
         3
100
AcDbLine
 10
0.0
 20
25.999969
 30
0.0
 11
8.999977
 21
25.999969
 31
0.0
  0
LINE
  5
D2
100
AcDbEntity
  8
LY_3
  6
CONTINUOUS
 62
         3
100
AcDbLine
 10
119.999996
 20
-46.999962
 30
0.0
 11
119.999996
 21
-112.083798
 31
0.0
  0
LINE
  5
D3
100
AcDbEntity
  8
LY_3
  6
CONTINUOUS
 62
         3
100
AcDbLine
 10
124.999989
 20
-116.499913
 30
0.0
 11
124.999989
 21
-126.999912
 31
0.0
  0
LINE
  5
D4
100
AcDbEntity
  8
LY_3
  6
CONTINUOUS
 62
         3
100
AcDbLine
 10
122.999996
 20
-43.999963
 30
0.0
 11
137.083919
 21
-43.999963
 31
0.0
  0
LINE
  5
D5
100
AcDbEntity
  8
LY_3
  6
CONTINUOUS
 62
         3
100
AcDbLine
 10
48.499982
 20
-74.499937
 30
0.0
 11
48.499982
 21
-111.999913
 31
0.0
  0
LINE
  5
D6
100
AcDbEntity
  8
LY_3
  6
CONTINUOUS
 62
         3
100
AcDbLine
 10
142.999988
 20
-25.999986
 30
0.0
 11
151.999981
 21
-25.999986
 31
0.0
  0
LINE
  5
D7
100
AcDbEntity
  8
LY_3
  6
CONTINUOUS
 62
         3
100
AcDbLine
 10
142.999988
 20
25.999969
 30
0.0
 11
151.999981
 21
25.999969
 31
0.0
  0
LINE
  5
D8
100
AcDbEntity
  8
LY_3
  6
CONTINUOUS
 62
         3
100
AcDbLine
 10
37.999968
 20
-47.499978
 30
0.0
 11
113.999997
 21
-47.499978
 31
0.0
  0
LINE
  5
D9
100
AcDbEntity
  8
LY_3
  6
CONTINUOUS
 62
         3
100
AcDbLine
 10
52.491345
 20
-42.499978
 30
0.0
 11
99.50862
 21
-42.499978
 31
0.0
  0
LINE
  5
DA
100
AcDbEntity
  8
LY_3
  6
CONTINUOUS
 62
         3
100
AcDbLine
 10
84.674682
 20
43.999968
 30
0.0
 11
137.083919
 21
43.999968
 31
0.0
  0
LINE
  5
DB
100
AcDbEntity
  8
LY_3
  6
CONTINUOUS
 62
         3
100
AcDbLine
 10
139.999988
 20
47.499983
 30
0.0
 11
139.999988
 21
-47.49996
 31
0.0
  0
LINE
  5
DC
100
AcDbEntity
  8
LY_3
  6
CONTINUOUS
 62
         3
100
AcDbLine
 10
151.999981
 20
48.999983
 30
0.0
 11
151.999981
 21
-48.99996
 31
0.0
  0
LINE
  5
DD
100
AcDbEntity
  8
LY_3
  6
CONTINUOUS
 62
         3
100
AcDbLine
 10
14.916046
 20
43.999968
 30
0.0
 11
67.325283
 21
43.999968
 31
0.0
  0
LINE
  5
DE
100
AcDbEntity
  8
LY_3
  6
CONTINUOUS
 62
         3
100
AcDbLine
 10
141.499988
 20
-48.99996
 30
0.0
 11
151.999981
 21
-48.99996
 31
0.0
  0
LINE
  5
DF
100
AcDbEntity
  8
LY_3
  6
CONTINUOUS
 62
         3
100
AcDbLine
 10
11.999977
 20
-47.49996
 30
0.0
 11
11.999977
 21
47.499983
 31
0.0
  0
LINE
  5
E0
100
AcDbEntity
  8
LY_3
  6
CONTINUOUS
 62
         3
100
AcDbLine
 10
0.0
 20
-48.99996
 30
0.0
 11
0.0
 21
48.999983
 31
0.0
  0
LINE
  5
E1
100
AcDbEntity
  8
LY_3
  6
CONTINUOUS
 62
         3
100
AcDbLine
 10
26.999976
 20
-126.999912
 30
0.0
 11
124.999989
 21
-126.999912
 31
0.0
  0
LINE
  5
E2
100
AcDbEntity
  8
LY_3
  6
CONTINUOUS
 62
         3
100
AcDbLine
 10
141.499988
 20
48.999983
 30
0.0
 11
151.999981
 21
48.999983
 31
0.0
  0
LINE
  5
E3
100
AcDbEntity
  8
LY_3
  6
CONTINUOUS
 62
         3
100
AcDbLine
 10
0.0
 20
-48.99996
 30
0.0
 11
10.499977
 21
-48.99996
 31
0.0
  0
LINE
  5
E4
100
AcDbEntity
  8
LY_3
  6
CONTINUOUS
 62
         3
100
AcDbLine
 10
0.0
 20
48.999983
 30
0.0
 11
10.499977
 21
48.999983
 31
0.0
  0
LINE
  5
E5
100
AcDbEntity
  8
LY_3
  6
CONTINUOUS
 62
         3
100
AcDbLine
 10
93.72542
 20
27.499976
 30
0.0
 11
136.999988
 21
27.499976
 31
0.0
  0
LINE
  5
E6
100
AcDbEntity
  8
LY_3
  6
CONTINUOUS
 62
         3
100
AcDbLine
 10
31.999969
 20
-74.499937
 30
0.0
 11
47.499983
 21
-74.499937
 31
0.0
  0
LINE
  5
E7
100
AcDbEntity
  8
LY_3
  6
CONTINUOUS
 62
         3
100
AcDbLine
 10
31.999969
 20
-59.499959
 30
0.0
 11
47.499983
 21
-59.499959
 31
0.0
  0
LINE
  5
E8
100
AcDbEntity
  8
LY_3
  6
CONTINUOUS
 62
         3
100
AcDbLine
 10
122.497054
 20
-33.751447
 30
0.0
 11
84.497039
 21
42.248523
 31
0.0
  0
LINE
  5
E9
100
AcDbEntity
  8
LY_3
  6
CONTINUOUS
 62
         3
100
AcDbLine
 10
124.225417
 20
-27.499971
 30
0.0
 11
136.999988
 21
-27.499971
 31
0.0
  0
LINE
  5
EA
100
AcDbEntity
  8
LY_3
  6
CONTINUOUS
 62
         3
100
AcDbLine
 10
103.499982
 20
-74.499937
 30
0.0
 11
103.499982
 21
-111.999913
 31
0.0
  0
LINE
  5
EB
100
AcDbEntity
  8
LY_3
  6
CONTINUOUS
 62
         3
100
AcDbLine
 10
14.999977
 20
-27.499971
 30
0.0
 11
27.774548
 21
-27.499971
 31
0.0
  0
LINE
  5
ED
100
AcDbEntity
  8
LY_3
  6
CENTER
 62
        80
100
AcDbLine
 10
344.399971
 20
37.999991
 30
0.0
 11
329.599974
 21
37.999991
 31
0.0
  0
LINE
  5
EE
100
AcDbEntity
  8
LY_3
  6
CENTER
 62
        80
100
AcDbLine
 10
336.999973
 20
45.39999
 30
0.0
 11
336.999973
 21
30.599993
 31
0.0
  0
LINE
  5
EF
100
AcDbEntity
  8
LY_3
  6
CENTER
 62
        80
100
AcDbLine
 10
344.399971
 20
-37.999991
 30
0.0
 11
329.599974
 21
-37.999991
 31
0.0
  0
LINE
  5
F0
100
AcDbEntity
  8
LY_3
  6
CENTER
 62
        80
100
AcDbLine
 10
336.999973
 20
-30.599993
 30
0.0
 11
336.999973
 21
-45.39999
 31
0.0
  0
LINE
  5
F1
100
AcDbEntity
  8
LY_3
  6
CENTER
 62
        80
100
AcDbLine
 10
290.400019
 20
-37.999991
 30
0.0
 11
275.600022
 21
-37.999991
 31
0.0
  0
LINE
  5
F2
100
AcDbEntity
  8
LY_3
  6
CENTER
 62
        80
100
AcDbLine
 10
283.00002
 20
-30.599993
 30
0.0
 11
283.00002
 21
-45.39999
 31
0.0
  0
LINE
  5
F3
100
AcDbEntity
  8
LY_3
  6
CENTER
 62
        80
100
AcDbLine
 10
290.400019
 20
37.999991
 30
0.0
 11
275.600022
 21
37.999991
 31
0.0
  0
LINE
  5
F4
100
AcDbEntity
  8
LY_3
  6
CENTER
 62
        80
100
AcDbLine
 10
283.00002
 20
45.39999
 30
0.0
 11
283.00002
 21
30.599993
 31
0.0
  0
LINE
  5
F5
100
AcDbEntity
  8
LY_3
  6
CENTER
 62
        80
100
AcDbLine
 10
88.499982
 20
37.999991
 30
0.0
 11
63.499982
 21
37.999991
 31
0.0
  0
LINE
  5
F6
100
AcDbEntity
  8
LY_3
  6
CENTER
 62
        80
100
AcDbLine
 10
126.499997
 20
-37.999978
 30
0.0
 11
101.499997
 21
-37.999978
 31
0.0
  0
LINE
  5
F7
100
AcDbEntity
  8
LY_3
  6
CENTER
 62
        80
100
AcDbLine
 10
113.999997
 20
-25.499978
 30
0.0
 11
113.999997
 21
-50.499978
 31
0.0
  0
LINE
  5
F8
100
AcDbEntity
  8
LY_3
  6
CENTER
 62
        80
100
AcDbLine
 10
50.499968
 20
-37.999978
 30
0.0
 11
25.499968
 21
-37.999978
 31
0.0
  0
LINE
  5
F9
100
AcDbEntity
  8
LY_3
  6
CENTER
 62
        80
100
AcDbLine
 10
37.999968
 20
-25.499978
 30
0.0
 11
37.999968
 21
-50.499978
 31
0.0
  0
LINE
  5
FA
100
AcDbEntity
  8
LY_3
  6
DASHED
 62
        80
100
AcDbLine
 10
139.999988
 20
42.39999
 30
0.0
 11
151.999981
 21
42.39999
 31
0.0
  0
LINE
  5
FB
100
AcDbEntity
  8
LY_3
  6
DASHED
 62
        80
100
AcDbLine
 10
139.999988
 20
33.599993
 30
0.0
 11
151.999981
 21
33.599993
 31
0.0
  0
LINE
  5
FC
100
AcDbEntity
  8
LY_3
  6
DASHED
 62
        80
100
AcDbLine
 10
139.999988
 20
-33.599993
 30
0.0
 11
151.999981
 21
-33.599993
 31
0.0
  0
LINE
  5
FD
100
AcDbEntity
  8
LY_3
  6
DASHED
 62
        80
100
AcDbLine
 10
139.999988
 20
-42.39999
 30
0.0
 11
151.999981
 21
-42.39999
 31
0.0
  0
LINE
  5
FE
100
AcDbEntity
  8
LY_3
  6
CENTER
 62
        80
100
AcDbLine
 10
136.999988
 20
37.999991
 30
0.0
 11
154.999981
 21
37.999991
 31
0.0
  0
LINE
  5
FF
100
AcDbEntity
  8
LY_3
  6
CENTER
 62
        80
100
AcDbLine
 10
154.999981
 20
-37.999991
 30
0.0
 11
136.999988
 21
-37.999991
 31
0.0
  0
LINE
  5
100
100
AcDbEntity
  8
LY_3
  6
DASHED
 62
        80
100
AcDbLine
 10
278.60002
 20
-126.999981
 30
0.0
 11
278.60002
 21
-114.902233
 31
0.0
  0
LINE
  5
101
100
AcDbEntity
  8
LY_3
  6
DASHED
 62
        80
100
AcDbLine
 10
287.40002
 20
-126.999981
 30
0.0
 11
287.40002
 21
-114.748628
 31
0.0
  0
LINE
  5
102
100
AcDbEntity
  8
LY_3
  6
DASHED
 62
        80
100
AcDbLine
 10
332.599973
 20
-126.999981
 30
0.0
 11
332.599973
 21
-114.748628
 31
0.0
  0
LINE
  5
103
100
AcDbEntity
  8
LY_3
  6
DASHED
 62
        80
100
AcDbLine
 10
341.399973
 20
-126.999981
 30
0.0
 11
341.399973
 21
-114.902233
 31
0.0
  0
LINE
  5
104
100
AcDbEntity
  8
LY_3
  6
CENTER
 62
        80
100
AcDbLine
 10
336.999973
 20
-111.825431
 30
0.0
 11
336.999973
 21
-129.999981
 31
0.0
  0
LINE
  5
105
100
AcDbEntity
  8
LY_3
  6
CENTER
 62
        80
100
AcDbLine
 10
283.00002
 20
-111.825431
 30
0.0
 11
283.00002
 21
-129.999981
 31
0.0
  0
LINE
  5
106
100
AcDbEntity
  8
LY_3
  6
DASHED
 62
        80
100
AcDbLine
 10
33.599991
 20
-126.999912
 30
0.0
 11
33.599991
 21
-114.999913
 31
0.0
  0
LINE
  5
107
100
AcDbEntity
  8
LY_3
  6
DASHED
 62
        80
100
AcDbLine
 10
42.399991
 20
-126.999912
 30
0.0
 11
42.399991
 21
-114.999913
 31
0.0
  0
LINE
  5
108
100
AcDbEntity
  8
LY_3
  6
DASHED
 62
        80
100
AcDbLine
 10
109.600019
 20
-126.999912
 30
0.0
 11
109.600019
 21
-114.999913
 31
0.0
  0
LINE
  5
109
100
AcDbEntity
  8
LY_3
  6
DASHED
 62
        80
100
AcDbLine
 10
118.400019
 20
-126.999912
 30
0.0
 11
118.400019
 21
-114.999913
 31
0.0
  0
LINE
  5
10A
100
AcDbEntity
  8
LY_3
  6
CENTER
 62
        80
100
AcDbLine
 10
114.000019
 20
-111.999913
 30
0.0
 11
114.000019
 21
-129.999912
 31
0.0
  0
LINE
  5
10B
100
AcDbEntity
  8
LY_3
  6
CENTER
 62
        80
100
AcDbLine
 10
37.999991
 20
-111.999913
 30
0.0
 11
37.999991
 21
-129.999912
 31
0.0
  0
LINE
  5
10C
100
AcDbEntity
  8
LY_3
  6
DASHED
 62
        80
100
AcDbLine
 10
11.999977
 20
42.39999
 30
0.0
 11
-0.000016
 21
42.39999
 31
0.0
  0
LINE
  5
10D
100
AcDbEntity
  8
LY_3
  6
DASHED
 62
        80
100
AcDbLine
 10
11.999977
 20
33.599993
 30
0.0
 11
-0.000016
 21
33.599993
 31
0.0
  0
LINE
  5
10E
100
AcDbEntity
  8
LY_3
  6
CENTER
 62
        80
100
AcDbLine
 10
14.999977
 20
37.999991
 30
0.0
 11
-3.000016
 21
37.999991
 31
0.0
  0
LINE
  5
10F
100
AcDbEntity
  8
LY_3
  6
DASHED
 62
        80
100
AcDbLine
 10
11.999977
 20
-33.599993
 30
0.0
 11
-0.000016
 21
-33.599993
 31
0.0
  0
LINE
  5
110
100
AcDbEntity
  8
LY_3
  6
DASHED
 62
        80
100
AcDbLine
 10
11.999977
 20
-42.39999
 30
0.0
 11
-0.000016
 21
-42.39999
 31
0.0
  0
LINE
  5
111
100
AcDbEntity
  8
LY_3
  6
CENTER
 62
        80
100
AcDbLine
 10
-3.000016
 20
-37.999991
 30
0.0
 11
14.999977
 21
-37.999991
 31
0.0
  0
ARC
  5
112
100
AcDbEntity
  8
LY_3
  6
CONTINUOUS
 62
         3
100
AcDbCircle
 10
309.999997
 20
0.0
 30
0.0
 40
10.0
100
AcDbArc
 50
197.457617
 51
359.999983
  0
ARC
  5
113
100
AcDbEntity
  8
LY_3
  6
CONTINUOUS
 62
         3
100
AcDbCircle
 10
309.999997
 20
0.0
 30
0.0
 40
10.0
100
AcDbArc
 50
0.0
 51
162.542383
  0
ARC
  5
114
100
AcDbEntity
  8
LY_3
  6
CONTINUOUS
 62
         3
100
AcDbCircle
 10
-11.999995
 20
0.0
 30
0.0
 40
3.0
100
AcDbArc
 50
270.000018
 51
89.999982
  0
ARC
  5
115
100
AcDbEntity
  8
LY_3
  6
CONTINUOUS
 62
         3
100
AcDbCircle
 10
76.000005
 20
-139.0
 30
0.0
 40
3.0
100
AcDbArc
 50
0.0
 51
189.915814
  0
ARC
  5
116
100
AcDbEntity
  8
LY_3
  6
CONTINUOUS
 62
         3
100
AcDbCircle
 10
164.000005
 20
0.0
 30
0.0
 40
3.0
100
AcDbArc
 50
89.999982
 51
269.999946
  0
LINE
  5
117
100
AcDbEntity
  8
LY_3
  6
CONTINUOUS
 62
         3
100
AcDbLine
 10
297.499997
 20
-139.0
 30
0.0
 11
299.999997
 21
-139.0
 31
0.0
  0
LINE
  5
118
100
AcDbEntity
  8
LY_3
  6
CONTINUOUS
 62
         3
100
AcDbLine
 10
299.999997
 20
-127.0
 30
0.0
 11
299.999997
 21
-177.0
 31
0.0
  0
LINE
  5
119
100
AcDbEntity
  8
LY_3
  6
CONTINUOUS
 62
         3
100
AcDbLine
 10
319.999997
 20
-127.0
 30
0.0
 11
319.999997
 21
-177.0
 31
0.0
  0
LINE
  5
11A
100
AcDbEntity
  8
LY_3
  6
CONTINUOUS
 62
         3
100
AcDbLine
 10
297.499997
 20
-177.0
 30
0.0
 11
319.999997
 21
-177.0
 31
0.0
  0
LINE
  5
11B
100
AcDbEntity
  8
LY_3
  6
CONTINUOUS
 62
         3
100
AcDbLine
 10
297.499997
 20
-139.0
 30
0.0
 11
297.499997
 21
-177.0
 31
0.0
  0
LINE
  5
11C
100
AcDbEntity
  8
LY_3
  6
CONTINUOUS
 62
         3
100
AcDbLine
 10
297.499997
 20
3.0
 30
0.0
 11
297.499997
 21
-3.0
 31
0.0
  0
LINE
  5
11D
100
AcDbEntity
  8
LY_3
  6
CONTINUOUS
 62
         3
100
AcDbLine
 10
303.499997
 20
3.0
 30
0.0
 11
303.499997
 21
-3.0
 31
0.0
  0
LINE
  5
11E
100
AcDbEntity
  8
LY_3
  6
DASHED
 62
        80
100
AcDbLine
 10
147.000005
 20
-21.0
 30
0.0
 11
152.000005
 21
-21.0
 31
0.0
  0
LINE
  5
11F
100
AcDbEntity
  8
LY_3
  6
DASHED
 62
        80
100
AcDbLine
 10
147.000005
 20
21.0
 30
0.0
 11
152.000005
 21
21.0
 31
0.0
  0
LINE
  5
120
100
AcDbEntity
  8
LY_3
  6
DASHED
 62
        80
100
AcDbLine
 10
92.000005
 20
-122.0
 30
0.0
 11
97.000005
 21
-122.0
 31
0.0
  0
LINE
  5
121
100
AcDbEntity
  8
LY_3
  6
DASHED
 62
        80
100
AcDbLine
 10
147.000005
 20
-16.0
 30
0.0
 11
147.000005
 21
-21.0
 31
0.0
  0
LINE
  5
122
100
AcDbEntity
  8
LY_3
  6
DASHED
 62
        80
100
AcDbLine
 10
5.000005
 20
-16.0
 30
0.0
 11
5.000005
 21
-21.0
 31
0.0
  0
LINE
  5
123
100
AcDbEntity
  8
LY_3
  6
DASHED
 62
        80
100
AcDbLine
 10
5.000005
 20
21.0
 30
0.0
 11
5.000005
 21
14.071747
 31
0.0
  0
LINE
  5
124
100
AcDbEntity
  8
LY_3
  6
DASHED
 62
        80
100
AcDbLine
 10
147.000005
 20
21.0
 30
0.0
 11
147.000005
 21
16.0
 31
0.0
  0
LINE
  5
125
100
AcDbEntity
  8
LY_3
  6
DASHED
 62
        80
100
AcDbLine
 10
55.000005
 20
-122.0
 30
0.0
 11
60.000005
 21
-122.0
 31
0.0
  0
LINE
  5
126
100
AcDbEntity
  8
LY_3
  6
DASHED
 62
        80
100
AcDbLine
 10
97.000005
 20
-122.0
 30
0.0
 11
97.000005
 21
-127.0
 31
0.0
  0
LINE
  5
127
100
AcDbEntity
  8
LY_3
  6
DASHED
 62
        80
100
AcDbLine
 10
55.000005
 20
-122.0
 30
0.0
 11
55.000005
 21
-127.0
 31
0.0
  0
LINE
  5
128
100
AcDbEntity
  8
LY_3
  6
DASHED
 62
        80
100
AcDbLine
 10
0.000005
 20
-21.0
 30
0.0
 11
5.000005
 21
-21.0
 31
0.0
  0
LINE
  5
129
100
AcDbEntity
  8
LY_3
  6
DASHED
 62
        80
100
AcDbLine
 10
0.000005
 20
21.0
 30
0.0
 11
5.000005
 21
21.0
 31
0.0
  0
LINE
  5
12A
100
AcDbEntity
  8
LY_3
  6
CONTINUOUS
 62
         3
100
AcDbLine
 10
164.000005
 20
-3.0
 30
0.0
 11
202.000005
 21
-3.0
 31
0.0
  0
LINE
  5
12B
100
AcDbEntity
  8
LY_3
  6
CONTINUOUS
 62
         3
100
AcDbLine
 10
164.000005
 20
3.0
 30
0.0
 11
202.000005
 21
3.0
 31
0.0
  0
LINE
  5
12C
100
AcDbEntity
  8
LY_3
  6
CONTINUOUS
 62
         3
100
AcDbLine
 10
297.499997
 20
-3.0
 30
0.0
 11
303.499997
 21
-3.0
 31
0.0
  0
LINE
  5
12D
100
AcDbEntity
  8
LY_3
  6
CONTINUOUS
 62
         3
100
AcDbLine
 10
297.499997
 20
3.0
 30
0.0
 11
303.499997
 21
3.0
 31
0.0
  0
LINE
  5
12E
100
AcDbEntity
  8
LY_3
  6
CONTINUOUS
 62
         3
100
AcDbLine
 10
79.000005
 20
-139.0
 30
0.0
 11
79.000005
 21
-177.0
 31
0.0
  0
LINE
  5
12F
100
AcDbEntity
  8
LY_3
  6
CONTINUOUS
 62
         3
100
AcDbLine
 10
73.000005
 20
-139.0
 30
0.0
 11
73.000005
 21
-177.0
 31
0.0
  0
LINE
  5
130
100
AcDbEntity
  8
LY_3
  6
CONTINUOUS
 62
         3
100
AcDbLine
 10
-49.999995
 20
-3.0
 30
0.0
 11
-11.999995
 21
-3.0
 31
0.0
  0
LINE
  5
131
100
AcDbEntity
  8
LY_3
  6
CONTINUOUS
 62
         3
100
AcDbLine
 10
-49.999995
 20
3.0
 30
0.0
 11
-11.999995
 21
3.0
 31
0.0
  0
LINE
  5
132
100
AcDbEntity
  8
LY_3
  6
CONTINUOUS
 62
         3
100
AcDbLine
 10
-11.999995
 20
3.0
 30
0.0
 11
-11.999995
 21
-3.0
 31
0.0
  0
LINE
  5
133
100
AcDbEntity
  8
LY_3
  6
CONTINUOUS
 62
         3
100
AcDbLine
 10
164.000005
 20
3.0
 30
0.0
 11
164.000005
 21
-3.0
 31
0.0
  0
LINE
  5
134
100
AcDbEntity
  8
LY_3
  6
CONTINUOUS
 62
         3
100
AcDbLine
 10
73.000005
 20
-139.0
 30
0.0
 11
79.000005
 21
-139.0
 31
0.0
  0
LINE
  5
135
100
AcDbEntity
  8
LY_3
  6
CONTINUOUS
 62
         3
100
AcDbLine
 10
152.000005
 20
-10.0
 30
0.0
 11
202.000005
 21
-10.0
 31
0.0
  0
LINE
  5
136
100
AcDbEntity
  8
LY_3
  6
CONTINUOUS
 62
         3
100
AcDbLine
 10
152.000005
 20
10.0
 30
0.0
 11
202.000005
 21
10.0
 31
0.0
  0
LINE
  5
137
100
AcDbEntity
  8
LY_3
  6
CONTINUOUS
 62
         3
100
AcDbLine
 10
-49.999995
 20
-10.0
 30
0.0
 11
0.000005
 21
-10.0
 31
0.0
  0
LINE
  5
138
100
AcDbEntity
  8
LY_3
  6
CONTINUOUS
 62
         3
100
AcDbLine
 10
-49.999995
 20
10.0
 30
0.0
 11
0.000005
 21
10.0
 31
0.0
  0
LINE
  5
139
100
AcDbEntity
  8
LY_3
  6
CONTINUOUS
 62
         3
100
AcDbLine
 10
86.000005
 20
-127.0
 30
0.0
 11
86.000005
 21
-177.0
 31
0.0
  0
LINE
  5
13A
100
AcDbEntity
  8
LY_3
  6
CONTINUOUS
 62
         3
100
AcDbLine
 10
66.000005
 20
-127.0
 30
0.0
 11
66.000005
 21
-177.0
 31
0.0
  0
LINE
  5
13B
100
AcDbEntity
  8
LY_3
  6
CONTINUOUS
 62
         3
100
AcDbLine
 10
66.000005
 20
-177.0
 30
0.0
 11
86.000005
 21
-177.0
 31
0.0
  0
LINE
  5
13C
100
AcDbEntity
  8
LY_3
  6
CONTINUOUS
 62
         3
100
AcDbLine
 10
202.000005
 20
10.0
 30
0.0
 11
202.000005
 21
-10.0
 31
0.0
  0
LINE
  5
13D
100
AcDbEntity
  8
LY_3
  6
CONTINUOUS
 62
         3
100
AcDbLine
 10
-49.999995
 20
10.0
 30
0.0
 11
-49.999995
 21
-10.0
 31
0.0
  0
CIRCLE
  5
13E
100
AcDbEntity
  8
LY_3
  6
CONTINUOUS
 62
        80
100
AcDbCircle
 10
309.999997
 20
-66.999997
 30
0.0
 40
5.0
  0
LINE
  5
13F
100
AcDbEntity
  8
LY_3
  6
CONTINUOUS
 62
         3
100
AcDbLine
 10
307.401834
 20
-65.49999
 30
0.0
 11
309.99991
 21
-63.99999
 31
0.0
  0
LINE
  5
140
100
AcDbEntity
  8
LY_3
  6
CONTINUOUS
 62
         3
100
AcDbLine
 10
309.999918
 20
-63.999987
 30
0.0
 11
312.598021
 21
-65.500002
 31
0.0
  0
LINE
  5
141
100
AcDbEntity
  8
LY_3
  6
CONTINUOUS
 62
         3
100
AcDbLine
 10
309.999902
 20
-69.999976
 30
0.0
 11
312.597978
 21
-68.499977
 31
0.0
  0
LINE
  5
142
100
AcDbEntity
  8
LY_3
  6
CONTINUOUS
 62
         3
100
AcDbLine
 10
307.401876
 20
-68.499989
 30
0.0
 11
309.999926
 21
-69.999973
 31
0.0
  0
LINE
  5
143
100
AcDbEntity
  8
LY_3
  6
CONTINUOUS
 62
         3
100
AcDbLine
 10
307.401913
 20
-65.500005
 30
0.0
 11
307.401913
 21
-68.499986
 31
0.0
  0
LINE
  5
144
100
AcDbEntity
  8
LY_3
  6
CONTINUOUS
 62
         3
100
AcDbLine
 10
312.59808
 20
-65.500012
 30
0.0
 11
312.59808
 21
-68.499976
 31
0.0
  0
CIRCLE
  5
145
100
AcDbEntity
  8
LY_3
  6
CONTINUOUS
 62
         3
100
AcDbCircle
 10
309.999997
 20
-66.999997
 30
0.0
 40
4.0
  0
LINE
  5
146
100
AcDbEntity
  8
LY_3
  6
CENTER
 62
        80
100
AcDbLine
 10
317.999997
 20
-66.999997
 30
0.0
 11
301.999997
 21
-66.999997
 31
0.0
  0
LINE
  5
147
100
AcDbEntity
  8
LY_3
  6
CENTER
 62
        80
100
AcDbLine
 10
309.999997
 20
-58.999997
 30
0.0
 11
309.999997
 21
-74.999997
 31
0.0
  0
LINE
  5
148
100
AcDbEntity
  8
LY_3
  6
CENTER
 62
        80
100
AcDbLine
 10
76.000005
 20
6.926584
 30
0.0
 11
76.000005
 21
-6.92659
 31
0.0
  0
LINE
  5
149
100
AcDbEntity
  8
LY_3
  6
CENTER
 62
        80
100
AcDbLine
 10
68.927867
 20
0.0
 30
0.0
 11
83.056272
 21
0.0
 31
0.0
  0
LINE
  5
14A
100
AcDbEntity
  8
LY_3
  6
DASHED
 62
        80
100
AcDbLine
 10
76.000011
 20
-2.999992
 30
0.0
 11
73.401936
 21
-1.499977
 31
0.0
  0
LINE
  5
14B
100
AcDbEntity
  8
LY_3
  6
DASHED
 62
        80
100
AcDbLine
 10
73.401929
 20
-1.499985
 30
0.0
 11
73.401929
 21
1.500015
 31
0.0
  0
LINE
  5
14C
100
AcDbEntity
  8
LY_3
  6
DASHED
 62
        80
100
AcDbLine
 10
73.401932
 20
1.500015
 30
0.0
 11
76.000005
 21
2.999998
 31
0.0
  0
LINE
  5
14D
100
AcDbEntity
  8
LY_3
  6
DASHED
 62
        80
100
AcDbLine
 10
76.000005
 20
2.999999
 30
0.0
 11
78.598081
 21
1.499999
 31
0.0
  0
LINE
  5
14E
100
AcDbEntity
  8
LY_3
  6
DASHED
 62
        80
100
AcDbLine
 10
78.598081
 20
1.5
 30
0.0
 11
78.598081
 21
-1.5
 31
0.0
  0
LINE
  5
14F
100
AcDbEntity
  8
LY_3
  6
DASHED
 62
        80
100
AcDbLine
 10
78.59808
 20
-1.499999
 30
0.0
 11
76.000004
 21
-2.999999
 31
0.0
  0
CIRCLE
  5
150
100
AcDbEntity
  8
LY_3
  6
DASHED
 62
        80
100
AcDbCircle
 10
76.000005
 20
0.0
 30
0.0
 40
5.0
  0
CIRCLE
  5
151
100
AcDbEntity
  8
LY_3
  6
DASHED
 62
        80
100
AcDbCircle
 10
76.000005
 20
0.0
 30
0.0
 40
4.0
  0
LINE
  5
152
100
AcDbEntity
  8
LY_3
  6
CENTER
 62
        80
100
AcDbLine
 10
207.000005
 20
0.0
 30
0.0
 11
-54.999995
 21
0.0
 31
0.0
  0
LINE
  5
153
100
AcDbEntity
  8
LY_3
  6
CENTER
 62
        80
100
AcDbLine
 10
76.000005
 20
-182.0
 30
0.0
 11
76.000005
 21
50.499968
 31
0.0
  0
LINE
  5
154
100
AcDbEntity
  8
LY_3
  6
CENTER
 62
        80
100
AcDbLine
 10
347.999988
 20
0.0
 30
0.0
 11
272.000005
 21
0.0
 31
0.0
  0
LINE
  5
155
100
AcDbEntity
  8
LY_3
  6
CENTER
 62
        80
100
AcDbLine
 10
309.999997
 20
52.999983
 30
0.0
 11
309.999997
 21
-182.0
 31
0.0
  0
LINE
  5
156
100
AcDbEntity
  8
LY_3
  6
CONTINUOUS
 62
         3
100
AcDbLine
 10
29.502911
 20
-33.751447
 30
0.0
 11
67.502925
 21
42.248523
 31
0.0
  0
ELLIPSE
  5
157
100
AcDbEntity
  8
LY_3
  6
CONTINUOUS
 62
         3
100
AcDbEllipse
 10
46.378716
 20
140.0
 30
0.0
 11
0.0000000000000017
 21
27.499976262450929
 31
0.0
210
0.0
220
0.0
230
1.0
 40
0.5
 41
4.9206115002297111
 42
0.0
  0
ELLIPSE
  5
158
100
AcDbEntity
  8
LY_3
  6
CONTINUOUS
 62
         3
100
AcDbEllipse
 10
105.621386
 20
140.0
 30
0.0
 11
0.0000000000000017
 21
27.499976262450929
 31
0.0
210
0.0
220
0.0
230
1.0
 40
0.5
 41
0.0
 42
1.3625738069498725
  0
ELLIPSE
  5
159
100
AcDbEntity
  8
LY_3
  6
CONTINUOUS
 62
         3
100
AcDbEllipse
 10
105.621386
 20
140.0
 30
0.0
 11
0.0000000000000017
 21
27.499976262450929
 31
0.0
210
0.0
220
0.0
230
1.0
 40
0.5
 41
1.7790188465422445
 42
3.1415926535897931
  0
ELLIPSE
  5
15A
100
AcDbEntity
  8
LY_3
  6
CONTINUOUS
 62
         3
100
AcDbEllipse
 10
46.378716
 20
140.0
 30
0.0
 11
0.0000000000000017
 21
27.499976262450929
 31
0.0
210
0.0
220
0.0
230
1.0
 40
0.5
 41
3.1415926535897931
 42
4.5041664606373422
  0
ARC
  5
15B
100
AcDbEntity
  8
LY_3
  6
CONTINUOUS
 62
         3
100
AcDbCircle
 10
15.541563
 20
134.0
 30
0.0
 40
3.0
100
AcDbArc
 50
90.0
 51
179.0
  0
ARC
  5
15C
100
AcDbEntity
  8
LY_3
  6
CONTINUOUS
 62
         3
100
AcDbCircle
 10
15.541563
 20
146.0
 30
0.0
 40
3.0
100
AcDbArc
 50
181.0
 51
270.0
  0
ARC
  5
15D
100
AcDbEntity
  8
LY_3
  6
CONTINUOUS
 62
         3
100
AcDbCircle
 10
15.113915
 20
170.499976
 30
0.0
 40
3.0
100
AcDbArc
 50
181.0
 51
270.0
  0
ARC
  5
15E
100
AcDbEntity
  8
LY_3
  6
CONTINUOUS
 62
         3
100
AcDbCircle
 10
15.113915
 20
109.500024
 30
0.0
 40
3.0
100
AcDbArc
 50
90.0
 51
179.0
  0
ARC
  5
15F
100
AcDbEntity
  8
LY_3
  6
CONTINUOUS
 62
         3
100
AcDbCircle
 10
136.458539
 20
134.0
 30
0.0
 40
3.0
100
AcDbArc
 50
1.0
 51
90.0
  0
ARC
  5
160
100
AcDbEntity
  8
LY_3
  6
CONTINUOUS
 62
         3
100
AcDbCircle
 10
136.458539
 20
146.0
 30
0.0
 40
3.0
100
AcDbArc
 50
270.0
 51
359.0
  0
ARC
  5
161
100
AcDbEntity
  8
LY_3
  6
CONTINUOUS
 62
         3
100
AcDbCircle
 10
136.886188
 20
170.499976
 30
0.0
 40
3.0
100
AcDbArc
 50
270.0
 51
359.0
  0
ARC
  5
162
100
AcDbEntity
  8
LY_3
  6
CONTINUOUS
 62
         3
100
AcDbCircle
 10
136.886188
 20
109.500024
 30
0.0
 40
3.0
100
AcDbArc
 50
1.0
 51
90.0
  0
ARC
  5
163
100
AcDbEntity
  8
LY_3
  6
CONTINUOUS
 62
         3
100
AcDbCircle
 10
34.50298
 20
177.499984
 30
0.0
 40
5.0
100
AcDbArc
 50
180.0
 51
270.0
  0
ARC
  5
164
100
AcDbEntity
  8
LY_3
  6
CONTINUOUS
 62
         3
100
AcDbCircle
 10
42.716775
 20
177.499984
 30
0.0
 40
5.0
100
AcDbArc
 50
180.0
 51
270.0
  0
ARC
  5
165
100
AcDbEntity
  8
LY_3
  6
CONTINUOUS
 62
         3
100
AcDbCircle
 10
89.497108
 20
177.499984
 30
0.0
 40
5.0
100
AcDbArc
 50
180.0
 51
270.0
  0
ARC
  5
166
100
AcDbEntity
  8
LY_3
  6
CONTINUOUS
 62
         3
100
AcDbCircle
 10
117.497122
 20
177.499984
 30
0.0
 40
5.0
100
AcDbArc
 50
270.0
 51
0.0
  0
ARC
  5
167
100
AcDbEntity
  8
LY_3
  6
CONTINUOUS
 62
         3
100
AcDbCircle
 10
62.502994
 20
177.499984
 30
0.0
 40
5.0
100
AcDbArc
 50
270.0
 51
0.0
  0
ARC
  5
168
100
AcDbEntity
  8
LY_3
  6
CONTINUOUS
 62
         3
100
AcDbCircle
 10
109.283327
 20
177.499984
 30
0.0
 40
5.0
100
AcDbArc
 50
270.0
 51
0.0
  0
ARC
  5
169
100
AcDbEntity
  8
LY_3
  6
CONTINUOUS
 62
         3
100
AcDbCircle
 10
42.716775
 20
102.500016
 30
0.0
 40
5.0
100
AcDbArc
 50
90.0
 51
180.0
  0
ARC
  5
16A
100
AcDbEntity
  8
LY_3
  6
CONTINUOUS
 62
         3
100
AcDbCircle
 10
109.283327
 20
102.500016
 30
0.0
 40
5.0
100
AcDbArc
 50
0.0
 51
90.0
  0
ARC
  5
16B
100
AcDbEntity
  8
LY_3
  6
CONTINUOUS
 62
         3
100
AcDbCircle
 10
34.50298
 20
102.500016
 30
0.0
 40
5.0
100
AcDbArc
 50
90.0
 51
180.0
  0
ARC
  5
16C
100
AcDbEntity
  8
LY_3
  6
CONTINUOUS
 62
         3
100
AcDbCircle
 10
62.502994
 20
102.500016
 30
0.0
 40
5.0
100
AcDbArc
 50
0.0
 51
90.0
  0
ARC
  5
16D
100
AcDbEntity
  8
LY_3
  6
CONTINUOUS
 62
         3
100
AcDbCircle
 10
89.497108
 20
102.500016
 30
0.0
 40
5.0
100
AcDbArc
 50
90.0
 51
180.0
  0
ARC
  5
16E
100
AcDbEntity
  8
LY_3
  6
CONTINUOUS
 62
         3
100
AcDbCircle
 10
117.497122
 20
102.500016
 30
0.0
 40
5.0
100
AcDbArc
 50
0.0
 51
90.0
  0
ARC
  5
16F
100
AcDbEntity
  8
LY_3
  6
CONTINUOUS
 62
         3
100
AcDbCircle
 10
10.525954
 20
175.499976
 30
0.0
 40
1.5
100
AcDbArc
 50
1.0
 51
90.0
  0
ARC
  5
170
100
AcDbEntity
  8
LY_3
  6
CONTINUOUS
 62
         3
100
AcDbCircle
 10
10.525954
 20
104.500024
 30
0.0
 40
1.5
100
AcDbArc
 50
270.0
 51
359.0
  0
ARC
  5
171
100
AcDbEntity
  8
LY_3
  6
CONTINUOUS
 62
         3
100
AcDbCircle
 10
141.474149
 20
104.500024
 30
0.0
 40
1.5
100
AcDbArc
 50
181.0
 51
270.0
  0
ARC
  5
172
100
AcDbEntity
  8
LY_3
  6
CONTINUOUS
 62
         3
100
AcDbCircle
 10
141.474149
 20
175.499976
 30
0.0
 40
1.5
100
AcDbArc
 50
90.0
 51
179.0
  0
ARC
  5
173
100
AcDbEntity
  8
LY_3
  6
CONTINUOUS
 62
         3
100
AcDbCircle
 10
62.815102
 20
146.0
 30
0.0
 40
3.0
100
AcDbArc
 50
186.030499
 51
270.0
  0
ARC
  5
174
100
AcDbEntity
  8
LY_3
  6
CONTINUOUS
 62
         3
100
AcDbCircle
 10
89.185001
 20
146.0
 30
0.0
 40
3.0
100
AcDbArc
 50
270.0
 51
353.969501
  0
ARC
  5
175
100
AcDbEntity
  8
LY_3
  6
CONTINUOUS
 62
         3
100
AcDbCircle
 10
89.185001
 20
134.0
 30
0.0
 40
3.0
100
AcDbArc
 50
6.030499
 51
90.0
  0
ARC
  5
176
100
AcDbEntity
  8
LY_3
  6
CONTINUOUS
 62
         3
100
AcDbCircle
 10
62.815102
 20
134.0
 30
0.0
 40
3.0
100
AcDbArc
 50
90.0
 51
173.969501
  0
ARC
  5
177
100
AcDbEntity
  8
LY_3
  6
CONTINUOUS
 62
         3
100
AcDbCircle
 10
65.634572
 20
140.0
 30
0.0
 40
3.0
100
AcDbArc
 50
270.0
 51
90.0
  0
ARC
  5
178
100
AcDbEntity
  8
LY_3
  6
CONTINUOUS
 62
         3
100
AcDbCircle
 10
86.36553
 20
140.0
 30
0.0
 40
3.0
100
AcDbArc
 50
90.0
 51
270.0
  0
LINE
  5
179
100
AcDbEntity
  8
LY_3
  6
DASHED
 62
        80
100
AcDbLine
 10
12.000045
 20
170.899976
 30
0.0
 11
0.0
 21
171.006171
 31
0.0
  0
LINE
  5
17A
100
AcDbEntity
  8
LY_3
  6
DASHED
 62
        80
100
AcDbLine
 10
12.000045
 20
116.900024
 30
0.0
 11
0.0
 21
117.006219
 31
0.0
  0
LINE
  5
17B
100
AcDbEntity
  8
LY_3
  6
DASHED
 62
        80
100
AcDbLine
 10
12.000045
 20
109.100024
 30
0.0
 11
0.0
 21
108.993829
 31
0.0
  0
LINE
  5
17C
100
AcDbEntity
  8
LY_3
  6
DASHED
 62
        80
100
AcDbLine
 10
140.000057
 20
109.100024
 30
0.0
 11
152.000102
 21
108.993829
 31
0.0
  0
LINE
  5
17D
100
AcDbEntity
  8
LY_3
  6
DASHED
 62
        80
100
AcDbLine
 10
140.000057
 20
116.900024
 30
0.0
 11
152.000102
 21
117.006219
 31
0.0
  0
LINE
  5
17E
100
AcDbEntity
  8
LY_3
  6
DASHED
 62
        80
100
AcDbLine
 10
140.000057
 20
163.099976
 30
0.0
 11
152.000102
 21
162.993781
 31
0.0
  0
LINE
  5
17F
100
AcDbEntity
  8
LY_3
  6
DASHED
 62
        80
100
AcDbLine
 10
140.000057
 20
170.899976
 30
0.0
 11
152.000102
 21
171.006171
 31
0.0
  0
LINE
  5
180
100
AcDbEntity
  8
LY_3
  6
CONTINUOUS
 62
         3
100
AcDbLine
 10
85.646345
 20
105.689314
 30
0.0
 11
85.517512
 21
102.000009
 31
0.0
  0
LINE
  5
181
100
AcDbEntity
  8
LY_3
  6
CONTINUOUS
 62
         3
100
AcDbLine
 10
34.502979
 20
172.499984
 30
0.0
 11
62.502995
 21
172.499984
 31
0.0
  0
LINE
  5
182
100
AcDbEntity
  8
LY_3
  6
CONTINUOUS
 62
         3
100
AcDbLine
 10
89.497107
 20
172.499984
 30
0.0
 11
117.497123
 21
172.499984
 31
0.0
  0
LINE
  5
183
100
AcDbEntity
  8
LY_3
  6
CONTINUOUS
 62
         3
100
AcDbLine
 10
89.497108
 20
107.500016
 30
0.0
 11
117.497122
 21
107.500016
 31
0.0
  0
LINE
  5
184
100
AcDbEntity
  8
LY_3
  6
CONTINUOUS
 62
         3
100
AcDbLine
 10
28.115931
 20
167.499976
 30
0.0
 11
28.4826
 21
177.999991
 31
0.0
  0
LINE
  5
185
100
AcDbEntity
  8
LY_3
  6
CONTINUOUS
 62
         3
100
AcDbLine
 10
28.115931
 20
112.500024
 30
0.0
 11
28.4826
 21
102.000009
 31
0.0
  0
LINE
  5
186
100
AcDbEntity
  8
LY_3
  6
CONTINUOUS
 62
         3
100
AcDbLine
 10
104.290518
 20
172.499984
 30
0.0
 11
104.482582
 21
177.999991
 31
0.0
  0
LINE
  5
187
100
AcDbEntity
  8
LY_3
  6
CONTINUOUS
 62
         3
100
AcDbLine
 10
139.974377
 20
104.473845
 30
0.0
 11
139.354266
 21
140.0
 31
0.0
  0
LINE
  5
188
100
AcDbEntity
  8
LY_3
  6
CONTINUOUS
 62
         3
100
AcDbLine
 10
86.36553
 20
137.0
 30
0.0
 11
136.458539
 21
137.0
 31
0.0
  0
LINE
  5
189
100
AcDbEntity
  8
LY_3
  6
CONTINUOUS
 62
         3
100
AcDbLine
 10
28.4826
 20
177.999991
 30
0.0
 11
47.51752
 21
177.999991
 31
0.0
  0
LINE
  5
18A
100
AcDbEntity
  8
LY_3
  6
CONTINUOUS
 62
         3
100
AcDbLine
 10
28.4826
 20
102.000009
 30
0.0
 11
47.51752
 21
102.000009
 31
0.0
  0
LINE
  5
18B
100
AcDbEntity
  8
LY_3
  6
CONTINUOUS
 62
         3
100
AcDbLine
 10
46.378716
 20
112.500024
 30
0.0
 11
15.113915
 21
112.500024
 31
0.0
  0
LINE
  5
18C
100
AcDbEntity
  8
LY_3
  6
CONTINUOUS
 62
         3
100
AcDbLine
 10
47.709585
 20
172.499984
 30
0.0
 11
47.51752
 21
177.999991
 31
0.0
  0
LINE
  5
18D
100
AcDbEntity
  8
LY_3
  6
CONTINUOUS
 62
         3
100
AcDbLine
 10
123.517503
 20
102.000009
 30
0.0
 11
104.482582
 21
102.000009
 31
0.0
  0
LINE
  5
18E
100
AcDbEntity
  8
LY_3
  6
CONTINUOUS
 62
         3
100
AcDbLine
 10
65.634572
 20
143.0
 30
0.0
 11
15.541563
 21
143.0
 31
0.0
  0
LINE
  5
18F
100
AcDbEntity
  8
LY_3
  6
CONTINUOUS
 62
         3
100
AcDbLine
 10
152.000102
 20
103.000024
 30
0.0
 11
152.000102
 21
176.999976
 31
0.0
  0
LINE
  5
190
100
AcDbEntity
  8
LY_3
  6
CONTINUOUS
 62
         3
100
AcDbLine
 10
105.621385
 20
167.499976
 30
0.0
 11
136.886188
 21
167.499976
 31
0.0
  0
LINE
  5
191
100
AcDbEntity
  8
LY_3
  6
CONTINUOUS
 62
         3
100
AcDbLine
 10
12.645837
 20
140.0
 30
0.0
 11
12.025725
 21
175.526155
 31
0.0
  0
LINE
  5
192
100
AcDbEntity
  8
LY_3
  6
CONTINUOUS
 62
         3
100
AcDbLine
 10
12.025725
 20
104.473845
 30
0.0
 11
12.645837
 21
140.0
 31
0.0
  0
LINE
  5
193
100
AcDbEntity
  8
LY_3
  6
CONTINUOUS
 62
         3
100
AcDbLine
 10
65.634572
 20
137.0
 30
0.0
 11
15.541563
 21
137.0
 31
0.0
  0
LINE
  5
194
100
AcDbEntity
  8
LY_3
  6
CONTINUOUS
 62
         3
100
AcDbLine
 10
139.354266
 20
140.0
 30
0.0
 11
139.974377
 21
175.526155
 31
0.0
  0
LINE
  5
195
100
AcDbEntity
  8
LY_3
  6
CONTINUOUS
 62
         3
100
AcDbLine
 10
86.36553
 20
143.0
 30
0.0
 11
136.458539
 21
143.0
 31
0.0
  0
LINE
  5
196
100
AcDbEntity
  8
LY_3
  6
CONTINUOUS
 62
         3
100
AcDbLine
 10
85.517512
 20
102.000009
 30
0.0
 11
66.482591
 21
102.000009
 31
0.0
  0
LINE
  5
197
100
AcDbEntity
  8
LY_3
  6
CENTER
 62
        80
100
AcDbLine
 10
155.328754
 20
113.000024
 30
0.0
 11
135.854778
 21
113.000024
 31
0.0
  0
LINE
  5
198
100
AcDbEntity
  8
LY_3
  6
CONTINUOUS
 62
         3
100
AcDbLine
 10
47.709585
 20
107.500016
 30
0.0
 11
47.51752
 21
102.000009
 31
0.0
  0
LINE
  5
199
100
AcDbEntity
  8
LY_3
  6
CONTINUOUS
 62
         3
100
AcDbLine
 10
34.50298
 20
107.500016
 30
0.0
 11
62.502994
 21
107.500016
 31
0.0
  0
LINE
  5
19A
100
AcDbEntity
  8
LY_3
  6
CENTER
 62
        80
100
AcDbLine
 10
76.000051
 20
99.267117
 30
0.0
 11
76.000051
 21
181.038959
 31
0.0
  0
LINE
  5
19B
100
AcDbEntity
  8
LY_3
  6
CENTER
 62
        80
100
AcDbLine
 10
207.000005
 20
140.0
 30
0.0
 11
-54.999995
 21
140.0
 31
0.0
  0
LINE
  5
19C
100
AcDbEntity
  8
LY_3
  6
CONTINUOUS
 62
         3
100
AcDbLine
 10
85.646345
 20
174.310686
 30
0.0
 11
85.517512
 21
177.999991
 31
0.0
  0
LINE
  5
19D
100
AcDbEntity
  8
LY_3
  6
DASHED
 62
        80
100
AcDbLine
 10
52.020774
 20
172.499984
 30
0.0
 11
50.606651
 21
172.499984
 31
0.0
  0
LINE
  5
19E
100
AcDbEntity
  8
LY_3
  6
CONTINUOUS
 62
         3
100
AcDbLine
 10
46.378716
 20
167.499976
 30
0.0
 11
15.113915
 21
167.499976
 31
0.0
  0
LINE
  5
19F
100
AcDbEntity
  8
LY_3
  6
CONTINUOUS
 62
         3
100
AcDbLine
 10
123.517503
 20
177.999991
 30
0.0
 11
104.482582
 21
177.999991
 31
0.0
  0
LINE
  5
1A0
100
AcDbEntity
  8
LY_3
  6
CONTINUOUS
 62
         3
100
AcDbLine
 10
0.0
 20
103.000024
 30
0.0
 11
0.0
 21
176.999976
 31
0.0
  0
LINE
  5
1A1
100
AcDbEntity
  8
LY_3
  6
CONTINUOUS
 62
         3
100
AcDbLine
 10
105.621385
 20
112.500024
 30
0.0
 11
136.886188
 21
112.500024
 31
0.0
  0
LINE
  5
1A2
100
AcDbEntity
  8
LY_3
  6
CONTINUOUS
 62
         3
100
AcDbLine
 10
141.474149
 20
176.999976
 30
0.0
 11
152.000102
 21
176.999976
 31
0.0
  0
LINE
  5
1A3
100
AcDbEntity
  8
LY_3
  6
CONTINUOUS
 62
         3
100
AcDbLine
 10
66.353757
 20
174.310686
 30
0.0
 11
66.482591
 21
177.999991
 31
0.0
  0
LINE
  5
1A4
100
AcDbEntity
  8
LY_3
  6
CONTINUOUS
 62
         3
100
AcDbLine
 10
85.517512
 20
177.999991
 30
0.0
 11
66.482591
 21
177.999991
 31
0.0
  0
LINE
  5
1A5
100
AcDbEntity
  8
LY_3
  6
CENTER
 62
        80
100
AcDbLine
 10
-3.328651
 20
113.000024
 30
0.0
 11
16.145324
 21
113.000024
 31
0.0
  0
LINE
  5
1A6
100
AcDbEntity
  8
LY_3
  6
CENTER
 62
        80
100
AcDbLine
 10
135.854778
 20
166.999976
 30
0.0
 11
155.328754
 21
166.999976
 31
0.0
  0
LINE
  5
1A7
100
AcDbEntity
  8
LY_3
  6
CONTINUOUS
 62
         3
100
AcDbLine
 10
0.0
 20
103.000024
 30
0.0
 11
10.525954
 21
103.000024
 31
0.0
  0
LINE
  5
1A8
100
AcDbEntity
  8
LY_3
  6
DASHED
 62
        80
100
AcDbLine
 10
51.00009
 20
107.500016
 30
0.0
 11
52.020811
 21
107.500016
 31
0.0
  0
LINE
  5
1A9
100
AcDbEntity
  8
LY_3
  6
CONTINUOUS
 62
         3
100
AcDbLine
 10
152.000102
 20
103.000024
 30
0.0
 11
141.474149
 21
103.000024
 31
0.0
  0
LINE
  5
1AA
100
AcDbEntity
  8
LY_3
  6
CONTINUOUS
 62
         3
100
AcDbLine
 10
66.353757
 20
105.689314
 30
0.0
 11
66.482591
 21
102.000009
 31
0.0
  0
LINE
  5
1AB
100
AcDbEntity
  8
LY_3
  6
CONTINUOUS
 62
         3
100
AcDbLine
 10
123.884171
 20
167.499976
 30
0.0
 11
123.517503
 21
177.999991
 31
0.0
  0
LINE
  5
1AC
100
AcDbEntity
  8
LY_3
  6
CONTINUOUS
 62
         3
100
AcDbLine
 10
123.884171
 20
112.500024
 30
0.0
 11
123.517503
 21
102.000009
 31
0.0
  0
LINE
  5
1AD
100
AcDbEntity
  8
LY_3
  6
CONTINUOUS
 62
         3
100
AcDbLine
 10
104.290518
 20
107.500016
 30
0.0
 11
104.482582
 21
102.000009
 31
0.0
  0
LINE
  5
1AE
100
AcDbEntity
  8
LY_3
  6
CENTER
 62
        80
100
AcDbLine
 10
16.145324
 20
166.999976
 30
0.0
 11
-3.328651
 21
166.999976
 31
0.0
  0
LINE
  5
1AF
100
AcDbEntity
  8
LY_3
  6
CONTINUOUS
 62
         3
100
AcDbLine
 10
10.525954
 20
176.999976
 30
0.0
 11
0.0
 21
176.999976
 31
0.0
  0
LINE
  5
1B0
100
AcDbEntity
  8
LY_3
  6
CONTINUOUS
 62
         3
100
AcDbLine
 10
152.000121
 20
130.016999
 30
0.0
 11
202.000121
 21
130.016999
 31
0.0
  0
LINE
  5
1B1
100
AcDbEntity
  8
LY_3
  6
CONTINUOUS
 62
         3
100
AcDbLine
 10
152.000121
 20
150.016999
 30
0.0
 11
202.000121
 21
150.016999
 31
0.0
  0
LINE
  5
1B2
100
AcDbEntity
  8
LY_3
  6
CONTINUOUS
 62
         3
100
AcDbLine
 10
164.000121
 20
127.516999
 30
0.0
 11
202.000121
 21
127.516999
 31
0.0
  0
LINE
  5
1B3
100
AcDbEntity
  8
LY_3
  6
CONTINUOUS
 62
         3
100
AcDbLine
 10
202.000121
 20
127.516999
 30
0.0
 11
202.000121
 21
150.016999
 31
0.0
  0
LINE
  5
1B4
100
AcDbEntity
  8
LY_3
  6
CONTINUOUS
 62
         3
100
AcDbLine
 10
164.000121
 20
127.516999
 30
0.0
 11
164.000121
 21
130.016999
 31
0.0
  0
LINE
  5
1B5
100
AcDbEntity
  8
LY_3
  6
CONTINUOUS
 62
         3
100
AcDbLine
 10
-0.000019
 20
130.016999
 30
0.0
 11
-50.000019
 21
130.016999
 31
0.0
  0
LINE
  5
1B6
100
AcDbEntity
  8
LY_3
  6
CONTINUOUS
 62
         3
100
AcDbLine
 10
-0.000019
 20
150.016999
 30
0.0
 11
-50.000019
 21
150.016999
 31
0.0
  0
LINE
  5
1B7
100
AcDbEntity
  8
LY_3
  6
CONTINUOUS
 62
         3
100
AcDbLine
 10
-12.000019
 20
127.516999
 30
0.0
 11
-12.000019
 21
130.016999
 31
0.0
  0
LINE
  5
1B8
100
AcDbEntity
  8
LY_3
  6
CONTINUOUS
 62
         3
100
AcDbLine
 10
-50.000019
 20
127.516999
 30
0.0
 11
-50.000019
 21
150.016999
 31
0.0
  0
LINE
  5
1B9
100
AcDbEntity
  8
LY_3
  6
CONTINUOUS
 62
         3
100
AcDbLine
 10
-12.000019
 20
127.516999
 30
0.0
 11
-50.000019
 21
127.516999
 31
0.0
  0
ENDSEC
  0
SECTION
  2
OBJECTS
  0
DICTIONARY
  5
19
100
AcDbDictionary
  3
ACAD_GROUP
350
1A
  3
ACAD_MLINESTYLE
350
1B
  0
DICTIONARY
  5
1A
102
{ACAD_REACTORS
330
19
102
}
100
AcDbDictionary
  0
DICTIONARY
  5
1B
102
{ACAD_REACTORS
330
19
102
}
100
AcDbDictionary
  3
STANDARD
350
1C
  0
MLINESTYLE
  5
1C
102
{ACAD_REACTORS
330
1B
102
}
100
AcDbMlineStyle
  2
Standard
 70
         0
  3

 62
         0
 51
90.0
 52
90.0
 71
         2
 49
0.5
 62
       256
  6
ByLayer
 49
-0.5
 62
       256
  6
ByLayer
  0
ENDSEC
  0
EOF
