  0
SECTION
  2
HEADER
  9
$ACADVER
  1
AC1014
  9
$ACADMAINTVER
 70
         0
  9
$DWGCODEPAGE
  3
ANSI_932
  9
$INSBASE
 10
0.0
 20
0.0
 30
0.0
  9
$EXTMIN
 10
-149.7484177085
 20
-167.808433
 30
0.0
  9
$EXTMAX
 10
85.482945
 20
122.1256910721
 30
0.0
  9
$LIMMIN
 10
-149.7484177085
 20
-167.808433
  9
$LIMMAX
 10
85.482945
 20
122.1256910721
  9
$ORTHOMODE
 70
         0
  9
$REGENMODE
 70
         1
  9
$FILLMODE
 70
         1
  9
$QTEXTMODE
 70
         0
  9
$MIRRTEXT
 70
         1
  9
$DRAGMODE
 70
         2
  9
$LTSCALE
 40
1.0
  9
$OSMODE
 70
         0
  9
$ATTMODE
 70
         1
  9
$TEXTSIZE
 40
3.2000000477
  9
$TRACEWID
 40
0.05
  9
$TEXTSTYLE
  7
MX_NOTE_STANDARD
  9
$CLAYER
  8
LY_3
  9
$CELTYPE
  6
CONTINUOUS
  9
$CECOLOR
 62
       256
  9
$CELTSCALE
 40
1.0
  9
$DELOBJ
 70
         1
  9
$DISPSILH
 70
         0
  9
$DIMSCALE
 40
1.0
  9
$DIMASZ
 40
2.5
  9
$DIMEXO
 40
0.0
  9
$DIMDLI
 40
3.75
  9
$DIMRND
 40
0.0
  9
$DIMDLE
 40
0.0
  9
$DIMEXE
 40
2.5
  9
$DIMTP
 40
0.0
  9
$DIMTM
 40
0.0
  9
$DIMTXT
 40
3.2000000477
  9
$DIMCEN
 40
2.5
  9
$DIMTSZ
 40
0.0
  9
$DIMTOL
 70
         0
  9
$DIMLIM
 70
         0
  9
$DIMTIH
 70
         0
  9
$DIMTOH
 70
         0
  9
$DIMSE1
 70
         0
  9
$DIMSE2
 70
         0
  9
$DIMTAD
 70
         1
  9
$DIMZIN
 70
         8
  9
$DIMBLK
  1

  9
$DIMASO
 70
         1
  9
$DIMSHO
 70
         1
  9
$DIMPOST
  1

  9
$DIMAPOST
  1

  9
$DIMALT
 70
         0
  9
$DIMALTD
 70
         4
  9
$DIMALTF
 40
0.0393700787
  9
$DIMLFAC
 40
1.0
  9
$DIMTOFL
 70
         1
  9
$DIMTVP
 40
0.0
  9
$DIMTIX
 70
         0
  9
$DIMSOXD
 70
         0
  9
$DIMSAH
 70
         1
  9
$DIMBLK1
  1
_OPEN30
  9
$DIMBLK2
  1
_OPEN30
  9
$DIMSTYLE
  2
MXDIMSTYLE
  9
$DIMCLRD
 70
         0
  9
$DIMCLRE
 70
         0
  9
$DIMCLRT
 70
         0
  9
$DIMTFAC
 40
1.0
  9
$DIMGAP
 40
1.0
  9
$DIMJUST
 70
         0
  9
$DIMSD1
 70
         0
  9
$DIMSD2
 70
         0
  9
$DIMTOLJ
 70
         0
  9
$DIMTZIN
 70
         0
  9
$DIMALTZ
 70
         0
  9
$DIMALTTZ
 70
         0
  9
$DIMFIT
 70
         3
  9
$DIMUPT
 70
         0
  9
$DIMUNIT
 70
         2
  9
$DIMDEC
 70
         2
  9
$DIMTDEC
 70
         2
  9
$DIMALTU
 70
         2
  9
$DIMALTTD
 70
         4
  9
$DIMTXSTY
  7
MX_NOTE_STANDARD
  9
$DIMAUNIT
 70
         0
  9
$LUNITS
 70
         2
  9
$LUPREC
 70
         4
  9
$SKETCHINC
 40
0.1
  9
$FILLETRAD
 40
0.0
  9
$AUNITS
 70
         0
  9
$AUPREC
 70
         0
  9
$MENU
  1
acad
  9
$ELEVATION
 40
0.0
  9
$PELEVATION
 40
0.0
  9
$THICKNESS
 40
0.0
  9
$LIMCHECK
 70
         0
  9
$BLIPMODE
 70
         1
  9
$CHAMFERA
 40
0.0
  9
$CHAMFERB
 40
0.0
  9
$CHAMFERC
 40
0.0
  9
$CHAMFERD
 40
0.0
  9
$SKPOLY
 70
         0
  9
$TDCREATE
 40
2456603.419502315
  9
$TDUPDATE
 40
2456603.419502315
  9
$TDINDWG
 40
0.0000000000
  9
$TDUSRTIMER
 40
0.0000000000
  9
$USRTIMER
 70
         1
  9
$ANGBASE
 50
0.0
  9
$ANGDIR
 70
         0
  9
$PDMODE
 70
         0
  9
$PDSIZE
 40
0.0
  9
$PLINEWID
 40
0.0
  9
$COORDS
 70
         1
  9
$SPLFRAME
 70
         0
  9
$SPLINETYPE
 70
         6
  9
$SPLINESEGS
 70
         8
  9
$ATTDIA
 70
         0
  9
$ATTREQ
 70
         1
  9
$HANDLING
 70
         1
  9
$HANDSEED
  5
D3
  9
$SURFTAB1
 70
         6
  9
$SURFTAB2
 70
         6
  9
$SURFTYPE
 70
         6
  9
$SURFU
 70
         6
  9
$SURFV
 70
         6
  9
$UCSNAME
  2

  9
$UCSORG
 10
0.0
 20
0.0
 30
0.0
  9
$UCSXDIR
 10
1.0
 20
0.0
 30
0.0
  9
$UCSYDIR
 10
0.0
 20
1.0
 30
0.0
  9
$PUCSNAME
  2

  9
$PUCSORG
 10
0.0
 20
0.0
 30
0.0
  9
$PUCSXDIR
 10
1.0
 20
0.0
 30
0.0
  9
$PUCSYDIR
 10
0.0
 20
1.0
 30
0.0
  9
$USERI1
 70
         0
  9
$USERI2
 70
         0
  9
$USERI3
 70
         0
  9
$USERI4
 70
         0
  9
$USERI5
 70
         0
  9
$USERR1
 40
0.0
  9
$USERR2
 40
0.0
  9
$USERR3
 40
0.0
  9
$USERR4
 40
0.0
  9
$USERR5
 40
0.0
  9
$WORLDVIEW
 70
         1
  9
$SHADEDGE
 70
         3
  9
$SHADEDIF
 70
        70
  9
$TILEMODE
 70
         1
  9
$MAXACTVP
 70
        16
  9
$PINSBASE
 10
0.0
 20
0.0
 30
0.0
  9
$PLIMCHECK
 70
         0
  9
$PEXTMIN
 10
1.0000000000E+20
 20
1.0000000000E+20
 30
1.0000000000E+20
  9
$PEXTMAX
 10
-1.0000000000E+20
 20
-1.0000000000E+20
 30
-1.0000000000E+20
  9
$PLIMMIN
 10
0.0
 20
0.0
  9
$PLIMMAX
 10
12.0
 20
9.0
  9
$UNITMODE
 70
         0
  9
$VISRETAIN
 70
         0
  9
$PLINEGEN
 70
         1
  9
$PSLTSCALE
 70
         0
  9
$TREEDEPTH
 70
      3020
  9
$PICKSTYLE
 70
         1
  9
$CMLSTYLE
  2
Standard
  9
$CMLJUST
 70
         0
  9
$CMLSCALE
 40
1.0
  9
$PROXYGRAPHICS
 70
         0
  9
$MEASUREMENT
 70
         1
  0
ENDSEC
  0
SECTION
  2
CLASSES
  0
CLASS
  1
LWPOLYLINE
  2
AcDbPolyline
  3
"AutoCAD"
 90
        0
280
         0
281
         1
  0
CLASS
  1
IMAGE
  2
AcDbRasterImage
  3
ISM
 90
      127
280
         0
281
         1
  0
CLASS
  1
OLE2FRAME
  2
AcDbOle2Frame
  3
""
 90
        0
280
         0
281
         1
  0
CLASS
  1
HATCH
  2
AcDbHatch
  3
"ACAD_SEDONA"
 90
        0
280
         0
281
         1
  0
CLASS
  1
DICTIONARYVAR
  2
AcDbDictionaryVar
  3
"AutoCAD"
 90
        0
280
         0
281
         0
  0
CLASS
  1
RASTERVARIABLES
  2
AcDbRasterVariables
  3
ISM
 90
        0
280
         0
281
         0
  0
CLASS
  1
IMAGEDEF
  2
AcDbRasterImageDef
  3
ISM
 90
        0
280
         0
281
         0
  0
CLASS
  1
IMAGEDEF_REACTOR
  2
AcDbRasterImageDefReactor
  3
ISM
 90
        1
280
         0
281
         0
  0
CLASS
  1
IDBUFFER
  2
AcDbIdBuffer
  3
"Acad"
 90
        0
280
         0
281
         0
  0
CLASS
  1
SPATIAL_FILTER
  2
AcDbSpatialFilter
  3
"Acad"
 90
        0
280
         0
281
         0
  0
CLASS
  1
XRECORD
  2
AcDbXrecord
  3
"<Built In>"
 90
        0
280
         0
281
         0
  0
CLASS
  1
SORTENTSTABLE
  2
AcDbSortentsTable
  3
"AutoCAD"
 90
        0
280
         0
281
         0
  0
CLASS
  1
LAYER_INDEX
  2
AcDbLayerIndex
  3
"Acad"
 90
        0
280
         0
281
         0
  0
CLASS
  1
SPATIAL_INDEX
  2
AcDbSpatialIndex
  3
"Acad"
 90
        0
280
         0
281
         0
  0
CLASS
  1
OBJECT_PTR
  2
CAseDLPNTableRecord
  3
"ASE-LPNTableRecord"
 90
        1
280
         0
281
         0
  0
CLASS
  1
LAYOUT
  2
AcDbLayout
  3
"AutoCAD 2000"
 90
        0
280
         0
281
         0
  0
CLASS
  1
PLOTSETTINGS
  2
AcDbPlotSettings
  3
"AutoCAD 2000"
 90
        0
280
         0
281
         0
  0
CLASS
  1
ACDBDICTIONARYWDFLT
  2
AcDbDictionaryWithDefault
  3
"AutoCAD 2000"
 90
        0
280
         0
281
         0
  0
CLASS
  1
ACDBPLACEHOLDER
  2
AcDbPlaceHolder
  3
"AutoCAD 2000"
 90
        0
280
         0
281
         0
  0
ENDSEC
  0
SECTION
  2
TABLES
  0
TABLE
  2
VPORT
  5
7
100
AcDbSymbolTable
 70
         1
  0
VPORT
  5
15
100
AcDbSymbolTableRecord
100
AcDbViewportTableRecord
  2
*ACTIVE
 70
         0
 10
0.0
 20
0.0
 11
1.0
 21
1.0
 12
-32.1327363542
 22
-22.841370964
 13
0.0
 23
0.0
 14
1.0
 24
1.0
 15
0.0
 25
0.0
 16
0.0
 26
0.0
 36
1.0
 17
0.0
 27
0.0
 37
0.0
 40
292.8334653128
 41
1.7320508076
 42
50.0
 43
0.0
 44
0.0
 50
0.0
 51
0.0
 71
         0
 72
       100
 73
         1
 74
         1
 75
         0
 76
         0
 77
         0
 78
         0
  0
ENDTAB
  0
TABLE
  2
LTYPE
  5
4
100
AcDbSymbolTable
 70
         4
  0
LTYPE
  5
11
100
AcDbSymbolTableRecord
100
AcDbLinetypeTableRecord
  2
BYBLOCK
 70
        64
  3

 72
        65
 73
         0
 40
0.0
  0
LTYPE
  5
12
100
AcDbSymbolTableRecord
100
AcDbLinetypeTableRecord
  2
BYLAYER
 70
        64
  3

 72
        65
 73
         0
 40
0.0
  0
LTYPE
  5
13
100
AcDbSymbolTableRecord
100
AcDbLinetypeTableRecord
  2
CONTINUOUS
 70
        64
  3
Solid line
 72
        65
 73
         0
 40
0.0
  0
LTYPE
  5
93
100
AcDbSymbolTableRecord
100
AcDbLinetypeTableRecord
  2
CENTER
 70
        64
  3
Center ____ _ ____ _ ____ _ ____ _ ____ _ ____
 72
        65
 73
         4
 40
50.8
 49
31.75
 74
         0
 49
-6.35
 74
         0
 49
6.35
 74
         0
 49
-6.35
 74
         0
  0
ENDTAB
  0
TABLE
  2
LAYER
  5
2
100
AcDbSymbolTable
 70
         3
  0
LAYER
  5
14
100
AcDbSymbolTableRecord
100
AcDbLayerTableRecord
  2
0
 70
         0
 62
         7
  6
CONTINUOUS
  0
LAYER
  5
1D
100
AcDbSymbolTableRecord
100
AcDbLayerTableRecord
  2
DEFPOINTS
 70
         0
 62
         7
  6
CONTINUOUS
  0
LAYER
  5
1E
100
AcDbSymbolTableRecord
100
AcDbLayerTableRecord
  2
LY_3
 70
         0
 62
         7
  6
CONTINUOUS
  0
ENDTAB
  0
TABLE
  2
STYLE
  5
3
100
AcDbSymbolTable
 70
         1
  0
STYLE
  5
17
100
AcDbSymbolTableRecord
100
AcDbTextStyleTableRecord
  2
MX_NOTE_STANDARD
 70
         0
 40
0.0
 41
1.0
 50
0.0
 71
         0
 42
3.2000000477
  3
txt.shx
  4
extfont.shx
  0
ENDTAB
  0
TABLE
  2
VIEW
  5
5
100
AcDbSymbolTable
 70
         0
  0
ENDTAB
  0
TABLE
  2
UCS
  5
6
100
AcDbSymbolTable
 70
         0
  0
ENDTAB
  0
TABLE
  2
APPID
  5
8
100
AcDbSymbolTable
 70
         1
  0
APPID
  5
16
100
AcDbSymbolTableRecord
100
AcDbRegAppTableRecord
  2
ACAD
 70
         0
  0
ENDTAB
  0
TABLE
  2
DIMSTYLE
  5
9
100
AcDbSymbolTable
 70
         1
  0
DIMSTYLE
105
18
100
AcDbSymbolTableRecord
100
AcDbDimStyleTableRecord
  2
MXDIMSTYLE
 70
         0
  3

  4

  5

  6
_OPEN30
  7
_OPEN30
 40
1.0
 41
2.5
 42
0.0
 43
3.75
 44
2.5
 45
0.0
 46
0.0
 47
0.0
 48
0.0
 71
         0
 72
         0
 73
         0
 74
         0
 75
         0
 76
         0
 77
         1
 78
         8
140
3.2000000477
141
2.5
142
0.0
143
0.0393700787
144
1.0
145
0.0
146
1.0
147
1.0
170
         0
171
         4
172
         1
173
         1
174
         0
175
         0
176
         0
177
         0
178
         0
270
         2
271
         2
272
         2
273
         2
274
         4
275
         0
280
         0
281
         0
282
         0
283
         0
284
         0
285
         0
286
         0
287
         3
288
         0
340
17
  0
ENDTAB
  0
TABLE
  2
BLOCK_RECORD
  5
1
100
AcDbSymbolTable
 70
         1
  0
BLOCK_RECORD
  5
A
100
AcDbSymbolTableRecord
100
AcDbBlockTableRecord
  2
*MODEL_SPACE
  0
BLOCK_RECORD
  5
B
100
AcDbSymbolTableRecord
100
AcDbBlockTableRecord
  2
*PAPER_SPACE
  0
BLOCK_RECORD
  5
1F
100
AcDbSymbolTableRecord
100
AcDbBlockTableRecord
  2
_OPEN30
  0
ENDTAB
  0
ENDSEC
  0
SECTION
  2
BLOCKS
  0
BLOCK
  5
D
100
AcDbEntity
  8
0
100
AcDbBlockBegin
  2
*MODEL_SPACE
 70
         0
 10
0.0
 20
0.0
 30
0.0
  3
*MODEL_SPACE
  1

  0
ENDBLK
  5
E
100
AcDbEntity
  8
0
100
AcDbBlockEnd
  0
BLOCK
  5
F
100
AcDbEntity
 67
         1
  8
0
100
AcDbBlockBegin
  2
*PAPER_SPACE
 70
         0
 10
0.0
 20
0.0
 30
0.0
  3
*PAPER_SPACE
  1

  0
ENDBLK
  5
10
100
AcDbEntity
 67
         1
  8
0
100
AcDbBlockEnd
  0
BLOCK
  5
20
100
AcDbEntity
  8
0
  6
ByBlock
 62
         0
100
AcDbBlockBegin
  2
_OPEN30
 70
         2
 10
0.0
 20
0.0
 30
0.0
  3
_OPEN30
  1

  0
LINE
  5
21
100
AcDbEntity
  8
0
  6
ByBlock
 62
         0
100
AcDbLine
 10
-1.0
 20
0.267949
 30
0.0
 11
0.0
 21
0.0
 31
0.0
  0
LINE
  5
22
100
AcDbEntity
  8
0
  6
ByBlock
 62
         0
100
AcDbLine
 10
0.0
 20
0.0
 30
0.0
 11
-1.0
 21
-0.267949
 31
0.0
  0
LINE
  5
23
100
AcDbEntity
  8
0
  6
ByBlock
 62
         0
100
AcDbLine
 10
0.0
 20
0.0
 30
0.0
 11
-1.0
 21
0.0
 31
0.0
  0
ENDBLK
  5
24
100
AcDbEntity
  8
0
  6
ByBlock
 62
         0
100
AcDbBlockEnd
  0
ENDSEC
  0
SECTION
  2
ENTITIES
  0
MTEXT
  5
25
100
AcDbEntity
  8
LY_3
  6
CONTINUOUS
 62
       110
100
AcDbMText
 10
-147.446440963
 20
117.7423578659
 30
0.0
 40
13.1499996185
 41
0.0
 71
         1
 72
         1
  1
\W1.050;\A1;TSUBAKI
  0
POINT
  5
26
100
AcDbEntity
  8
LY_3
  6
CONTINUOUS
 62
        20
100
AcDbPoint
 10
22.882955
 20
-30.308433
 30
0.0
  0
POINT
  5
27
100
AcDbEntity
  8
LY_3
  6
CONTINUOUS
 62
        20
100
AcDbPoint
 10
84.882924
 20
-30.308433
 30
0.0
  0
POINT
  5
28
100
AcDbEntity
  8
LY_3
  6
CONTINUOUS
 62
        20
100
AcDbPoint
 10
22.882955
 20
-30.308433
 30
0.0
  0
POINT
  5
29
100
AcDbEntity
  8
LY_3
  6
CONTINUOUS
 62
        20
100
AcDbPoint
 10
-50.958888
 20
-30.308433
 30
0.0
  0
POINT
  5
2A
100
AcDbEntity
  8
LY_3
  6
CONTINUOUS
 62
        20
100
AcDbPoint
 10
-50.958888
 20
-130.308433
 30
0.0
  0
POINT
  5
2B
100
AcDbEntity
  8
LY_3
  6
CONTINUOUS
 62
        20
100
AcDbPoint
 10
85.482945
 20
-30.308433
 30
0.0
  0
LINE
  5
2C
100
AcDbEntity
  8
LY_3
  6
CONTINUOUS
 62
       251
100
AcDbLine
 10
22.882955
 20
-14.308433
 30
0.0
 11
22.882955
 21
-20.308433
 31
0.0
  0
LINE
  5
2D
100
AcDbEntity
  8
LY_3
  6
CONTINUOUS
 62
       251
100
AcDbLine
 10
22.882955
 20
-46.308433
 30
0.0
 11
26.582954
 21
-46.308433
 31
0.0
  0
LINE
  5
2E
100
AcDbEntity
  8
LY_3
  6
CONTINUOUS
 62
       251
100
AcDbLine
 10
22.882955
 20
-14.308433
 30
0.0
 11
26.582954
 21
-14.308433
 31
0.0
  0
LINE
  5
2F
100
AcDbEntity
  8
LY_3
  6
CONTINUOUS
 62
       251
100
AcDbLine
 10
37.782948
 20
7.191567
 30
0.0
 11
37.782948
 21
-14.308433
 31
0.0
  0
LINE
  5
30
100
AcDbEntity
  8
LY_3
  6
CONTINUOUS
 62
       251
100
AcDbLine
 10
37.782948
 20
-46.308433
 30
0.0
 11
37.782948
 21
-50.808433
 31
0.0
  0
LINE
  5
31
100
AcDbEntity
  8
LY_3
  6
CONTINUOUS
 62
       251
100
AcDbLine
 10
37.782948
 20
-47.108433
 30
0.0
 11
45.482945
 21
-47.108433
 31
0.0
  0
LINE
  5
32
100
AcDbEntity
  8
LY_3
  6
CONTINUOUS
 62
       251
100
AcDbLine
 10
37.782948
 20
-13.508445
 30
0.0
 11
45.482945
 21
-13.508445
 31
0.0
  0
LINE
  5
33
100
AcDbEntity
  8
LY_3
  6
CONTINUOUS
 62
       251
100
AcDbLine
 10
45.482945
 20
-48.308434
 30
0.0
 11
53.482943
 21
-48.308434
 31
0.0
  0
LINE
  5
34
100
AcDbEntity
  8
LY_3
  6
CONTINUOUS
 62
       251
100
AcDbLine
 10
45.482945
 20
-12.308448
 30
0.0
 11
53.482932
 21
-12.308448
 31
0.0
  0
LINE
  5
35
100
AcDbEntity
  8
LY_3
  6
CONTINUOUS
 62
       251
100
AcDbLine
 10
53.482919
 20
-10.583457
 30
0.0
 11
78.782933
 21
-10.583457
 31
0.0
  0
LINE
  5
36
100
AcDbEntity
  8
LY_3
  6
CONTINUOUS
 62
       251
100
AcDbLine
 10
78.782933
 20
-10.583457
 30
0.0
 11
78.782933
 21
-14.303459
 31
0.0
  0
LINE
  5
37
100
AcDbEntity
  8
LY_3
  6
CONTINUOUS
 62
       251
100
AcDbLine
 10
78.582936
 20
-46.313435
 30
0.0
 11
84.882924
 21
-46.313435
 31
0.0
  0
LINE
  5
38
100
AcDbEntity
  8
LY_3
  6
CONTINUOUS
 62
       251
100
AcDbLine
 10
78.782933
 20
-14.303459
 30
0.0
 11
84.882924
 21
-14.303459
 31
0.0
  0
LINE
  5
39
100
AcDbEntity
  8
LY_3
  6
CONTINUOUS
 62
       251
100
AcDbLine
 10
84.882924
 20
-46.313435
 30
0.0
 11
84.882924
 21
-40.308433
 31
0.0
  0
LINE
  5
3A
100
AcDbEntity
  8
LY_3
  6
CONTINUOUS
 62
       251
100
AcDbLine
 10
22.882955
 20
-18.308433
 30
0.0
 11
84.882955
 21
-18.308433
 31
0.0
  0
LINE
  5
3B
100
AcDbEntity
  8
LY_3
  6
CONTINUOUS
 62
       251
100
AcDbLine
 10
22.882955
 20
-40.308433
 30
0.0
 11
84.882924
 21
-40.308433
 31
0.0
  0
LINE
  5
3C
100
AcDbEntity
  8
LY_3
  6
CONTINUOUS
 62
       251
100
AcDbLine
 10
22.882955
 20
-20.308433
 30
0.0
 11
84.882924
 21
-20.308433
 31
0.0
  0
LINE
  5
3D
100
AcDbEntity
  8
LY_3
  6
CONTINUOUS
 62
       251
100
AcDbLine
 10
26.582954
 20
-12.708442
 30
0.0
 11
26.582954
 21
-14.908439
 31
0.0
  0
LINE
  5
3E
100
AcDbEntity
  8
LY_3
  6
CONTINUOUS
 62
       251
100
AcDbLine
 10
26.582954
 20
-45.708434
 30
0.0
 11
26.582954
 21
-47.908434
 31
0.0
  0
LINE
  5
3F
100
AcDbEntity
  8
LY_3
  6
CONTINUOUS
 62
       251
100
AcDbLine
 10
26.582954
 20
-45.708434
 30
0.0
 11
27.782948
 21
-45.708434
 31
0.0
  0
LINE
  5
40
100
AcDbEntity
  8
LY_3
  6
CONTINUOUS
 62
       251
100
AcDbLine
 10
26.582954
 20
-14.908439
 30
0.0
 11
27.782948
 21
-14.908439
 31
0.0
  0
LINE
  5
41
100
AcDbEntity
  8
LY_3
  6
CONTINUOUS
 62
       251
100
AcDbLine
 10
28.082954
 20
-14.308433
 30
0.0
 11
37.782948
 21
-14.308433
 31
0.0
  0
LINE
  5
42
100
AcDbEntity
  8
LY_3
  6
CONTINUOUS
 62
       251
100
AcDbLine
 10
27.782948
 20
-46.308433
 30
0.0
 11
37.782948
 21
-46.308433
 31
0.0
  0
LINE
  5
43
100
AcDbEntity
  8
LY_3
  6
CONTINUOUS
 62
       251
100
AcDbLine
 10
27.782948
 20
-7.808433
 30
0.0
 11
27.782948
 21
-14.908439
 31
0.0
  0
LINE
  5
44
100
AcDbEntity
  8
LY_3
  6
CONTINUOUS
 62
       251
100
AcDbLine
 10
28.082954
 20
-14.308433
 30
0.0
 11
27.782948
 21
-14.308433
 31
0.0
  0
LINE
  5
45
100
AcDbEntity
  8
LY_3
  6
CONTINUOUS
 62
       251
100
AcDbLine
 10
27.782948
 20
-7.808433
 30
0.0
 11
37.782948
 21
-7.808433
 31
0.0
  0
LINE
  5
46
100
AcDbEntity
  8
LY_3
  6
CONTINUOUS
 62
       251
100
AcDbLine
 10
27.782948
 20
-60.808433
 30
0.0
 11
37.782948
 21
-60.808433
 31
0.0
  0
LINE
  5
47
100
AcDbEntity
  8
LY_3
  6
CONTINUOUS
 62
       251
100
AcDbLine
 10
27.782948
 20
-45.708434
 30
0.0
 11
27.782948
 21
-50.808433
 31
0.0
  0
LINE
  5
48
100
AcDbEntity
  8
LY_3
  6
CONTINUOUS
 62
       251
100
AcDbLine
 10
45.482945
 20
7.191567
 30
0.0
 11
45.482945
 21
-13.508445
 31
0.0
  0
LINE
  5
49
100
AcDbEntity
  8
LY_3
  6
CONTINUOUS
 62
       251
100
AcDbLine
 10
45.482945
 20
7.191567
 30
0.0
 11
37.782948
 21
7.191567
 31
0.0
  0
LINE
  5
4A
100
AcDbEntity
  8
LY_3
  6
CONTINUOUS
 62
       251
100
AcDbLine
 10
37.782948
 20
-67.808433
 30
0.0
 11
45.482945
 21
-67.808433
 31
0.0
  0
LINE
  5
4B
100
AcDbEntity
  8
LY_3
  6
CONTINUOUS
 62
       251
100
AcDbLine
 10
45.482945
 20
-47.108433
 30
0.0
 11
45.482945
 21
-67.808433
 31
0.0
  0
LINE
  5
4C
100
AcDbEntity
  8
LY_3
  6
CONTINUOUS
 62
       251
100
AcDbLine
 10
37.782948
 20
-8.308433
 30
0.0
 11
45.482945
 21
-8.308433
 31
0.0
  0
LINE
  5
4D
100
AcDbEntity
  8
LY_3
  6
CONTINUOUS
 62
       251
100
AcDbLine
 10
37.782948
 20
-48.308433
 30
0.0
 11
45.482945
 21
-48.308433
 31
0.0
  0
LINE
  5
4E
100
AcDbEntity
  8
LY_3
  6
CONTINUOUS
 62
       251
100
AcDbLine
 10
45.482945
 20
7.191567
 30
0.0
 11
53.482945
 21
7.191567
 31
0.0
  0
LINE
  5
4F
100
AcDbEntity
  8
LY_3
  6
CONTINUOUS
 62
       251
100
AcDbLine
 10
45.482945
 20
-67.808434
 30
0.0
 11
53.482945
 21
-67.808434
 31
0.0
  0
LINE
  5
50
100
AcDbEntity
  8
LY_3
  6
CONTINUOUS
 62
       251
100
AcDbLine
 10
53.482945
 20
-55.808448
 30
0.0
 11
53.482945
 21
-67.808434
 31
0.0
  0
LINE
  5
51
100
AcDbEntity
  8
LY_3
  6
CONTINUOUS
 62
       251
100
AcDbLine
 10
53.482945
 20
-4.808448
 30
0.0
 11
53.482945
 21
7.191567
 31
0.0
  0
LINE
  5
52
100
AcDbEntity
  8
LY_3
  6
CONTINUOUS
 62
       251
100
AcDbLine
 10
53.482945
 20
-4.808448
 30
0.0
 11
80.882924
 21
-4.808448
 31
0.0
  0
LINE
  5
53
100
AcDbEntity
  8
LY_3
  6
CONTINUOUS
 62
       251
100
AcDbLine
 10
53.482945
 20
-55.808448
 30
0.0
 11
56.082936
 21
-55.808448
 31
0.0
  0
LINE
  5
54
100
AcDbEntity
  8
LY_3
  6
CONTINUOUS
 62
       251
100
AcDbLine
 10
78.582936
 20
-46.313435
 30
0.0
 11
78.582936
 21
-56.308448
 31
0.0
  0
LINE
  5
55
100
AcDbEntity
  8
LY_3
  6
CONTINUOUS
 62
       251
100
AcDbLine
 10
53.48293
 20
-50.308448
 30
0.0
 11
56.082936
 21
-50.308448
 31
0.0
  0
LINE
  5
56
100
AcDbEntity
  8
LY_3
  6
CONTINUOUS
 62
       251
100
AcDbLine
 10
53.48293
 20
-10.308448
 30
0.0
 11
80.882924
 21
-10.308448
 31
0.0
  0
LINE
  5
57
100
AcDbEntity
  8
LY_3
  6
CONTINUOUS
 62
       251
100
AcDbLine
 10
53.482917
 20
-10.308459
 30
0.0
 11
53.482932
 21
-12.308448
 31
0.0
  0
LINE
  5
58
100
AcDbEntity
  8
LY_3
  6
CONTINUOUS
 62
       251
100
AcDbLine
 10
53.482928
 20
-50.308449
 30
0.0
 11
53.482943
 21
-48.308434
 31
0.0
  0
LINE
  5
59
100
AcDbEntity
  8
LY_3
  6
CONTINUOUS
 62
       251
100
AcDbLine
 10
54.482945
 20
-67.808434
 30
0.0
 11
85.482945
 21
-67.808434
 31
0.0
  0
LINE
  5
5A
100
AcDbEntity
  8
LY_3
  6
CONTINUOUS
 62
       251
100
AcDbLine
 10
54.482945
 20
-56.308448
 30
0.0
 11
85.482945
 21
-56.308448
 31
0.0
  0
LINE
  5
5B
100
AcDbEntity
  8
LY_3
  6
CONTINUOUS
 62
       251
100
AcDbLine
 10
54.482945
 20
-4.308448
 30
0.0
 11
85.482945
 21
-4.308448
 31
0.0
  0
LINE
  5
5C
100
AcDbEntity
  8
LY_3
  6
CONTINUOUS
 62
       251
100
AcDbLine
 10
54.482945
 20
7.191567
 30
0.0
 11
85.482945
 21
7.191567
 31
0.0
  0
LINE
  5
5D
100
AcDbEntity
  8
LY_3
  6
CONTINUOUS
 62
       251
100
AcDbLine
 10
54.482945
 20
-67.808434
 30
0.0
 11
54.482945
 21
-56.308448
 31
0.0
  0
LINE
  5
5E
100
AcDbEntity
  8
LY_3
  6
CONTINUOUS
 62
       251
100
AcDbLine
 10
85.482945
 20
7.191567
 30
0.0
 11
85.482945
 21
-4.308448
 31
0.0
  0
LINE
  5
5F
100
AcDbEntity
  8
LY_3
  6
CONTINUOUS
 62
       251
100
AcDbLine
 10
54.482945
 20
-4.808448
 30
0.0
 11
54.482945
 21
7.191567
 31
0.0
  0
LINE
  5
60
100
AcDbEntity
  8
LY_3
  6
CONTINUOUS
 62
       251
100
AcDbLine
 10
22.882955
 20
-40.308433
 30
0.0
 11
22.882955
 21
-46.308433
 31
0.0
  0
LINE
  5
61
100
AcDbEntity
  8
LY_3
  6
CONTINUOUS
 62
       251
100
AcDbLine
 10
84.882924
 20
-20.308433
 30
0.0
 11
84.882924
 21
-14.303459
 31
0.0
  0
LINE
  5
62
100
AcDbEntity
  8
LY_3
  6
CONTINUOUS
 62
       251
100
AcDbLine
 10
78.582936
 20
-50.308448
 30
0.0
 11
80.882924
 21
-50.308448
 31
0.0
  0
LINE
  5
63
100
AcDbEntity
  8
LY_3
  6
CONTINUOUS
 62
       251
100
AcDbLine
 10
78.582936
 20
-55.808448
 30
0.0
 11
80.882924
 21
-55.808448
 31
0.0
  0
LINE
  5
64
100
AcDbEntity
  8
LY_3
  6
CONTINUOUS
 62
       251
100
AcDbLine
 10
80.882924
 20
-46.313435
 30
0.0
 11
80.882924
 21
-55.808448
 31
0.0
  0
LINE
  5
65
100
AcDbEntity
  8
LY_3
  6
CONTINUOUS
 62
       251
100
AcDbLine
 10
80.882924
 20
-4.808448
 30
0.0
 11
80.882924
 21
-14.303459
 31
0.0
  0
LINE
  5
66
100
AcDbEntity
  8
LY_3
  6
CONTINUOUS
 62
       251
100
AcDbLine
 10
80.882909
 20
-9.158454
 30
0.0
 11
74.882909
 21
-9.158454
 31
0.0
  0
LINE
  5
67
100
AcDbEntity
  8
LY_3
  6
CONTINUOUS
 62
       251
100
AcDbLine
 10
80.882909
 20
-6.158454
 30
0.0
 11
74.882909
 21
-6.158454
 31
0.0
  0
LINE
  5
68
100
AcDbEntity
  8
LY_3
  6
CONTINUOUS
 62
       251
100
AcDbLine
 10
73.382909
 20
-9.158454
 30
0.0
 11
73.382909
 21
-6.158454
 31
0.0
  0
LINE
  5
69
100
AcDbEntity
  8
LY_3
  6
CONTINUOUS
 62
       251
100
AcDbLine
 10
72.082921
 20
-8.958457
 30
0.0
 11
72.082921
 21
-6.358467
 31
0.0
  0
LINE
  5
6A
100
AcDbEntity
  8
LY_3
  6
CONTINUOUS
 62
         7
100
AcDbLine
 10
80.882909
 20
-8.958457
 30
0.0
 11
74.882909
 21
-8.958457
 31
0.0
  0
LINE
  5
6B
100
AcDbEntity
  8
LY_3
  6
CONTINUOUS
 62
         7
100
AcDbLine
 10
80.882909
 20
-6.358467
 30
0.0
 11
74.882909
 21
-6.358467
 31
0.0
  0
LINE
  5
6C
100
AcDbEntity
  8
LY_3
  6
CONTINUOUS
 62
       251
100
AcDbLine
 10
71.301778
 20
-7.658475
 30
0.0
 11
72.082896
 21
-8.958474
 31
0.0
  0
LINE
  5
6D
100
AcDbEntity
  8
LY_3
  6
CONTINUOUS
 62
       251
100
AcDbLine
 10
72.082892
 20
-6.358459
 30
0.0
 11
71.301769
 21
-7.658467
 31
0.0
  0
LINE
  5
6E
100
AcDbEntity
  8
LY_3
  6
CONTINUOUS
 62
       251
100
AcDbLine
 10
74.882909
 20
-9.158454
 30
0.0
 11
74.882909
 21
-6.158454
 31
0.0
  0
LINE
  5
6F
100
AcDbEntity
  8
LY_3
  6
CONTINUOUS
 62
         7
100
AcDbLine
 10
74.882909
 20
-6.158454
 30
0.0
 11
73.382894
 21
-6.158454
 31
0.0
  0
LINE
  5
70
100
AcDbEntity
  8
LY_3
  6
CONTINUOUS
 62
       251
100
AcDbLine
 10
74.882909
 20
-6.358467
 30
0.0
 11
72.082875
 21
-6.358467
 31
0.0
  0
LINE
  5
71
100
AcDbEntity
  8
LY_3
  6
CONTINUOUS
 62
       251
100
AcDbLine
 10
74.882909
 20
-8.958457
 30
0.0
 11
72.082906
 21
-8.958457
 31
0.0
  0
LINE
  5
72
100
AcDbEntity
  8
LY_3
  6
CONTINUOUS
 62
         7
100
AcDbLine
 10
74.882909
 20
-9.158454
 30
0.0
 11
73.382894
 21
-9.158454
 31
0.0
  0
LINE
  5
73
100
AcDbEntity
  8
LY_3
  6
CONTINUOUS
 62
       251
100
AcDbLine
 10
83.882924
 20
-4.908454
 30
0.0
 11
83.882924
 21
-10.408454
 31
0.0
  0
LINE
  5
74
100
AcDbEntity
  8
LY_3
  6
CONTINUOUS
 62
       251
100
AcDbLine
 10
80.882924
 20
-4.908454
 30
0.0
 11
83.882924
 21
-4.908454
 31
0.0
  0
LINE
  5
75
100
AcDbEntity
  8
LY_3
  6
CONTINUOUS
 62
       251
100
AcDbLine
 10
83.882924
 20
-10.408454
 30
0.0
 11
80.882924
 21
-10.408454
 31
0.0
  0
LINE
  5
76
100
AcDbEntity
  8
LY_3
  6
CONTINUOUS
 62
       251
100
AcDbLine
 10
78.582936
 20
-4.808448
 30
0.0
 11
78.582936
 21
-6.15847
 31
0.0
  0
LINE
  5
77
100
AcDbEntity
  8
LY_3
  6
CONTINUOUS
 62
       251
100
AcDbLine
 10
78.582936
 20
-9.15847
 30
0.0
 11
78.582936
 21
-10.308448
 31
0.0
  0
LINE
  5
78
100
AcDbEntity
  8
LY_3
  6
CONTINUOUS
 62
         7
100
AcDbLine
 10
37.782954
 20
7.191551
 30
0.0
 11
45.482941
 21
1.191559
 31
0.0
  0
LINE
  5
79
100
AcDbEntity
  8
LY_3
  6
CONTINUOUS
 62
         7
100
AcDbLine
 10
37.782952
 20
1.191556
 30
0.0
 11
45.482949
 21
7.191557
 31
0.0
  0
LINE
  5
7A
100
AcDbEntity
  8
LY_3
  6
CONTINUOUS
 62
       251
100
AcDbLine
 10
45.482945
 20
1.191567
 30
0.0
 11
37.782948
 21
1.191567
 31
0.0
  0
LINE
  5
7B
100
AcDbEntity
  8
LY_3
  6
CONTINUOUS
 62
         7
100
AcDbLine
 10
85.482945
 20
-1.308433
 30
0.0
 11
73.48293
 21
-1.308433
 31
0.0
  0
LINE
  5
7C
100
AcDbEntity
  8
LY_3
  6
CONTINUOUS
 62
         7
100
AcDbLine
 10
85.482945
 20
4.691567
 30
0.0
 11
73.48293
 21
4.691567
 31
0.0
  0
LINE
  5
7D
100
AcDbEntity
  8
LY_3
  6
CONTINUOUS
 62
       251
100
AcDbLine
 10
73.48293
 20
-1.308433
 30
0.0
 11
73.48293
 21
4.691567
 31
0.0
  0
LINE
  5
7E
100
AcDbEntity
  8
LY_3
  6
CONTINUOUS
 62
       251
100
AcDbLine
 10
70.98293
 20
-0.858451
 30
0.0
 11
70.98293
 21
4.24154
 31
0.0
  0
LINE
  5
7F
100
AcDbEntity
  8
LY_3
  6
CONTINUOUS
 62
       251
100
AcDbLine
 10
85.482945
 20
-0.858436
 30
0.0
 11
70.982915
 21
-0.858436
 31
0.0
  0
LINE
  5
80
100
AcDbEntity
  8
LY_3
  6
CONTINUOUS
 62
       251
100
AcDbLine
 10
85.482945
 20
4.241555
 30
0.0
 11
70.982915
 21
4.241555
 31
0.0
  0
LINE
  5
81
100
AcDbEntity
  8
LY_3
  6
CONTINUOUS
 62
       251
100
AcDbLine
 10
69.450747
 20
1.691544
 30
0.0
 11
70.982941
 21
-0.858455
 31
0.0
  0
LINE
  5
82
100
AcDbEntity
  8
LY_3
  6
CONTINUOUS
 62
       251
100
AcDbLine
 10
70.982927
 20
4.241548
 30
0.0
 11
69.450733
 21
1.691548
 31
0.0
  0
LINE
  5
83
100
AcDbEntity
  8
LY_3
  6
CONTINUOUS
 62
       251
100
AcDbLine
 10
-50.958888
 20
1.191567
 30
0.0
 11
-50.958888
 21
7.191567
 31
0.0
  0
LINE
  5
84
100
AcDbEntity
  8
LY_3
  6
CONTINUOUS
 62
       251
100
AcDbLine
 10
-53.458888
 20
-20.625984
 30
0.0
 11
-53.458888
 21
-18.308448
 31
0.0
  0
LINE
  5
85
100
AcDbEntity
  8
LY_3
  6
CONTINUOUS
 62
       251
100
AcDbLine
 10
-53.458888
 20
-18.308448
 30
0.0
 11
-48.458888
 21
-18.308448
 31
0.0
  0
LINE
  5
86
100
AcDbEntity
  8
LY_3
  6
CONTINUOUS
 62
       251
100
AcDbLine
 10
-48.458888
 20
-18.308448
 30
0.0
 11
-48.458888
 21
-20.625984
 31
0.0
  0
LINE
  5
87
100
AcDbEntity
  8
LY_3
  6
CONTINUOUS
 62
       251
100
AcDbLine
 10
-37.958888
 20
-27.808433
 30
0.0
 11
-35.155406
 21
-27.808433
 31
0.0
  0
LINE
  5
88
100
AcDbEntity
  8
LY_3
  6
CONTINUOUS
 62
       251
100
AcDbLine
 10
-37.958888
 20
-32.808433
 30
0.0
 11
-35.155406
 21
-32.808433
 31
0.0
  0
LINE
  5
89
100
AcDbEntity
  8
LY_3
  6
CONTINUOUS
 62
       251
100
AcDbLine
 10
-37.958888
 20
-27.808433
 30
0.0
 11
-37.958888
 21
-32.808433
 31
0.0
  0
LINE
  5
8A
100
AcDbEntity
  8
LY_3
  6
CONTINUOUS
 62
       251
100
AcDbLine
 10
25.282947
 20
-56.808433
 30
0.0
 11
45.482945
 21
-56.808433
 31
0.0
  0
LINE
  5
8B
100
AcDbEntity
  8
LY_3
  6
CONTINUOUS
 62
       251
100
AcDbLine
 10
25.282947
 20
-50.808433
 30
0.0
 11
45.482945
 21
-50.808433
 31
0.0
  0
LINE
  5
8C
100
AcDbEntity
  8
LY_3
  6
CONTINUOUS
 62
       251
100
AcDbLine
 10
37.782948
 20
-56.808433
 30
0.0
 11
37.782948
 21
-67.808433
 31
0.0
  0
LINE
  5
8D
100
AcDbEntity
  8
LY_3
  6
CONTINUOUS
 62
       251
100
AcDbLine
 10
27.782948
 20
-47.908434
 30
0.0
 11
26.582954
 21
-47.908434
 31
0.0
  0
LINE
  5
8E
100
AcDbEntity
  8
LY_3
  6
CONTINUOUS
 62
       251
100
AcDbLine
 10
26.582954
 20
-12.708442
 30
0.0
 11
27.782948
 21
-12.708442
 31
0.0
  0
LINE
  5
8F
100
AcDbEntity
  8
LY_3
  6
CONTINUOUS
 62
       251
100
AcDbLine
 10
27.782948
 20
-56.808433
 30
0.0
 11
27.782948
 21
-60.808433
 31
0.0
  0
LINE
  5
90
100
AcDbEntity
  8
LY_3
  6
CONTINUOUS
 62
       251
100
AcDbLine
 10
25.282947
 20
-56.808433
 30
0.0
 11
25.282947
 21
-50.808433
 31
0.0
  0
LINE
  5
91
100
AcDbEntity
  8
LY_3
  6
CONTINUOUS
 62
       251
100
AcDbLine
 10
53.482933
 20
-49.646449
 30
0.0
 11
78.582936
 21
-49.646449
 31
0.0
  0
LINE
  5
92
100
AcDbEntity
  8
LY_3
  6
CONTINUOUS
 62
       251
100
AcDbLine
 10
56.082936
 20
-56.308448
 30
0.0
 11
56.082936
 21
-49.646449
 31
0.0
  0
LINE
  5
94
100
AcDbEntity
  8
LY_3
  6
CENTER
 62
         7
100
AcDbLine
 10
-50.958888
 20
-50.808433
 30
0.0
 11
-50.958888
 21
-56.808433
 31
0.0
  0
LINE
  5
95
100
AcDbEntity
  8
LY_3
  6
CENTER
 62
         7
100
AcDbLine
 10
-53.958888
 20
-53.808433
 30
0.0
 11
-47.958888
 21
-53.808433
 31
0.0
  0
LINE
  5
96
100
AcDbEntity
  8
LY_3
  6
CONTINUOUS
 62
       251
100
AcDbLine
 10
33.782948
 20
-5.308433
 30
0.0
 11
33.782948
 21
1.691567
 31
0.0
  0
LINE
  5
97
100
AcDbEntity
  8
LY_3
  6
CONTINUOUS
 62
       251
100
AcDbLine
 10
33.782948
 20
1.691567
 30
0.0
 11
32.682948
 21
1.691567
 31
0.0
  0
LINE
  5
98
100
AcDbEntity
  8
LY_3
  6
CONTINUOUS
 62
       251
100
AcDbLine
 10
31.182948
 20
0.191567
 30
0.0
 11
31.182948
 21
-3.808433
 31
0.0
  0
LINE
  5
99
100
AcDbEntity
  8
LY_3
  6
CONTINUOUS
 62
       251
100
AcDbLine
 10
32.682948
 20
-5.308433
 30
0.0
 11
33.782948
 21
-5.308433
 31
0.0
  0
LINE
  5
9A
100
AcDbEntity
  8
LY_3
  6
CONTINUOUS
 62
       251
100
AcDbLine
 10
33.782948
 20
0.191567
 30
0.0
 11
37.782948
 21
0.191567
 31
0.0
  0
LINE
  5
9B
100
AcDbEntity
  8
LY_3
  6
CONTINUOUS
 62
       251
100
AcDbLine
 10
33.782948
 20
-3.808433
 30
0.0
 11
37.782948
 21
-3.808433
 31
0.0
  0
LINE
  5
9C
100
AcDbEntity
  8
LY_3
  6
CONTINUOUS
 62
       251
100
AcDbLine
 10
-17.762507
 20
-26.808433
 30
0.0
 11
-17.762507
 21
-33.808433
 31
0.0
  0
LINE
  5
9D
100
AcDbEntity
  8
LY_3
  6
CONTINUOUS
 62
       251
100
AcDbLine
 10
-21.762507
 20
-26.808433
 30
0.0
 11
-17.762507
 21
-26.808433
 31
0.0
  0
LINE
  5
9E
100
AcDbEntity
  8
LY_3
  6
CONTINUOUS
 62
       251
100
AcDbLine
 10
-17.762507
 20
-33.808433
 30
0.0
 11
-21.762507
 21
-33.808433
 31
0.0
  0
LINE
  5
9F
100
AcDbEntity
  8
LY_3
  6
CONTINUOUS
 62
       251
100
AcDbLine
 10
-21.762507
 20
-26.808433
 30
0.0
 11
-21.762507
 21
-33.808433
 31
0.0
  0
LINE
  5
A0
100
AcDbEntity
  8
LY_3
  6
CONTINUOUS
 62
       251
100
AcDbLine
 10
-25.10139
 20
-28.508445
 30
0.0
 11
-21.762507
 21
-28.508445
 31
0.0
  0
LINE
  5
A1
100
AcDbEntity
  8
LY_3
  6
CONTINUOUS
 62
       251
100
AcDbLine
 10
-24.550365
 20
-32.108436
 30
0.0
 11
-21.762507
 21
-32.108436
 31
0.0
  0
LINE
  5
A2
100
AcDbEntity
  8
LY_3
  6
CENTER
 62
         7
100
AcDbLine
 10
-46.846605
 20
-4.591646
 30
0.0
 11
-66.958888
 21
-1.808462
 31
0.0
  0
LINE
  5
A3
100
AcDbEntity
  8
LY_3
  6
CENTER
 62
         7
100
AcDbLine
 10
-54.195797
 20
-59.472731
 30
0.0
 11
-54.927323
 21
-66.063728
 31
0.0
  0
LINE
  5
A4
100
AcDbEntity
  8
LY_3
  6
CENTER
 62
         7
100
AcDbLine
 10
-66.958888
 20
2.628502
 30
0.0
 11
-66.958888
 21
-6.348396
 31
0.0
  0
LINE
  5
A5
100
AcDbEntity
  8
LY_3
  6
CENTER
 62
         7
100
AcDbLine
 10
-63.016078
 20
-1.808433
 30
0.0
 11
-71.821452
 21
-1.808433
 31
0.0
  0
LINE
  5
A6
100
AcDbEntity
  8
LY_3
  6
CENTER
 62
         7
100
AcDbLine
 10
-38.901698
 20
-101.808433
 30
0.0
 11
-30.096324
 21
-101.808433
 31
0.0
  0
LINE
  5
A7
100
AcDbEntity
  8
LY_3
  6
CENTER
 62
         7
100
AcDbLine
 10
-34.958888
 20
-97.371498
 30
0.0
 11
-34.958888
 21
-106.348396
 31
0.0
  0
LINE
  5
A8
100
AcDbEntity
  8
LY_3
  6
CENTER
 62
         7
100
AcDbLine
 10
-47.721979
 20
-159.472731
 30
0.0
 11
-46.990453
 21
-166.063728
 31
0.0
  0
LINE
  5
A9
100
AcDbEntity
  8
LY_3
  6
CENTER
 62
         7
100
AcDbLine
 10
-55.071171
 20
-104.591646
 30
0.0
 11
-34.958888
 21
-101.808462
 31
0.0
  0
LINE
  5
AA
100
AcDbEntity
  8
LY_3
  6
CONTINUOUS
 62
       251
100
AcDbLine
 10
-77.367412
 20
-132.108436
 30
0.0
 11
-80.155269
 21
-132.108436
 31
0.0
  0
LINE
  5
AB
100
AcDbEntity
  8
LY_3
  6
CONTINUOUS
 62
       251
100
AcDbLine
 10
-76.816386
 20
-128.508445
 30
0.0
 11
-80.155269
 21
-128.508445
 31
0.0
  0
LINE
  5
AC
100
AcDbEntity
  8
LY_3
  6
CONTINUOUS
 62
       251
100
AcDbLine
 10
-80.155269
 20
-126.808433
 30
0.0
 11
-80.155269
 21
-133.808433
 31
0.0
  0
LINE
  5
AD
100
AcDbEntity
  8
LY_3
  6
CONTINUOUS
 62
       251
100
AcDbLine
 10
-84.155269
 20
-133.808433
 30
0.0
 11
-80.155269
 21
-133.808433
 31
0.0
  0
LINE
  5
AE
100
AcDbEntity
  8
LY_3
  6
CONTINUOUS
 62
       251
100
AcDbLine
 10
-80.155269
 20
-126.808433
 30
0.0
 11
-84.155269
 21
-126.808433
 31
0.0
  0
LINE
  5
AF
100
AcDbEntity
  8
LY_3
  6
CONTINUOUS
 62
       251
100
AcDbLine
 10
-84.155269
 20
-126.808433
 30
0.0
 11
-84.155269
 21
-133.808433
 31
0.0
  0
LINE
  5
B0
100
AcDbEntity
  8
LY_3
  6
CENTER
 62
         7
100
AcDbLine
 10
-47.958888
 20
-153.808433
 30
0.0
 11
-53.958888
 21
-153.808433
 31
0.0
  0
LINE
  5
B1
100
AcDbEntity
  8
LY_3
  6
CENTER
 62
         7
100
AcDbLine
 10
-50.958888
 20
-150.808433
 30
0.0
 11
-50.958888
 21
-156.808433
 31
0.0
  0
LINE
  5
B2
100
AcDbEntity
  8
LY_3
  6
CONTINUOUS
 62
       251
100
AcDbLine
 10
-37.958888
 20
-127.808433
 30
0.0
 11
-37.958888
 21
-132.808433
 31
0.0
  0
LINE
  5
B3
100
AcDbEntity
  8
LY_3
  6
CONTINUOUS
 62
       251
100
AcDbLine
 10
-37.958888
 20
-132.808433
 30
0.0
 11
-35.155406
 21
-132.808433
 31
0.0
  0
LINE
  5
B4
100
AcDbEntity
  8
LY_3
  6
CONTINUOUS
 62
       251
100
AcDbLine
 10
-37.958888
 20
-127.808433
 30
0.0
 11
-35.155406
 21
-127.808433
 31
0.0
  0
LINE
  5
B5
100
AcDbEntity
  8
LY_3
  6
CONTINUOUS
 62
       251
100
AcDbLine
 10
-53.458888
 20
-118.308448
 30
0.0
 11
-53.458888
 21
-120.625984
 31
0.0
  0
LINE
  5
B6
100
AcDbEntity
  8
LY_3
  6
CONTINUOUS
 62
       251
100
AcDbLine
 10
-48.458888
 20
-118.308448
 30
0.0
 11
-53.458888
 21
-118.308448
 31
0.0
  0
LINE
  5
B7
100
AcDbEntity
  8
LY_3
  6
CONTINUOUS
 62
       251
100
AcDbLine
 10
-48.458888
 20
-120.625984
 30
0.0
 11
-48.458888
 21
-118.308448
 31
0.0
  0
LINE
  5
B8
100
AcDbEntity
  8
LY_3
  6
CONTINUOUS
 62
       251
100
AcDbLine
 10
-50.958888
 20
-98.808433
 30
0.0
 11
-50.958888
 21
-92.808433
 31
0.0
  0
LINE
  5
B9
100
AcDbEntity
  8
LY_3
  6
CONTINUOUS
 62
       251
100
AcDbLine
 10
85.482945
 20
-56.308448
 30
0.0
 11
85.482945
 21
-67.808434
 31
0.0
  0
CIRCLE
  5
BA
100
AcDbEntity
  8
LY_3
  6
CONTINUOUS
 62
       251
100
AcDbCircle
 10
-50.958888
 20
-30.308433
 30
0.0
 40
37.5
  0
ARC
  5
BB
100
AcDbEntity
  8
LY_3
  6
CONTINUOUS
 62
       251
100
AcDbCircle
 10
-50.958888
 20
-33.308433
 30
0.0
 40
34.5
100
AcDbArc
 50
270.000054
 51
90.000018
  0
ARC
  5
BC
100
AcDbEntity
  8
LY_3
  6
CONTINUOUS
 62
       251
100
AcDbCircle
 10
-50.958888
 20
-30.308433
 30
0.0
 40
10.0
100
AcDbArc
 50
104.477632
 51
75.522476
  0
ARC
  5
BD
100
AcDbEntity
  8
LY_3
  6
CONTINUOUS
 62
       251
100
AcDbCircle
 10
-50.958888
 20
-30.308433
 30
0.0
 40
16.0
100
AcDbArc
 50
8.989297
 51
351.010689
  0
ARC
  5
BE
100
AcDbEntity
  8
LY_3
  6
CONTINUOUS
 62
       251
100
AcDbCircle
 10
-50.958888
 20
-30.308433
 30
0.0
 40
15.0
100
AcDbArc
 50
350.405932
 51
9.594068
  0
CIRCLE
  5
BF
100
AcDbEntity
  8
LY_3
  6
CONTINUOUS
 62
       251
100
AcDbCircle
 10
-50.958888
 20
-34.308433
 30
0.0
 40
26.5
  0
CIRCLE
  5
C0
100
AcDbEntity
  8
LY_3
  6
CONTINUOUS
 62
       251
100
AcDbCircle
 10
-50.958888
 20
-30.308433
 30
0.0
 40
17.277481
  0
ARC
  5
C1
100
AcDbEntity
  8
LY_3
  6
CONTINUOUS
 62
       251
100
AcDbCircle
 10
32.682948
 20
0.191567
 30
0.0
 40
1.5
100
AcDbArc
 50
89.999982
 51
179.999964
  0
ARC
  5
C2
100
AcDbEntity
  8
LY_3
  6
CONTINUOUS
 62
       251
100
AcDbCircle
 10
32.682948
 20
-3.808433
 30
0.0
 40
1.5
100
AcDbArc
 50
179.999964
 51
270.000001
  0
ARC
  5
C3
100
AcDbEntity
  8
LY_3
  6
CENTER
 62
         7
100
AcDbCircle
 10
-50.958888
 20
-34.308433
 30
0.0
 40
30.0
100
AcDbArc
 50
11.147354
 51
82.121313
  0
ARC
  5
C4
100
AcDbEntity
  8
LY_3
  6
CENTER
 62
         7
100
AcDbCircle
 10
-50.958888
 20
-30.308433
 30
0.0
 40
32.00029
100
AcDbArc
 50
255.152025
 51
272.571739
  0
ARC
  5
C5
100
AcDbEntity
  8
LY_3
  6
CENTER
 62
         7
100
AcDbCircle
 10
-50.958888
 20
-130.308433
 30
0.0
 40
32.00029
100
AcDbArc
 50
267.428261
 51
284.847975
  0
ARC
  5
C6
100
AcDbEntity
  8
LY_3
  6
CENTER
 62
         7
100
AcDbCircle
 10
-50.958888
 20
-134.308433
 30
0.0
 40
30.0
100
AcDbArc
 50
97.878687
 51
168.852646
  0
CIRCLE
  5
C7
100
AcDbEntity
  8
LY_3
  6
CONTINUOUS
 62
       251
100
AcDbCircle
 10
-50.958888
 20
-130.308433
 30
0.0
 40
17.277481
  0
CIRCLE
  5
C8
100
AcDbEntity
  8
LY_3
  6
CONTINUOUS
 62
       251
100
AcDbCircle
 10
-50.958888
 20
-134.308433
 30
0.0
 40
26.5
  0
ARC
  5
C9
100
AcDbEntity
  8
LY_3
  6
CONTINUOUS
 62
       251
100
AcDbCircle
 10
-50.958888
 20
-130.308433
 30
0.0
 40
15.0
100
AcDbArc
 50
350.405932
 51
9.594068
  0
ARC
  5
CA
100
AcDbEntity
  8
LY_3
  6
CONTINUOUS
 62
       251
100
AcDbCircle
 10
-50.958888
 20
-130.308433
 30
0.0
 40
16.0
100
AcDbArc
 50
8.989297
 51
351.010689
  0
ARC
  5
CB
100
AcDbEntity
  8
LY_3
  6
CONTINUOUS
 62
       251
100
AcDbCircle
 10
-50.958888
 20
-130.308433
 30
0.0
 40
10.0
100
AcDbArc
 50
104.477524
 51
75.522368
  0
ARC
  5
CC
100
AcDbEntity
  8
LY_3
  6
CONTINUOUS
 62
       251
100
AcDbCircle
 10
-50.958888
 20
-133.308433
 30
0.0
 40
34.5
100
AcDbArc
 50
89.999982
 51
269.999946
  0
CIRCLE
  5
CD
100
AcDbEntity
  8
LY_3
  6
CONTINUOUS
 62
       251
100
AcDbCircle
 10
-50.958888
 20
-130.308433
 30
0.0
 40
37.5
  0
MTEXT
  5
CE
100
AcDbEntity
  8
LY_3
  6
CONTINUOUS
 62
         7
100
AcDbMText
 10
-47.9390239737
 20
68.667357702
 30
0.0
 40
15.0
 41
0.0
 71
         1
 72
         1
  1
\W1.024;\A1;SR20-RH
  0
MTEXT
  5
CF
100
AcDbEntity
  8
LY_3
  6
CONTINUOUS
 62
         7
100
AcDbMText
 10
-68.2430559669
 20
92.6673580596
 30
0.0
 40
13.0
 41
0.0
 71
         1
 72
         1
  1
\W1.042;\A1;CAM CLUTCH
  0
MTEXT
  5
D0
100
AcDbEntity
  8
LY_3
  6
CONTINUOUS
 62
         7
100
AcDbMText
 10
-47.9390239737
 20
43.667357702
 30
0.0
 40
15.0
 41
0.0
 71
         1
 72
         1
  1
\W1.024;\A1;SR20-LH
  0
MTEXT
  5
D1
100
AcDbEntity
  8
LY_3
  6
CONTINUOUS
 62
         7
100
AcDbMText
 10
-140.2798780203
 20
-26.4249998212
 30
0.0
 40
7.0
 41
0.0
 71
         1
 72
         1
  1
\W1.024;\A1;SR20-RH
  0
MTEXT
  5
D2
100
AcDbEntity
  8
LY_3
  6
CONTINUOUS
 62
         7
100
AcDbMText
 10
-140.2798780203
 20
-126.4249998212
 30
0.0
 40
7.0
 41
0.0
 71
         1
 72
         1
  1
\W1.024;\A1;SR20-LH
  0
ENDSEC
  0
SECTION
  2
OBJECTS
  0
DICTIONARY
  5
19
100
AcDbDictionary
  3
ACAD_GROUP
350
1A
  3
ACAD_MLINESTYLE
350
1B
  0
DICTIONARY
  5
1A
102
{ACAD_REACTORS
330
19
102
}
100
AcDbDictionary
  0
DICTIONARY
  5
1B
102
{ACAD_REACTORS
330
19
102
}
100
AcDbDictionary
  3
STANDARD
350
1C
  0
MLINESTYLE
  5
1C
102
{ACAD_REACTORS
330
1B
102
}
100
AcDbMlineStyle
  2
Standard
 70
         0
  3

 62
         0
 51
90.0
 52
90.0
 71
         2
 49
0.5
 62
       256
  6
ByLayer
 49
-0.5
 62
       256
  6
ByLayer
  0
ENDSEC
  0
EOF
