  0
SECTION
  2
HEADER
  9
$ACADVER
  1
AC1014
  9
$ACADMAINTVER
 70
         0
  9
$DWGCODEPAGE
  3
ANSI_932
  9
$INSBASE
 10
0.0
 20
0.0
 30
0.0
  9
$EXTMIN
 10
-235.764801
 20
-176.110733
 30
0.0
  9
$EXTMAX
 10
223.786758
 20
122.1256910721
 30
0.0
  9
$LIMMIN
 10
-235.764801
 20
-176.110733
  9
$LIMMAX
 10
223.786758
 20
122.1256910721
  9
$ORTHOMODE
 70
         0
  9
$REGENMODE
 70
         1
  9
$FILLMODE
 70
         1
  9
$QTEXTMODE
 70
         0
  9
$MIRRTEXT
 70
         1
  9
$DRAGMODE
 70
         2
  9
$LTSCALE
 40
1.0
  9
$OSMODE
 70
         0
  9
$ATTMODE
 70
         1
  9
$TEXTSIZE
 40
3.2000000477
  9
$TRACEWID
 40
0.05
  9
$TEXTSTYLE
  7
MX_NOTE_STANDARD
  9
$CLAYER
  8
LY_3
  9
$CELTYPE
  6
CONTINUOUS
  9
$CECOLOR
 62
       256
  9
$CELTSCALE
 40
1.0
  9
$DELOBJ
 70
         1
  9
$DISPSILH
 70
         0
  9
$DIMSCALE
 40
1.0
  9
$DIMASZ
 40
2.5
  9
$DIMEXO
 40
0.0
  9
$DIMDLI
 40
3.75
  9
$DIMRND
 40
0.0
  9
$DIMDLE
 40
0.0
  9
$DIMEXE
 40
2.5
  9
$DIMTP
 40
0.0
  9
$DIMTM
 40
0.0
  9
$DIMTXT
 40
3.2000000477
  9
$DIMCEN
 40
2.5
  9
$DIMTSZ
 40
0.0
  9
$DIMTOL
 70
         0
  9
$DIMLIM
 70
         0
  9
$DIMTIH
 70
         0
  9
$DIMTOH
 70
         0
  9
$DIMSE1
 70
         0
  9
$DIMSE2
 70
         0
  9
$DIMTAD
 70
         1
  9
$DIMZIN
 70
         8
  9
$DIMBLK
  1

  9
$DIMASO
 70
         1
  9
$DIMSHO
 70
         1
  9
$DIMPOST
  1

  9
$DIMAPOST
  1

  9
$DIMALT
 70
         0
  9
$DIMALTD
 70
         4
  9
$DIMALTF
 40
0.0393700787
  9
$DIMLFAC
 40
1.0
  9
$DIMTOFL
 70
         1
  9
$DIMTVP
 40
0.0
  9
$DIMTIX
 70
         0
  9
$DIMSOXD
 70
         0
  9
$DIMSAH
 70
         1
  9
$DIMBLK1
  1
_OPEN30
  9
$DIMBLK2
  1
_OPEN30
  9
$DIMSTYLE
  2
MXDIMSTYLE
  9
$DIMCLRD
 70
         0
  9
$DIMCLRE
 70
         0
  9
$DIMCLRT
 70
         0
  9
$DIMTFAC
 40
1.0
  9
$DIMGAP
 40
1.0
  9
$DIMJUST
 70
         0
  9
$DIMSD1
 70
         0
  9
$DIMSD2
 70
         0
  9
$DIMTOLJ
 70
         0
  9
$DIMTZIN
 70
         0
  9
$DIMALTZ
 70
         0
  9
$DIMALTTZ
 70
         0
  9
$DIMFIT
 70
         3
  9
$DIMUPT
 70
         0
  9
$DIMUNIT
 70
         2
  9
$DIMDEC
 70
         2
  9
$DIMTDEC
 70
         2
  9
$DIMALTU
 70
         2
  9
$DIMALTTD
 70
         4
  9
$DIMTXSTY
  7
MX_NOTE_STANDARD
  9
$DIMAUNIT
 70
         0
  9
$LUNITS
 70
         2
  9
$LUPREC
 70
         4
  9
$SKETCHINC
 40
0.1
  9
$FILLETRAD
 40
0.0
  9
$AUNITS
 70
         0
  9
$AUPREC
 70
         0
  9
$MENU
  1
acad
  9
$ELEVATION
 40
0.0
  9
$PELEVATION
 40
0.0
  9
$THICKNESS
 40
0.0
  9
$LIMCHECK
 70
         0
  9
$BLIPMODE
 70
         1
  9
$CHAMFERA
 40
0.0
  9
$CHAMFERB
 40
0.0
  9
$CHAMFERC
 40
0.0
  9
$CHAMFERD
 40
0.0
  9
$SKPOLY
 70
         0
  9
$TDCREATE
 40
2456603.419502315
  9
$TDUPDATE
 40
2456603.419502315
  9
$TDINDWG
 40
0.0000000000
  9
$TDUSRTIMER
 40
0.0000000000
  9
$USRTIMER
 70
         1
  9
$ANGBASE
 50
0.0
  9
$ANGDIR
 70
         0
  9
$PDMODE
 70
         0
  9
$PDSIZE
 40
0.0
  9
$PLINEWID
 40
0.0
  9
$COORDS
 70
         1
  9
$SPLFRAME
 70
         0
  9
$SPLINETYPE
 70
         6
  9
$SPLINESEGS
 70
         8
  9
$ATTDIA
 70
         0
  9
$ATTREQ
 70
         1
  9
$HANDLING
 70
         1
  9
$HANDSEED
  5
18D
  9
$SURFTAB1
 70
         6
  9
$SURFTAB2
 70
         6
  9
$SURFTYPE
 70
         6
  9
$SURFU
 70
         6
  9
$SURFV
 70
         6
  9
$UCSNAME
  2

  9
$UCSORG
 10
0.0
 20
0.0
 30
0.0
  9
$UCSXDIR
 10
1.0
 20
0.0
 30
0.0
  9
$UCSYDIR
 10
0.0
 20
1.0
 30
0.0
  9
$PUCSNAME
  2

  9
$PUCSORG
 10
0.0
 20
0.0
 30
0.0
  9
$PUCSXDIR
 10
1.0
 20
0.0
 30
0.0
  9
$PUCSYDIR
 10
0.0
 20
1.0
 30
0.0
  9
$USERI1
 70
         0
  9
$USERI2
 70
         0
  9
$USERI3
 70
         0
  9
$USERI4
 70
         0
  9
$USERI5
 70
         0
  9
$USERR1
 40
0.0
  9
$USERR2
 40
0.0
  9
$USERR3
 40
0.0
  9
$USERR4
 40
0.0
  9
$USERR5
 40
0.0
  9
$WORLDVIEW
 70
         1
  9
$SHADEDGE
 70
         3
  9
$SHADEDIF
 70
        70
  9
$TILEMODE
 70
         1
  9
$MAXACTVP
 70
        16
  9
$PINSBASE
 10
0.0
 20
0.0
 30
0.0
  9
$PLIMCHECK
 70
         0
  9
$PEXTMIN
 10
1.0000000000E+20
 20
1.0000000000E+20
 30
1.0000000000E+20
  9
$PEXTMAX
 10
-1.0000000000E+20
 20
-1.0000000000E+20
 30
-1.0000000000E+20
  9
$PLIMMIN
 10
0.0
 20
0.0
  9
$PLIMMAX
 10
12.0
 20
9.0
  9
$UNITMODE
 70
         0
  9
$VISRETAIN
 70
         0
  9
$PLINEGEN
 70
         1
  9
$PSLTSCALE
 70
         0
  9
$TREEDEPTH
 70
      3020
  9
$PICKSTYLE
 70
         1
  9
$CMLSTYLE
  2
Standard
  9
$CMLJUST
 70
         0
  9
$CMLSCALE
 40
1.0
  9
$PROXYGRAPHICS
 70
         0
  9
$MEASUREMENT
 70
         1
  0
ENDSEC
  0
SECTION
  2
CLASSES
  0
CLASS
  1
LWPOLYLINE
  2
AcDbPolyline
  3
"AutoCAD"
 90
        0
280
         0
281
         1
  0
CLASS
  1
IMAGE
  2
AcDbRasterImage
  3
ISM
 90
      127
280
         0
281
         1
  0
CLASS
  1
OLE2FRAME
  2
AcDbOle2Frame
  3
""
 90
        0
280
         0
281
         1
  0
CLASS
  1
HATCH
  2
AcDbHatch
  3
"ACAD_SEDONA"
 90
        0
280
         0
281
         1
  0
CLASS
  1
DICTIONARYVAR
  2
AcDbDictionaryVar
  3
"AutoCAD"
 90
        0
280
         0
281
         0
  0
CLASS
  1
RASTERVARIABLES
  2
AcDbRasterVariables
  3
ISM
 90
        0
280
         0
281
         0
  0
CLASS
  1
IMAGEDEF
  2
AcDbRasterImageDef
  3
ISM
 90
        0
280
         0
281
         0
  0
CLASS
  1
IMAGEDEF_REACTOR
  2
AcDbRasterImageDefReactor
  3
ISM
 90
        1
280
         0
281
         0
  0
CLASS
  1
IDBUFFER
  2
AcDbIdBuffer
  3
"Acad"
 90
        0
280
         0
281
         0
  0
CLASS
  1
SPATIAL_FILTER
  2
AcDbSpatialFilter
  3
"Acad"
 90
        0
280
         0
281
         0
  0
CLASS
  1
XRECORD
  2
AcDbXrecord
  3
"<Built In>"
 90
        0
280
         0
281
         0
  0
CLASS
  1
SORTENTSTABLE
  2
AcDbSortentsTable
  3
"AutoCAD"
 90
        0
280
         0
281
         0
  0
CLASS
  1
LAYER_INDEX
  2
AcDbLayerIndex
  3
"Acad"
 90
        0
280
         0
281
         0
  0
CLASS
  1
SPATIAL_INDEX
  2
AcDbSpatialIndex
  3
"Acad"
 90
        0
280
         0
281
         0
  0
CLASS
  1
OBJECT_PTR
  2
CAseDLPNTableRecord
  3
"ASE-LPNTableRecord"
 90
        1
280
         0
281
         0
  0
CLASS
  1
LAYOUT
  2
AcDbLayout
  3
"AutoCAD 2000"
 90
        0
280
         0
281
         0
  0
CLASS
  1
PLOTSETTINGS
  2
AcDbPlotSettings
  3
"AutoCAD 2000"
 90
        0
280
         0
281
         0
  0
CLASS
  1
ACDBDICTIONARYWDFLT
  2
AcDbDictionaryWithDefault
  3
"AutoCAD 2000"
 90
        0
280
         0
281
         0
  0
CLASS
  1
ACDBPLACEHOLDER
  2
AcDbPlaceHolder
  3
"AutoCAD 2000"
 90
        0
280
         0
281
         0
  0
ENDSEC
  0
SECTION
  2
TABLES
  0
TABLE
  2
VPORT
  5
7
100
AcDbSymbolTable
 70
         1
  0
VPORT
  5
15
100
AcDbSymbolTableRecord
100
AcDbViewportTableRecord
  2
*ACTIVE
 70
         0
 10
0.0
 20
0.0
 11
1.0
 21
1.0
 12
-5.9890215
 22
-26.992520964
 13
0.0
 23
0.0
 14
1.0
 24
1.0
 15
0.0
 25
0.0
 16
0.0
 26
0.0
 36
1.0
 17
0.0
 27
0.0
 37
0.0
 40
301.2187883128
 41
1.7320508076
 42
50.0
 43
0.0
 44
0.0
 50
0.0
 51
0.0
 71
         0
 72
       100
 73
         1
 74
         1
 75
         0
 76
         0
 77
         0
 78
         0
  0
ENDTAB
  0
TABLE
  2
LTYPE
  5
4
100
AcDbSymbolTable
 70
         6
  0
LTYPE
  5
11
100
AcDbSymbolTableRecord
100
AcDbLinetypeTableRecord
  2
BYBLOCK
 70
        64
  3

 72
        65
 73
         0
 40
0.0
  0
LTYPE
  5
12
100
AcDbSymbolTableRecord
100
AcDbLinetypeTableRecord
  2
BYLAYER
 70
        64
  3

 72
        65
 73
         0
 40
0.0
  0
LTYPE
  5
13
100
AcDbSymbolTableRecord
100
AcDbLinetypeTableRecord
  2
CONTINUOUS
 70
        64
  3
Solid line
 72
        65
 73
         0
 40
0.0
  0
LTYPE
  5
44
100
AcDbSymbolTableRecord
100
AcDbLinetypeTableRecord
  2
CENTER
 70
        64
  3
Center ____ _ ____ _ ____ _ ____ _ ____ _ ____
 72
        65
 73
         4
 40
50.8
 49
31.75
 74
         0
 49
-6.35
 74
         0
 49
6.35
 74
         0
 49
-6.35
 74
         0
  0
LTYPE
  5
B4
100
AcDbSymbolTableRecord
100
AcDbLinetypeTableRecord
  2
DASHED
 70
        64
  3
Dashed __ __ __ __ __ __ __ __ __ __ __ __ __ _
 72
        65
 73
         2
 40
19.05
 49
12.7
 74
         0
 49
-6.35
 74
         0
  0
LTYPE
  5
C3
100
AcDbSymbolTableRecord
100
AcDbLinetypeTableRecord
  2
PHANTOM
 70
        64
  3
Phantom ______  __  __  ______  __  __  ______
 72
        65
 73
         6
 40
63.5
 49
31.75
 74
         0
 49
-6.35
 74
         0
 49
6.35
 74
         0
 49
-6.35
 74
         0
 49
6.35
 74
         0
 49
-6.35
 74
         0
  0
ENDTAB
  0
TABLE
  2
LAYER
  5
2
100
AcDbSymbolTable
 70
         3
  0
LAYER
  5
14
100
AcDbSymbolTableRecord
100
AcDbLayerTableRecord
  2
0
 70
         0
 62
         7
  6
CONTINUOUS
  0
LAYER
  5
1D
100
AcDbSymbolTableRecord
100
AcDbLayerTableRecord
  2
DEFPOINTS
 70
         0
 62
         7
  6
CONTINUOUS
  0
LAYER
  5
1E
100
AcDbSymbolTableRecord
100
AcDbLayerTableRecord
  2
LY_3
 70
         0
 62
         7
  6
CONTINUOUS
  0
ENDTAB
  0
TABLE
  2
STYLE
  5
3
100
AcDbSymbolTable
 70
         1
  0
STYLE
  5
17
100
AcDbSymbolTableRecord
100
AcDbTextStyleTableRecord
  2
MX_NOTE_STANDARD
 70
         0
 40
0.0
 41
1.0
 50
0.0
 71
         0
 42
3.2000000477
  3
txt.shx
  4
extfont.shx
  0
ENDTAB
  0
TABLE
  2
VIEW
  5
5
100
AcDbSymbolTable
 70
         0
  0
ENDTAB
  0
TABLE
  2
UCS
  5
6
100
AcDbSymbolTable
 70
         0
  0
ENDTAB
  0
TABLE
  2
APPID
  5
8
100
AcDbSymbolTable
 70
         1
  0
APPID
  5
16
100
AcDbSymbolTableRecord
100
AcDbRegAppTableRecord
  2
ACAD
 70
         0
  0
ENDTAB
  0
TABLE
  2
DIMSTYLE
  5
9
100
AcDbSymbolTable
 70
         1
  0
DIMSTYLE
105
18
100
AcDbSymbolTableRecord
100
AcDbDimStyleTableRecord
  2
MXDIMSTYLE
 70
         0
  3

  4

  5

  6
_OPEN30
  7
_OPEN30
 40
1.0
 41
2.5
 42
0.0
 43
3.75
 44
2.5
 45
0.0
 46
0.0
 47
0.0
 48
0.0
 71
         0
 72
         0
 73
         0
 74
         0
 75
         0
 76
         0
 77
         1
 78
         8
140
3.2000000477
141
2.5
142
0.0
143
0.0393700787
144
1.0
145
0.0
146
1.0
147
1.0
170
         0
171
         4
172
         1
173
         1
174
         0
175
         0
176
         0
177
         0
178
         0
270
         2
271
         2
272
         2
273
         2
274
         4
275
         0
280
         0
281
         0
282
         0
283
         0
284
         0
285
         0
286
         0
287
         3
288
         0
340
17
  0
ENDTAB
  0
TABLE
  2
BLOCK_RECORD
  5
1
100
AcDbSymbolTable
 70
         1
  0
BLOCK_RECORD
  5
A
100
AcDbSymbolTableRecord
100
AcDbBlockTableRecord
  2
*MODEL_SPACE
  0
BLOCK_RECORD
  5
B
100
AcDbSymbolTableRecord
100
AcDbBlockTableRecord
  2
*PAPER_SPACE
  0
BLOCK_RECORD
  5
1F
100
AcDbSymbolTableRecord
100
AcDbBlockTableRecord
  2
_OPEN30
  0
ENDTAB
  0
ENDSEC
  0
SECTION
  2
BLOCKS
  0
BLOCK
  5
D
100
AcDbEntity
  8
0
100
AcDbBlockBegin
  2
*MODEL_SPACE
 70
         0
 10
0.0
 20
0.0
 30
0.0
  3
*MODEL_SPACE
  1

  0
ENDBLK
  5
E
100
AcDbEntity
  8
0
100
AcDbBlockEnd
  0
BLOCK
  5
F
100
AcDbEntity
 67
         1
  8
0
100
AcDbBlockBegin
  2
*PAPER_SPACE
 70
         0
 10
0.0
 20
0.0
 30
0.0
  3
*PAPER_SPACE
  1

  0
ENDBLK
  5
10
100
AcDbEntity
 67
         1
  8
0
100
AcDbBlockEnd
  0
BLOCK
  5
20
100
AcDbEntity
  8
0
  6
ByBlock
 62
         0
100
AcDbBlockBegin
  2
_OPEN30
 70
         2
 10
0.0
 20
0.0
 30
0.0
  3
_OPEN30
  1

  0
LINE
  5
21
100
AcDbEntity
  8
0
  6
ByBlock
 62
         0
100
AcDbLine
 10
-1.0
 20
0.267949
 30
0.0
 11
0.0
 21
0.0
 31
0.0
  0
LINE
  5
22
100
AcDbEntity
  8
0
  6
ByBlock
 62
         0
100
AcDbLine
 10
0.0
 20
0.0
 30
0.0
 11
-1.0
 21
-0.267949
 31
0.0
  0
LINE
  5
23
100
AcDbEntity
  8
0
  6
ByBlock
 62
         0
100
AcDbLine
 10
0.0
 20
0.0
 30
0.0
 11
-1.0
 21
0.0
 31
0.0
  0
ENDBLK
  5
24
100
AcDbEntity
  8
0
  6
ByBlock
 62
         0
100
AcDbBlockEnd
  0
ENDSEC
  0
SECTION
  2
ENTITIES
  0
MTEXT
  5
25
100
AcDbEntity
  8
LY_3
  6
CONTINUOUS
 62
       110
100
AcDbMText
 10
-147.446440963
 20
117.7423578659
 30
0.0
 40
13.1499996185
 41
0.0
 71
         1
 72
         1
  1
\W1.050;\A1;TSUBAKI
  0
POINT
  5
26
100
AcDbEntity
  8
LY_3
  6
CONTINUOUS
 62
        20
100
AcDbPoint
 10
-158.264847
 20
-92.610733
 30
0.0
  0
POINT
  5
27
100
AcDbEntity
  8
LY_3
  6
CONTINUOUS
 62
        20
100
AcDbPoint
 10
-27.208115
 20
-92.610733
 30
0.0
  0
POINT
  5
28
100
AcDbEntity
  8
LY_3
  6
CONTINUOUS
 62
        20
100
AcDbPoint
 10
74.791763
 20
-92.610733
 30
0.0
  0
POINT
  5
29
100
AcDbEntity
  8
LY_3
  6
CONTINUOUS
 62
        20
100
AcDbPoint
 10
208.786758
 20
-92.610733
 30
0.0
  0
LINE
  5
2A
100
AcDbEntity
  8
LY_3
  6
CONTINUOUS
 62
       251
100
AcDbLine
 10
74.791763
 20
-52.610764
 30
0.0
 11
74.791763
 21
-62.610779
 31
0.0
  0
LINE
  5
2B
100
AcDbEntity
  8
LY_3
  6
CONTINUOUS
 62
       251
100
AcDbLine
 10
-27.208115
 20
-52.610764
 30
0.0
 11
-27.208115
 21
-62.610779
 31
0.0
  0
LINE
  5
2C
100
AcDbEntity
  8
LY_3
  6
CONTINUOUS
 62
       251
100
AcDbLine
 10
-27.208115
 20
-52.610764
 30
0.0
 11
7.236954
 21
-52.610764
 31
0.0
  0
LINE
  5
2D
100
AcDbEntity
  8
LY_3
  6
CONTINUOUS
 62
       251
100
AcDbLine
 10
-27.208115
 20
-132.610703
 30
0.0
 11
7.236954
 21
-132.610703
 31
0.0
  0
LINE
  5
2E
100
AcDbEntity
  8
LY_3
  6
CONTINUOUS
 62
       251
100
AcDbLine
 10
7.236954
 20
-44.780258
 30
0.0
 11
40.336792
 21
-44.780258
 31
0.0
  0
LINE
  5
2F
100
AcDbEntity
  8
LY_3
  6
CONTINUOUS
 62
       251
100
AcDbLine
 10
40.336792
 20
-52.610764
 30
0.0
 11
74.791763
 21
-52.610764
 31
0.0
  0
LINE
  5
30
100
AcDbEntity
  8
LY_3
  6
CONTINUOUS
 62
       251
100
AcDbLine
 10
40.336792
 20
-132.610703
 30
0.0
 11
74.791763
 21
-132.610703
 31
0.0
  0
LINE
  5
31
100
AcDbEntity
  8
LY_3
  6
CONTINUOUS
 62
       251
100
AcDbLine
 10
-149.264862
 20
-58.210724
 30
0.0
 11
-149.264862
 21
-63.992599
 31
0.0
  0
LINE
  5
32
100
AcDbEntity
  8
LY_3
  6
CONTINUOUS
 62
       251
100
AcDbLine
 10
-167.264847
 20
-58.210724
 30
0.0
 11
-167.264847
 21
-63.992599
 31
0.0
  0
LINE
  5
33
100
AcDbEntity
  8
LY_3
  6
CONTINUOUS
 62
       251
100
AcDbLine
 10
-27.208115
 20
-122.610687
 30
0.0
 11
74.791763
 21
-122.610687
 31
0.0
  0
LINE
  5
34
100
AcDbEntity
  8
LY_3
  6
CONTINUOUS
 62
       251
100
AcDbLine
 10
-167.264847
 20
-58.210724
 30
0.0
 11
-149.264862
 21
-58.210724
 31
0.0
  0
LINE
  5
35
100
AcDbEntity
  8
LY_3
  6
CONTINUOUS
 62
       251
100
AcDbLine
 10
-27.208115
 20
-58.210724
 30
0.0
 11
74.791763
 21
-58.210724
 31
0.0
  0
LINE
  5
36
100
AcDbEntity
  8
LY_3
  6
CONTINUOUS
 62
       251
100
AcDbLine
 10
39.836777
 20
-30.110764
 30
0.0
 11
39.836777
 21
-44.780258
 31
0.0
  0
LINE
  5
37
100
AcDbEntity
  8
LY_3
  6
CONTINUOUS
 62
       251
100
AcDbLine
 10
7.736938
 20
-30.110764
 30
0.0
 11
7.736938
 21
-44.780258
 31
0.0
  0
LINE
  5
38
100
AcDbEntity
  8
LY_3
  6
CONTINUOUS
 62
       251
100
AcDbLine
 10
-26.213013
 20
-15.110764
 30
0.0
 11
-26.213013
 21
-52.610764
 31
0.0
  0
LINE
  5
39
100
AcDbEntity
  8
LY_3
  6
CONTINUOUS
 62
       251
100
AcDbLine
 10
-26.213013
 20
-15.110764
 30
0.0
 11
73.786774
 21
-15.110764
 31
0.0
  0
LINE
  5
3A
100
AcDbEntity
  8
LY_3
  6
CONTINUOUS
 62
       251
100
AcDbLine
 10
-26.213013
 20
-170.110687
 30
0.0
 11
73.786774
 21
-170.110687
 31
0.0
  0
LINE
  5
3B
100
AcDbEntity
  8
LY_3
  6
CONTINUOUS
 62
       251
100
AcDbLine
 10
-26.213013
 20
-30.110764
 30
0.0
 11
-17.113144
 21
-30.110764
 31
0.0
  0
LINE
  5
3C
100
AcDbEntity
  8
LY_3
  6
CONTINUOUS
 62
       251
100
AcDbLine
 10
-26.213013
 20
-155.110687
 30
0.0
 11
-17.113144
 21
-155.110687
 31
0.0
  0
LINE
  5
3D
100
AcDbEntity
  8
LY_3
  6
CONTINUOUS
 62
       251
100
AcDbLine
 10
7.736938
 20
-36.461227
 30
0.0
 11
39.836777
 21
-36.461227
 31
0.0
  0
LINE
  5
3E
100
AcDbEntity
  8
LY_3
  6
CONTINUOUS
 62
       251
100
AcDbLine
 10
7.736938
 20
-148.760193
 30
0.0
 11
39.836777
 21
-148.760193
 31
0.0
  0
LINE
  5
3F
100
AcDbEntity
  8
LY_3
  6
CONTINUOUS
 62
       251
100
AcDbLine
 10
-26.213013
 20
-132.610703
 30
0.0
 11
-26.213013
 21
-170.110687
 31
0.0
  0
LINE
  5
40
100
AcDbEntity
  8
LY_3
  6
CONTINUOUS
 62
       251
100
AcDbLine
 10
39.836777
 20
-30.110764
 30
0.0
 11
62.336792
 21
-30.110764
 31
0.0
  0
LINE
  5
41
100
AcDbEntity
  8
LY_3
  6
CONTINUOUS
 62
       251
100
AcDbLine
 10
39.836777
 20
-155.110687
 30
0.0
 11
62.286804
 21
-155.110687
 31
0.0
  0
LINE
  5
42
100
AcDbEntity
  8
LY_3
  6
CONTINUOUS
 62
       251
100
AcDbLine
 10
7.736938
 20
-140.454193
 30
0.0
 11
7.736938
 21
-155.110687
 31
0.0
  0
LINE
  5
43
100
AcDbEntity
  8
LY_3
  6
CONTINUOUS
 62
       251
100
AcDbLine
 10
39.836777
 20
-140.454193
 30
0.0
 11
39.836777
 21
-155.110687
 31
0.0
  0
LINE
  5
45
100
AcDbEntity
  8
LY_3
  6
CENTER
 62
         7
100
AcDbLine
 10
-104.878428
 20
-39.224196
 30
0.0
 11
-112.656581
 21
-47.002349
 31
0.0
  0
LINE
  5
46
100
AcDbEntity
  8
LY_3
  6
CENTER
 62
         7
100
AcDbLine
 10
-158.264847
 20
-17.110779
 30
0.0
 11
-158.264847
 21
-28.110748
 31
0.0
  0
LINE
  5
47
100
AcDbEntity
  8
LY_3
  6
CENTER
 62
         7
100
AcDbLine
 10
-211.651377
 20
-39.224215
 30
0.0
 11
-203.873235
 21
-47.002357
 31
0.0
  0
LINE
  5
48
100
AcDbEntity
  8
LY_3
  6
CENTER
 62
         7
100
AcDbLine
 10
-233.764799
 20
-92.610733
 30
0.0
 11
-222.764832
 21
-92.610733
 31
0.0
  0
LINE
  5
49
100
AcDbEntity
  8
LY_3
  6
CENTER
 62
         7
100
AcDbLine
 10
-211.651401
 20
-145.997212
 30
0.0
 11
-203.873248
 21
-138.219059
 31
0.0
  0
LINE
  5
4A
100
AcDbEntity
  8
LY_3
  6
CENTER
 62
         7
100
AcDbLine
 10
-158.264862
 20
-168.110657
 30
0.0
 11
-158.264862
 21
-157.110687
 31
0.0
  0
LINE
  5
4B
100
AcDbEntity
  8
LY_3
  6
CENTER
 62
         7
100
AcDbLine
 10
-104.878372
 20
-145.99722
 30
0.0
 11
-112.656525
 21
-138.219067
 31
0.0
  0
LINE
  5
4C
100
AcDbEntity
  8
LY_3
  6
CENTER
 62
         7
100
AcDbLine
 10
-82.764938
 20
-92.610733
 30
0.0
 11
-93.764908
 21
-92.610733
 31
0.0
  0
LINE
  5
4D
100
AcDbEntity
  8
LY_3
  6
CONTINUOUS
 62
       251
100
AcDbLine
 10
64.686783
 20
-28.285751
 30
0.0
 11
64.686783
 21
-52.610764
 31
0.0
  0
LINE
  5
4E
100
AcDbEntity
  8
LY_3
  6
CONTINUOUS
 62
       251
100
AcDbLine
 10
-17.113144
 20
-28.285751
 30
0.0
 11
-17.113144
 21
-52.610764
 31
0.0
  0
LINE
  5
4F
100
AcDbEntity
  8
LY_3
  6
CONTINUOUS
 62
       251
100
AcDbLine
 10
-17.113144
 20
-132.610703
 30
0.0
 11
-17.113144
 21
-156.935699
 31
0.0
  0
LINE
  5
50
100
AcDbEntity
  8
LY_3
  6
CONTINUOUS
 62
       251
100
AcDbLine
 10
64.686783
 20
-132.610703
 30
0.0
 11
64.686783
 21
-156.935699
 31
0.0
  0
LINE
  5
51
100
AcDbEntity
  8
LY_3
  6
CONTINUOUS
 62
       251
100
AcDbLine
 10
-17.113144
 20
-28.285751
 30
0.0
 11
-14.763031
 21
-28.285751
 31
0.0
  0
LINE
  5
52
100
AcDbEntity
  8
LY_3
  6
CONTINUOUS
 62
       251
100
AcDbLine
 10
-17.113144
 20
-156.935699
 30
0.0
 11
-14.763031
 21
-156.935699
 31
0.0
  0
LINE
  5
53
100
AcDbEntity
  8
LY_3
  6
CONTINUOUS
 62
       251
100
AcDbLine
 10
62.336792
 20
-156.935699
 30
0.0
 11
64.686783
 21
-156.935699
 31
0.0
  0
LINE
  5
54
100
AcDbEntity
  8
LY_3
  6
CONTINUOUS
 62
       251
100
AcDbLine
 10
62.336792
 20
-28.285751
 30
0.0
 11
64.686783
 21
-28.285751
 31
0.0
  0
LINE
  5
55
100
AcDbEntity
  8
LY_3
  6
CONTINUOUS
 62
       251
100
AcDbLine
 10
-14.763031
 20
-155.110687
 30
0.0
 11
7.736938
 21
-155.110687
 31
0.0
  0
LINE
  5
56
100
AcDbEntity
  8
LY_3
  6
CONTINUOUS
 62
       251
100
AcDbLine
 10
64.686783
 20
-155.110687
 30
0.0
 11
73.786774
 21
-155.110687
 31
0.0
  0
LINE
  5
57
100
AcDbEntity
  8
LY_3
  6
CONTINUOUS
 62
       251
100
AcDbLine
 10
64.686783
 20
-30.110764
 30
0.0
 11
73.786774
 21
-30.110764
 31
0.0
  0
LINE
  5
58
100
AcDbEntity
  8
LY_3
  6
CONTINUOUS
 62
       251
100
AcDbLine
 10
-14.712997
 20
-30.110764
 30
0.0
 11
7.736938
 21
-30.110764
 31
0.0
  0
LINE
  5
59
100
AcDbEntity
  8
LY_3
  6
CONTINUOUS
 62
       251
100
AcDbLine
 10
40.336792
 20
-30.110764
 30
0.0
 11
40.336792
 21
-52.610764
 31
0.0
  0
LINE
  5
5A
100
AcDbEntity
  8
LY_3
  6
CONTINUOUS
 62
       251
100
AcDbLine
 10
7.236954
 20
-30.110764
 30
0.0
 11
7.236954
 21
-52.610764
 31
0.0
  0
LINE
  5
5B
100
AcDbEntity
  8
LY_3
  6
CONTINUOUS
 62
       251
100
AcDbLine
 10
40.336792
 20
-132.610703
 30
0.0
 11
40.336792
 21
-155.110687
 31
0.0
  0
LINE
  5
5C
100
AcDbEntity
  8
LY_3
  6
CONTINUOUS
 62
       251
100
AcDbLine
 10
7.236954
 20
-132.610703
 30
0.0
 11
7.236954
 21
-155.110687
 31
0.0
  0
LINE
  5
5D
100
AcDbEntity
  8
LY_3
  6
CONTINUOUS
 62
       251
100
AcDbLine
 10
-17.113144
 20
-34.005737
 30
0.0
 11
-14.813095
 21
-34.005737
 31
0.0
  0
LINE
  5
5E
100
AcDbEntity
  8
LY_3
  6
CONTINUOUS
 62
       251
100
AcDbLine
 10
62.336792
 20
-34.005737
 30
0.0
 11
64.686783
 21
-34.005737
 31
0.0
  0
LINE
  5
5F
100
AcDbEntity
  8
LY_3
  6
CONTINUOUS
 62
       251
100
AcDbLine
 10
62.386826
 20
-151.215683
 30
0.0
 11
64.686783
 21
-151.215683
 31
0.0
  0
LINE
  5
60
100
AcDbEntity
  8
LY_3
  6
CONTINUOUS
 62
       251
100
AcDbLine
 10
-17.113144
 20
-151.215683
 30
0.0
 11
-14.813095
 21
-151.215683
 31
0.0
  0
LINE
  5
61
100
AcDbEntity
  8
LY_3
  6
CONTINUOUS
 62
       251
100
AcDbLine
 10
40.336792
 20
-37.310745
 30
0.0
 11
45.940796
 21
-37.310745
 31
0.0
  0
LINE
  5
62
100
AcDbEntity
  8
LY_3
  6
CONTINUOUS
 62
       251
100
AcDbLine
 10
56.732788
 20
-37.310745
 30
0.0
 11
62.336792
 21
-37.310745
 31
0.0
  0
LINE
  5
63
100
AcDbEntity
  8
LY_3
  6
CONTINUOUS
 62
       251
100
AcDbLine
 10
62.336792
 20
-28.285751
 30
0.0
 11
62.336792
 21
-52.610764
 31
0.0
  0
LINE
  5
64
100
AcDbEntity
  8
LY_3
  6
CONTINUOUS
 62
       251
100
AcDbLine
 10
56.732788
 20
-147.910706
 30
0.0
 11
62.336792
 21
-147.910706
 31
0.0
  0
LINE
  5
65
100
AcDbEntity
  8
LY_3
  6
CONTINUOUS
 62
       251
100
AcDbLine
 10
40.336792
 20
-147.910706
 30
0.0
 11
45.940796
 21
-147.910706
 31
0.0
  0
LINE
  5
66
100
AcDbEntity
  8
LY_3
  6
CONTINUOUS
 62
       251
100
AcDbLine
 10
62.336792
 20
-156.935699
 30
0.0
 11
62.336792
 21
-132.610703
 31
0.0
  0
LINE
  5
67
100
AcDbEntity
  8
LY_3
  6
CONTINUOUS
 62
       251
100
AcDbLine
 10
40.336792
 20
-45.410736
 30
0.0
 11
45.940796
 21
-45.410736
 31
0.0
  0
LINE
  5
68
100
AcDbEntity
  8
LY_3
  6
CONTINUOUS
 62
       251
100
AcDbLine
 10
56.732788
 20
-139.810715
 30
0.0
 11
62.336792
 21
-139.810715
 31
0.0
  0
LINE
  5
69
100
AcDbEntity
  8
LY_3
  6
CONTINUOUS
 62
       251
100
AcDbLine
 10
40.336792
 20
-139.810715
 30
0.0
 11
45.940796
 21
-139.810715
 31
0.0
  0
LINE
  5
6A
100
AcDbEntity
  8
LY_3
  6
CONTINUOUS
 62
       251
100
AcDbLine
 10
56.732788
 20
-45.410736
 30
0.0
 11
62.336792
 21
-45.410736
 31
0.0
  0
LINE
  5
6B
100
AcDbEntity
  8
LY_3
  6
CONTINUOUS
 62
       251
100
AcDbLine
 10
-14.763031
 20
-37.310745
 30
0.0
 11
-9.159027
 21
-37.310745
 31
0.0
  0
LINE
  5
6C
100
AcDbEntity
  8
LY_3
  6
CONTINUOUS
 62
       251
100
AcDbLine
 10
-14.146011
 20
-34.17955
 30
0.0
 11
-14.146011
 21
-42.972778
 31
0.0
  0
LINE
  5
6D
100
AcDbEntity
  8
LY_3
  6
CONTINUOUS
 62
       251
100
AcDbLine
 10
1.632965
 20
-37.310745
 30
0.0
 11
7.236954
 21
-37.310745
 31
0.0
  0
LINE
  5
6E
100
AcDbEntity
  8
LY_3
  6
CONTINUOUS
 62
       251
100
AcDbLine
 10
-14.763031
 20
-28.285751
 30
0.0
 11
-14.763031
 21
-52.610764
 31
0.0
  0
LINE
  5
6F
100
AcDbEntity
  8
LY_3
  6
CONTINUOUS
 62
       251
100
AcDbLine
 10
1.632965
 20
-147.910706
 30
0.0
 11
7.236969
 21
-147.910706
 31
0.0
  0
LINE
  5
70
100
AcDbEntity
  8
LY_3
  6
CONTINUOUS
 62
       251
100
AcDbLine
 10
-14.763031
 20
-147.910706
 30
0.0
 11
-9.159027
 21
-147.910706
 31
0.0
  0
LINE
  5
71
100
AcDbEntity
  8
LY_3
  6
CONTINUOUS
 62
       251
100
AcDbLine
 10
-14.763031
 20
-156.935699
 30
0.0
 11
-14.763031
 21
-132.610703
 31
0.0
  0
LINE
  5
72
100
AcDbEntity
  8
LY_3
  6
CONTINUOUS
 62
       251
100
AcDbLine
 10
6.61998
 20
-34.17955
 30
0.0
 11
6.61998
 21
-42.972778
 31
0.0
  0
LINE
  5
73
100
AcDbEntity
  8
LY_3
  6
CONTINUOUS
 62
       251
100
AcDbLine
 10
-14.763031
 20
-45.410736
 30
0.0
 11
-9.159027
 21
-45.410736
 31
0.0
  0
LINE
  5
74
100
AcDbEntity
  8
LY_3
  6
CONTINUOUS
 62
       251
100
AcDbLine
 10
1.632965
 20
-139.810715
 30
0.0
 11
7.236969
 21
-139.810715
 31
0.0
  0
LINE
  5
75
100
AcDbEntity
  8
LY_3
  6
CONTINUOUS
 62
       251
100
AcDbLine
 10
-14.763031
 20
-139.810715
 30
0.0
 11
-9.159027
 21
-139.810715
 31
0.0
  0
LINE
  5
76
100
AcDbEntity
  8
LY_3
  6
CONTINUOUS
 62
       251
100
AcDbLine
 10
1.632965
 20
-45.410736
 30
0.0
 11
7.236954
 21
-45.410736
 31
0.0
  0
LINE
  5
77
100
AcDbEntity
  8
LY_3
  6
CONTINUOUS
 62
       251
100
AcDbLine
 10
10.701767
 20
-42.124359
 30
0.0
 11
10.701767
 21
-44.780258
 31
0.0
  0
LINE
  5
78
100
AcDbEntity
  8
LY_3
  6
CONTINUOUS
 62
       251
100
AcDbLine
 10
36.871765
 20
-42.124359
 30
0.0
 11
36.871765
 21
-44.780258
 31
0.0
  0
LINE
  5
79
100
AcDbEntity
  8
LY_3
  6
CONTINUOUS
 62
       251
100
AcDbLine
 10
7.737038
 20
-41.189045
 30
0.0
 11
9.314136
 21
-40.939257
 31
0.0
  0
LINE
  5
7A
100
AcDbEntity
  8
LY_3
  6
CONTINUOUS
 62
       251
100
AcDbLine
 10
38.259555
 20
-40.939178
 30
0.0
 11
39.836818
 21
-41.188991
 31
0.0
  0
LINE
  5
7B
100
AcDbEntity
  8
LY_3
  6
CONTINUOUS
 62
       251
100
AcDbLine
 10
40.336868
 20
-140.454163
 30
0.0
 11
7.237061
 21
-140.454163
 31
0.0
  0
LINE
  5
7C
100
AcDbEntity
  8
LY_3
  6
CONTINUOUS
 62
       251
100
AcDbLine
 10
36.871826
 20
-143.097046
 30
0.0
 11
36.871826
 21
-140.454163
 31
0.0
  0
LINE
  5
7D
100
AcDbEntity
  8
LY_3
  6
CONTINUOUS
 62
       251
100
AcDbLine
 10
10.701828
 20
-143.097046
 30
0.0
 11
10.701828
 21
-140.454163
 31
0.0
  0
LINE
  5
7E
100
AcDbEntity
  8
LY_3
  6
CONTINUOUS
 62
       251
100
AcDbLine
 10
39.836844
 20
-144.032396
 30
0.0
 11
38.259566
 21
-144.282212
 31
0.0
  0
LINE
  5
7F
100
AcDbEntity
  8
LY_3
  6
CONTINUOUS
 62
       251
100
AcDbLine
 10
9.314112
 20
-144.282115
 30
0.0
 11
7.73703
 21
-144.03233
 31
0.0
  0
LINE
  5
80
100
AcDbEntity
  8
LY_3
  6
CONTINUOUS
 62
         7
100
AcDbLine
 10
-10.203094
 20
-166.610626
 30
0.0
 11
-26.203094
 21
-166.610626
 31
0.0
  0
LINE
  5
81
100
AcDbEntity
  8
LY_3
  6
CONTINUOUS
 62
         7
100
AcDbLine
 10
-10.203094
 20
-158.610641
 30
0.0
 11
-26.203094
 21
-158.610641
 31
0.0
  0
LINE
  5
82
100
AcDbEntity
  8
LY_3
  6
CONTINUOUS
 62
       251
100
AcDbLine
 10
-10.203094
 20
-158.610641
 30
0.0
 11
-10.203094
 21
-166.610626
 31
0.0
  0
LINE
  5
83
100
AcDbEntity
  8
LY_3
  6
CONTINUOUS
 62
       251
100
AcDbLine
 10
-3.903091
 20
-159.160645
 30
0.0
 11
-3.903091
 21
-166.060623
 31
0.0
  0
LINE
  5
84
100
AcDbEntity
  8
LY_3
  6
CONTINUOUS
 62
       251
100
AcDbLine
 10
-3.903091
 20
-166.060623
 30
0.0
 11
-26.203094
 21
-166.060623
 31
0.0
  0
LINE
  5
85
100
AcDbEntity
  8
LY_3
  6
CONTINUOUS
 62
       251
100
AcDbLine
 10
-3.903091
 20
-159.160645
 30
0.0
 11
-26.203094
 21
-159.160645
 31
0.0
  0
LINE
  5
86
100
AcDbEntity
  8
LY_3
  6
CONTINUOUS
 62
       251
100
AcDbLine
 10
-3.903072
 20
-166.060645
 30
0.0
 11
-1.830109
 21
-162.610657
 31
0.0
  0
LINE
  5
87
100
AcDbEntity
  8
LY_3
  6
CONTINUOUS
 62
       251
100
AcDbLine
 10
-1.830129
 20
-162.610636
 30
0.0
 11
-3.903099
 21
-159.160634
 31
0.0
  0
LINE
  5
88
100
AcDbEntity
  8
LY_3
  6
CONTINUOUS
 62
         7
100
AcDbLine
 10
-26.203033
 20
-18.610825
 30
0.0
 11
-10.203033
 21
-18.610825
 31
0.0
  0
LINE
  5
89
100
AcDbEntity
  8
LY_3
  6
CONTINUOUS
 62
         7
100
AcDbLine
 10
-26.203033
 20
-26.610809
 30
0.0
 11
-10.203033
 21
-26.610809
 31
0.0
  0
LINE
  5
8A
100
AcDbEntity
  8
LY_3
  6
CONTINUOUS
 62
       251
100
AcDbLine
 10
-10.203033
 20
-18.61084
 30
0.0
 11
-10.203033
 21
-26.61084
 31
0.0
  0
LINE
  5
8B
100
AcDbEntity
  8
LY_3
  6
CONTINUOUS
 62
       251
100
AcDbLine
 10
-3.90303
 20
-19.160843
 30
0.0
 11
-3.90303
 21
-26.060837
 31
0.0
  0
LINE
  5
8C
100
AcDbEntity
  8
LY_3
  6
CONTINUOUS
 62
       251
100
AcDbLine
 10
-26.203033
 20
-19.160828
 30
0.0
 11
-3.90303
 21
-19.160828
 31
0.0
  0
LINE
  5
8D
100
AcDbEntity
  8
LY_3
  6
CONTINUOUS
 62
       251
100
AcDbLine
 10
-26.203033
 20
-26.060806
 30
0.0
 11
-3.90303
 21
-26.060806
 31
0.0
  0
LINE
  5
8E
100
AcDbEntity
  8
LY_3
  6
CONTINUOUS
 62
       251
100
AcDbLine
 10
-1.830075
 20
-22.61082
 30
0.0
 11
-3.903037
 21
-19.160831
 31
0.0
  0
LINE
  5
8F
100
AcDbEntity
  8
LY_3
  6
CONTINUOUS
 62
       251
100
AcDbLine
 10
-3.903097
 20
-26.060811
 30
0.0
 11
-1.830127
 21
-22.610809
 31
0.0
  0
LINE
  5
90
100
AcDbEntity
  8
LY_3
  6
CONTINUOUS
 62
       251
100
AcDbLine
 10
-27.208115
 20
-62.610779
 30
0.0
 11
74.791763
 21
-62.610779
 31
0.0
  0
LINE
  5
91
100
AcDbEntity
  8
LY_3
  6
CONTINUOUS
 62
       251
100
AcDbLine
 10
74.791763
 20
-122.610687
 30
0.0
 11
74.791763
 21
-132.610703
 31
0.0
  0
LINE
  5
92
100
AcDbEntity
  8
LY_3
  6
CONTINUOUS
 62
       251
100
AcDbLine
 10
-27.208115
 20
-122.610687
 30
0.0
 11
-27.208115
 21
-132.610703
 31
0.0
  0
LINE
  5
93
100
AcDbEntity
  8
LY_3
  6
CONTINUOUS
 62
       251
100
AcDbLine
 10
61.729691
 20
-42.972778
 30
0.0
 11
61.729691
 21
-34.17955
 31
0.0
  0
LINE
  5
94
100
AcDbEntity
  8
LY_3
  6
CONTINUOUS
 62
       251
100
AcDbLine
 10
40.963699
 20
-42.972778
 30
0.0
 11
40.963699
 21
-34.17955
 31
0.0
  0
LINE
  5
95
100
AcDbEntity
  8
LY_3
  6
CONTINUOUS
 62
       251
100
AcDbLine
 10
-14.146011
 20
-142.248672
 30
0.0
 11
-14.146011
 21
-151.041901
 31
0.0
  0
LINE
  5
96
100
AcDbEntity
  8
LY_3
  6
CONTINUOUS
 62
       251
100
AcDbLine
 10
6.61998
 20
-142.248672
 30
0.0
 11
6.61998
 21
-151.041901
 31
0.0
  0
LINE
  5
97
100
AcDbEntity
  8
LY_3
  6
CONTINUOUS
 62
       251
100
AcDbLine
 10
61.729691
 20
-151.041901
 30
0.0
 11
61.729691
 21
-142.248672
 31
0.0
  0
LINE
  5
98
100
AcDbEntity
  8
LY_3
  6
CONTINUOUS
 62
       251
100
AcDbLine
 10
40.963699
 20
-151.041901
 30
0.0
 11
40.963699
 21
-142.248672
 31
0.0
  0
LINE
  5
99
100
AcDbEntity
  8
LY_3
  6
CONTINUOUS
 62
       251
100
AcDbLine
 10
73.786758
 20
-9.110733
 30
0.0
 11
73.786758
 21
-18.610764
 31
0.0
  0
LINE
  5
9A
100
AcDbEntity
  8
LY_3
  6
CONTINUOUS
 62
       251
100
AcDbLine
 10
92.286758
 20
-9.110733
 30
0.0
 11
92.286758
 21
-37.610733
 31
0.0
  0
LINE
  5
9B
100
AcDbEntity
  8
LY_3
  6
CONTINUOUS
 62
       251
100
AcDbLine
 10
99.286758
 20
-37.610733
 30
0.0
 11
99.286758
 21
-92.610733
 31
0.0
  0
LINE
  5
9C
100
AcDbEntity
  8
LY_3
  6
CONTINUOUS
 62
       251
100
AcDbLine
 10
64.686783
 20
-44.110733
 30
0.0
 11
83.286758
 21
-44.110733
 31
0.0
  0
LINE
  5
9D
100
AcDbEntity
  8
LY_3
  6
CONTINUOUS
 62
       251
100
AcDbLine
 10
73.786758
 20
-9.110733
 30
0.0
 11
92.286758
 21
-9.110733
 31
0.0
  0
LINE
  5
9E
100
AcDbEntity
  8
LY_3
  6
CONTINUOUS
 62
       251
100
AcDbLine
 10
83.286758
 20
-44.110733
 30
0.0
 11
83.286758
 21
-92.610733
 31
0.0
  0
LINE
  5
9F
100
AcDbEntity
  8
LY_3
  6
CONTINUOUS
 62
       251
100
AcDbLine
 10
83.286758
 20
-62.610733
 30
0.0
 11
99.286758
 21
-62.610733
 31
0.0
  0
LINE
  5
A0
100
AcDbEntity
  8
LY_3
  6
CONTINUOUS
 62
       251
100
AcDbLine
 10
81.286758
 20
-26.610764
 30
0.0
 11
57.786758
 21
-26.610764
 31
0.0
  0
LINE
  5
A1
100
AcDbEntity
  8
LY_3
  6
CONTINUOUS
 62
       251
100
AcDbLine
 10
81.286758
 20
-18.610764
 30
0.0
 11
57.786758
 21
-18.610764
 31
0.0
  0
LINE
  5
A2
100
AcDbEntity
  8
LY_3
  6
CONTINUOUS
 62
       251
100
AcDbLine
 10
57.786758
 20
-26.610764
 30
0.0
 11
57.786758
 21
-18.610764
 31
0.0
  0
LINE
  5
A3
100
AcDbEntity
  8
LY_3
  6
CONTINUOUS
 62
       251
100
AcDbLine
 10
51.486771
 20
-26.060745
 30
0.0
 11
51.486771
 21
-19.160751
 31
0.0
  0
LINE
  5
A4
100
AcDbEntity
  8
LY_3
  6
CONTINUOUS
 62
         7
100
AcDbLine
 10
81.286758
 20
-26.060745
 30
0.0
 11
57.786758
 21
-26.060745
 31
0.0
  0
LINE
  5
A5
100
AcDbEntity
  8
LY_3
  6
CONTINUOUS
 62
         7
100
AcDbLine
 10
81.286758
 20
-19.160751
 30
0.0
 11
57.786758
 21
-19.160751
 31
0.0
  0
LINE
  5
A6
100
AcDbEntity
  8
LY_3
  6
CONTINUOUS
 62
       251
100
AcDbLine
 10
49.413846
 20
-22.610729
 30
0.0
 11
51.486808
 21
-26.060718
 31
0.0
  0
LINE
  5
A7
100
AcDbEntity
  8
LY_3
  6
CONTINUOUS
 62
       251
100
AcDbLine
 10
51.486808
 20
-19.160763
 30
0.0
 11
49.41383
 21
-22.610777
 31
0.0
  0
LINE
  5
A8
100
AcDbEntity
  8
LY_3
  6
CONTINUOUS
 62
       251
100
AcDbLine
 10
92.286758
 20
-14.110764
 30
0.0
 11
81.286758
 21
-14.110764
 31
0.0
  0
LINE
  5
A9
100
AcDbEntity
  8
LY_3
  6
CONTINUOUS
 62
       251
100
AcDbLine
 10
92.286758
 20
-31.110764
 30
0.0
 11
81.286758
 21
-31.110764
 31
0.0
  0
LINE
  5
AA
100
AcDbEntity
  8
LY_3
  6
CONTINUOUS
 62
       251
100
AcDbLine
 10
81.286758
 20
-14.110764
 30
0.0
 11
81.286758
 21
-31.110764
 31
0.0
  0
LINE
  5
AB
100
AcDbEntity
  8
LY_3
  6
CONTINUOUS
 62
       251
100
AcDbLine
 10
83.286758
 20
-14.910782
 30
0.0
 11
83.286758
 21
-30.310776
 31
0.0
  0
LINE
  5
AC
100
AcDbEntity
  8
LY_3
  6
CONTINUOUS
 62
       251
100
AcDbLine
 10
91.286758
 20
-16.110764
 30
0.0
 11
91.286758
 21
-29.110764
 31
0.0
  0
LINE
  5
AD
100
AcDbEntity
  8
LY_3
  6
CONTINUOUS
 62
       251
100
AcDbLine
 10
83.286758
 20
-16.110764
 30
0.0
 11
91.286758
 21
-16.110764
 31
0.0
  0
LINE
  5
AE
100
AcDbEntity
  8
LY_3
  6
CONTINUOUS
 62
       251
100
AcDbLine
 10
91.286758
 20
-29.110764
 30
0.0
 11
83.286758
 21
-29.110764
 31
0.0
  0
LINE
  5
AF
100
AcDbEntity
  8
LY_3
  6
CONTINUOUS
 62
       251
100
AcDbLine
 10
81.286758
 20
-14.910782
 30
0.0
 11
83.286758
 21
-14.910782
 31
0.0
  0
LINE
  5
B0
100
AcDbEntity
  8
LY_3
  6
CONTINUOUS
 62
       251
100
AcDbLine
 10
81.286758
 20
-30.310776
 30
0.0
 11
83.286758
 21
-30.310776
 31
0.0
  0
LINE
  5
B1
100
AcDbEntity
  8
LY_3
  6
CONTINUOUS
 62
       251
100
AcDbLine
 10
57.786758
 20
-19.160751
 30
0.0
 11
51.486771
 21
-19.160751
 31
0.0
  0
LINE
  5
B2
100
AcDbEntity
  8
LY_3
  6
CONTINUOUS
 62
       251
100
AcDbLine
 10
57.786758
 20
-26.060745
 30
0.0
 11
51.486771
 21
-26.060745
 31
0.0
  0
LINE
  5
B3
100
AcDbEntity
  8
LY_3
  6
CONTINUOUS
 62
       251
100
AcDbLine
 10
73.786758
 20
-26.610764
 30
0.0
 11
73.786758
 21
-30.110733
 31
0.0
  0
LINE
  5
B5
100
AcDbEntity
  8
LY_3
  6
DASHED
 62
         7
100
AcDbLine
 10
131.986759
 20
-22.535751
 30
0.0
 11
139.286758
 21
-22.535751
 31
0.0
  0
LINE
  5
B6
100
AcDbEntity
  8
LY_3
  6
DASHED
 62
         7
100
AcDbLine
 10
141.286758
 20
-24.535812
 30
0.0
 11
141.286758
 21
-31.635788
 31
0.0
  0
LINE
  5
B7
100
AcDbEntity
  8
LY_3
  6
DASHED
 62
         7
100
AcDbLine
 10
129.986759
 20
-24.535751
 30
0.0
 11
129.986759
 21
-31.635788
 31
0.0
  0
LINE
  5
B8
100
AcDbEntity
  8
LY_3
  6
DASHED
 62
         7
100
AcDbLine
 10
129.986768
 20
-24.53578
 30
0.0
 11
131.986769
 21
-22.535777
 31
0.0
  0
LINE
  5
B9
100
AcDbEntity
  8
LY_3
  6
DASHED
 62
         7
100
AcDbLine
 10
139.286763
 20
-22.535809
 30
0.0
 11
141.286768
 21
-24.535851
 31
0.0
  0
LINE
  5
BA
100
AcDbEntity
  8
LY_3
  6
CONTINUOUS
 62
       251
100
AcDbLine
 10
118.086777
 20
-36.610733
 30
0.0
 11
118.086777
 21
-37.610733
 31
0.0
  0
LINE
  5
BB
100
AcDbEntity
  8
LY_3
  6
CONTINUOUS
 62
       251
100
AcDbLine
 10
92.286758
 20
-37.610733
 30
0.0
 11
129.986759
 21
-37.610733
 31
0.0
  0
LINE
  5
BC
100
AcDbEntity
  8
LY_3
  6
CONTINUOUS
 62
       251
100
AcDbLine
 10
99.286758
 20
-83.610733
 30
0.0
 11
141.286758
 21
-83.610733
 31
0.0
  0
LINE
  5
BD
100
AcDbEntity
  8
LY_3
  6
DASHED
 62
         7
100
AcDbLine
 10
154.786758
 20
-22.535751
 30
0.0
 11
162.086746
 21
-22.535751
 31
0.0
  0
LINE
  5
BE
100
AcDbEntity
  8
LY_3
  6
CONTINUOUS
 62
       251
100
AcDbLine
 10
152.786758
 20
-92.610733
 30
0.0
 11
152.786758
 21
-31.635788
 31
0.0
  0
LINE
  5
BF
100
AcDbEntity
  8
LY_3
  6
CONTINUOUS
 62
       251
100
AcDbLine
 10
164.086746
 20
-37.610733
 30
0.0
 11
164.086746
 21
-31.635788
 31
0.0
  0
LINE
  5
C0
100
AcDbEntity
  8
LY_3
  6
DASHED
 62
         7
100
AcDbLine
 10
162.086761
 20
-22.53584
 30
0.0
 11
164.086762
 21
-24.535843
 31
0.0
  0
LINE
  5
C1
100
AcDbEntity
  8
LY_3
  6
DASHED
 62
         7
100
AcDbLine
 10
152.78674
 20
-24.535848
 30
0.0
 11
154.786745
 21
-22.535806
 31
0.0
  0
LINE
  5
C2
100
AcDbEntity
  8
LY_3
  6
CONTINUOUS
 62
       251
100
AcDbLine
 10
164.086746
 20
-37.610733
 30
0.0
 11
208.786758
 21
-37.610733
 31
0.0
  0
LINE
  5
C4
100
AcDbEntity
  8
LY_3
  6
PHANTOM
 62
         7
100
AcDbLine
 10
152.786758
 20
-55.110733
 30
0.0
 11
208.786758
 21
-55.110733
 31
0.0
  0
LINE
  5
C5
100
AcDbEntity
  8
LY_3
  6
CONTINUOUS
 62
       251
100
AcDbLine
 10
208.786758
 20
-37.610733
 30
0.0
 11
208.786758
 21
-92.610733
 31
0.0
  0
LINE
  5
C6
100
AcDbEntity
  8
LY_3
  6
CENTER
 62
         7
100
AcDbLine
 10
185.786758
 20
-32.821213
 30
0.0
 11
185.786758
 21
-58.613113
 31
0.0
  0
LINE
  5
C7
100
AcDbEntity
  8
LY_3
  6
CONTINUOUS
 62
       251
100
AcDbLine
 10
101.086839
 20
-9.110733
 30
0.0
 11
193.086762
 21
-9.110733
 31
0.0
  0
LINE
  5
C8
100
AcDbEntity
  8
LY_3
  6
CONTINUOUS
 62
       251
100
AcDbLine
 10
118.086777
 20
-14.110733
 30
0.0
 11
118.086777
 21
-36.610733
 31
0.0
  0
LINE
  5
C9
100
AcDbEntity
  8
LY_3
  6
CONTINUOUS
 62
       251
100
AcDbLine
 10
94.086777
 20
-16.110783
 30
0.0
 11
94.086777
 21
-37.533249
 31
0.0
  0
LINE
  5
CA
100
AcDbEntity
  8
LY_3
  6
CONTINUOUS
 62
       251
100
AcDbLine
 10
200.086777
 20
-16.110787
 30
0.0
 11
200.086777
 21
-37.610733
 31
0.0
  0
LINE
  5
CB
100
AcDbEntity
  8
LY_3
  6
CONTINUOUS
 62
       251
100
AcDbLine
 10
94.086777
 20
-16.110783
 30
0.0
 11
101.086839
 21
-9.110733
 31
0.0
  0
LINE
  5
CC
100
AcDbEntity
  8
LY_3
  6
CONTINUOUS
 62
       251
100
AcDbLine
 10
193.086762
 20
-9.110733
 30
0.0
 11
200.086777
 21
-16.110787
 31
0.0
  0
LINE
  5
CD
100
AcDbEntity
  8
LY_3
  6
DASHED
 62
         7
100
AcDbLine
 10
179.086777
 20
-9.110733
 30
0.0
 11
179.086777
 21
-19.610733
 31
0.0
  0
LINE
  5
CE
100
AcDbEntity
  8
LY_3
  6
DASHED
 62
         7
100
AcDbLine
 10
197.086777
 20
-13.110764
 30
0.0
 11
197.086777
 21
-19.610733
 31
0.0
  0
LINE
  5
CF
100
AcDbEntity
  8
LY_3
  6
DASHED
 62
         7
100
AcDbLine
 10
114.98674
 20
-19.610733
 30
0.0
 11
114.98674
 21
-9.711716
 31
0.0
  0
LINE
  5
D0
100
AcDbEntity
  8
LY_3
  6
DASHED
 62
         7
100
AcDbLine
 10
96.98674
 20
-19.610733
 30
0.0
 11
96.98674
 21
-13.110764
 31
0.0
  0
LINE
  5
D1
100
AcDbEntity
  8
LY_3
  6
CONTINUOUS
 62
       251
100
AcDbLine
 10
118.086777
 20
-14.110733
 30
0.0
 11
176.086777
 21
-14.110733
 31
0.0
  0
LINE
  5
D2
100
AcDbEntity
  8
LY_3
  6
CONTINUOUS
 62
       251
100
AcDbLine
 10
184.586777
 20
-31.088973
 30
0.0
 11
184.586777
 21
-37.610733
 31
0.0
  0
LINE
  5
D3
100
AcDbEntity
  8
LY_3
  6
CONTINUOUS
 62
       251
100
AcDbLine
 10
176.086777
 20
-14.110733
 30
0.0
 11
176.086777
 21
-19.610733
 31
0.0
  0
LINE
  5
D4
100
AcDbEntity
  8
LY_3
  6
CONTINUOUS
 62
       251
100
AcDbLine
 10
164.786758
 20
-16.630783
 30
0.0
 11
164.786758
 21
-34.730789
 31
0.0
  0
LINE
  5
D5
100
AcDbEntity
  8
LY_3
  6
CONTINUOUS
 62
       251
100
AcDbLine
 10
167.436783
 20
-16.630783
 30
0.0
 11
167.436783
 21
-34.730789
 31
0.0
  0
LINE
  5
D6
100
AcDbEntity
  8
LY_3
  6
CONTINUOUS
 62
       251
100
AcDbLine
 10
169.836777
 20
-17.880783
 30
0.0
 11
169.836777
 21
-33.480759
 31
0.0
  0
LINE
  5
D7
100
AcDbEntity
  8
LY_3
  6
CONTINUOUS
 62
       251
100
AcDbLine
 10
164.786758
 20
-16.630783
 30
0.0
 11
167.436783
 21
-16.630783
 31
0.0
  0
LINE
  5
D8
100
AcDbEntity
  8
LY_3
  6
CONTINUOUS
 62
       251
100
AcDbLine
 10
164.786758
 20
-34.730789
 30
0.0
 11
167.436783
 21
-34.730789
 31
0.0
  0
LINE
  5
D9
100
AcDbEntity
  8
LY_3
  6
CONTINUOUS
 62
       251
100
AcDbLine
 10
167.436783
 20
-33.480759
 30
0.0
 11
169.836777
 21
-33.480759
 31
0.0
  0
LINE
  5
DA
100
AcDbEntity
  8
LY_3
  6
CONTINUOUS
 62
       251
100
AcDbLine
 10
167.436783
 20
-17.880783
 30
0.0
 11
169.836777
 21
-17.880783
 31
0.0
  0
LINE
  5
DB
100
AcDbEntity
  8
LY_3
  6
CONTINUOUS
 62
       251
100
AcDbLine
 10
173.786789
 20
-22.70079
 30
0.0
 11
169.836777
 21
-22.70079
 31
0.0
  0
LINE
  5
DC
100
AcDbEntity
  8
LY_3
  6
CONTINUOUS
 62
       251
100
AcDbLine
 10
173.786789
 20
-28.660782
 30
0.0
 11
169.836777
 21
-28.660782
 31
0.0
  0
LINE
  5
DD
100
AcDbEntity
  8
LY_3
  6
CONTINUOUS
 62
       251
100
AcDbLine
 10
173.786789
 20
-22.70079
 30
0.0
 11
173.786789
 21
-28.660782
 31
0.0
  0
LINE
  5
DE
100
AcDbEntity
  8
LY_3
  6
CONTINUOUS
 62
       251
100
AcDbLine
 10
152.086777
 20
-19.725784
 30
0.0
 11
164.786758
 21
-19.725784
 31
0.0
  0
LINE
  5
DF
100
AcDbEntity
  8
LY_3
  6
CONTINUOUS
 62
       251
100
AcDbLine
 10
152.086777
 20
-31.635788
 30
0.0
 11
164.786758
 21
-31.635788
 31
0.0
  0
LINE
  5
E0
100
AcDbEntity
  8
LY_3
  6
CONTINUOUS
 62
       251
100
AcDbLine
 10
152.086746
 20
-34.730789
 30
0.0
 11
152.086746
 21
-16.630783
 31
0.0
  0
LINE
  5
E1
100
AcDbEntity
  8
LY_3
  6
CONTINUOUS
 62
       251
100
AcDbLine
 10
149.436752
 20
-34.730789
 30
0.0
 11
149.436752
 21
-16.630783
 31
0.0
  0
LINE
  5
E2
100
AcDbEntity
  8
LY_3
  6
CONTINUOUS
 62
       251
100
AcDbLine
 10
147.036758
 20
-33.480759
 30
0.0
 11
147.036758
 21
-17.880783
 31
0.0
  0
LINE
  5
E3
100
AcDbEntity
  8
LY_3
  6
CONTINUOUS
 62
       251
100
AcDbLine
 10
149.436752
 20
-16.630783
 30
0.0
 11
152.086746
 21
-16.630783
 31
0.0
  0
LINE
  5
E4
100
AcDbEntity
  8
LY_3
  6
CONTINUOUS
 62
       251
100
AcDbLine
 10
149.436752
 20
-34.730789
 30
0.0
 11
152.086746
 21
-34.730789
 31
0.0
  0
LINE
  5
E5
100
AcDbEntity
  8
LY_3
  6
CONTINUOUS
 62
       251
100
AcDbLine
 10
129.286713
 20
-34.730789
 30
0.0
 11
129.286713
 21
-16.630783
 31
0.0
  0
LINE
  5
E6
100
AcDbEntity
  8
LY_3
  6
CONTINUOUS
 62
       251
100
AcDbLine
 10
126.636703
 20
-34.730789
 30
0.0
 11
126.636703
 21
-16.630783
 31
0.0
  0
LINE
  5
E7
100
AcDbEntity
  8
LY_3
  6
CONTINUOUS
 62
       251
100
AcDbLine
 10
124.23671
 20
-33.480759
 30
0.0
 11
124.23671
 21
-17.880783
 31
0.0
  0
LINE
  5
E8
100
AcDbEntity
  8
LY_3
  6
CONTINUOUS
 62
       251
100
AcDbLine
 10
126.636703
 20
-16.630783
 30
0.0
 11
129.286713
 21
-16.630783
 31
0.0
  0
LINE
  5
E9
100
AcDbEntity
  8
LY_3
  6
CONTINUOUS
 62
       251
100
AcDbLine
 10
126.636703
 20
-34.730789
 30
0.0
 11
129.286713
 21
-34.730789
 31
0.0
  0
LINE
  5
EA
100
AcDbEntity
  8
LY_3
  6
CONTINUOUS
 62
       251
100
AcDbLine
 10
124.23671
 20
-33.480759
 30
0.0
 11
126.636703
 21
-33.480759
 31
0.0
  0
LINE
  5
EB
100
AcDbEntity
  8
LY_3
  6
CONTINUOUS
 62
       251
100
AcDbLine
 10
124.23671
 20
-17.880783
 30
0.0
 11
126.636703
 21
-17.880783
 31
0.0
  0
LINE
  5
EC
100
AcDbEntity
  8
LY_3
  6
CONTINUOUS
 62
       251
100
AcDbLine
 10
129.286713
 20
-19.725784
 30
0.0
 11
141.98671
 21
-19.725784
 31
0.0
  0
LINE
  5
ED
100
AcDbEntity
  8
LY_3
  6
CONTINUOUS
 62
       251
100
AcDbLine
 10
129.286713
 20
-31.635788
 30
0.0
 11
141.98671
 21
-31.635788
 31
0.0
  0
LINE
  5
EE
100
AcDbEntity
  8
LY_3
  6
CONTINUOUS
 62
       251
100
AcDbLine
 10
141.98671
 20
-16.630783
 30
0.0
 11
141.98671
 21
-34.730789
 31
0.0
  0
LINE
  5
EF
100
AcDbEntity
  8
LY_3
  6
CONTINUOUS
 62
       251
100
AcDbLine
 10
144.636765
 20
-34.730789
 30
0.0
 11
144.636765
 21
-16.630783
 31
0.0
  0
LINE
  5
F0
100
AcDbEntity
  8
LY_3
  6
CONTINUOUS
 62
       251
100
AcDbLine
 10
141.98671
 20
-16.630783
 30
0.0
 11
144.636765
 21
-16.630783
 31
0.0
  0
LINE
  5
F1
100
AcDbEntity
  8
LY_3
  6
CONTINUOUS
 62
       251
100
AcDbLine
 10
141.98671
 20
-34.730789
 30
0.0
 11
144.636765
 21
-34.730789
 31
0.0
  0
LINE
  5
F2
100
AcDbEntity
  8
LY_3
  6
CONTINUOUS
 62
       251
100
AcDbLine
 10
144.636734
 20
-33.480759
 30
0.0
 11
149.436752
 21
-33.480759
 31
0.0
  0
LINE
  5
F3
100
AcDbEntity
  8
LY_3
  6
CONTINUOUS
 62
       251
100
AcDbLine
 10
144.636734
 20
-17.880783
 30
0.0
 11
149.436752
 21
-17.880783
 31
0.0
  0
LINE
  5
F4
100
AcDbEntity
  8
LY_3
  6
CONTINUOUS
 62
       251
100
AcDbLine
 10
122.786697
 20
-22.70079
 30
0.0
 11
122.786697
 21
-28.660782
 31
0.0
  0
LINE
  5
F5
100
AcDbEntity
  8
LY_3
  6
CONTINUOUS
 62
       251
100
AcDbLine
 10
122.786697
 20
-28.660782
 30
0.0
 11
124.23671
 21
-28.660782
 31
0.0
  0
LINE
  5
F6
100
AcDbEntity
  8
LY_3
  6
CONTINUOUS
 62
       251
100
AcDbLine
 10
122.786697
 20
-22.70079
 30
0.0
 11
124.23671
 21
-22.70079
 31
0.0
  0
LINE
  5
F7
100
AcDbEntity
  8
LY_3
  6
PHANTOM
 62
         7
100
AcDbLine
 10
173.786789
 20
-22.70076
 30
0.0
 11
223.786758
 21
-22.70076
 31
0.0
  0
LINE
  5
F8
100
AcDbEntity
  8
LY_3
  6
PHANTOM
 62
         7
100
AcDbLine
 10
173.786789
 20
-28.660751
 30
0.0
 11
223.786758
 21
-28.660751
 31
0.0
  0
LINE
  5
F9
100
AcDbEntity
  8
LY_3
  6
PHANTOM
 62
         7
100
AcDbLine
 10
223.786758
 20
-22.70076
 30
0.0
 11
223.786758
 21
-28.660751
 31
0.0
  0
LINE
  5
FA
100
AcDbEntity
  8
LY_3
  6
CONTINUOUS
 62
       251
100
AcDbLine
 10
129.986759
 20
-31.635788
 30
0.0
 11
129.986759
 21
-37.610733
 31
0.0
  0
LINE
  5
FB
100
AcDbEntity
  8
LY_3
  6
CONTINUOUS
 62
       251
100
AcDbLine
 10
141.286758
 20
-31.635788
 30
0.0
 11
141.286758
 21
-92.610733
 31
0.0
  0
LINE
  5
FC
100
AcDbEntity
  8
LY_3
  6
DASHED
 62
         7
100
AcDbLine
 10
152.786758
 20
-31.635788
 30
0.0
 11
152.786758
 21
-24.535812
 31
0.0
  0
LINE
  5
FD
100
AcDbEntity
  8
LY_3
  6
DASHED
 62
         7
100
AcDbLine
 10
164.086746
 20
-31.635788
 30
0.0
 11
164.086746
 21
-24.535751
 31
0.0
  0
LINE
  5
FE
100
AcDbEntity
  8
LY_3
  6
CONTINUOUS
 62
       251
100
AcDbLine
 10
190.636765
 20
-35.860733
 30
0.0
 11
190.636765
 21
-37.610733
 31
0.0
  0
LINE
  5
FF
100
AcDbEntity
  8
LY_3
  6
CONTINUOUS
 62
       251
100
AcDbLine
 10
196.086746
 20
-35.860733
 30
0.0
 11
196.086746
 21
-37.610733
 31
0.0
  0
LINE
  5
100
100
AcDbEntity
  8
LY_3
  6
CONTINUOUS
 62
       251
100
AcDbLine
 10
191.111771
 20
-31.110733
 30
0.0
 11
195.61174
 21
-31.110733
 31
0.0
  0
LINE
  5
101
100
AcDbEntity
  8
LY_3
  6
CONTINUOUS
 62
       251
100
AcDbLine
 10
191.111765
 20
-31.110781
 30
0.0
 11
190.636768
 21
-35.860772
 31
0.0
  0
LINE
  5
102
100
AcDbEntity
  8
LY_3
  6
CONTINUOUS
 62
       251
100
AcDbLine
 10
196.086728
 20
-35.860761
 30
0.0
 11
195.611723
 21
-31.110771
 31
0.0
  0
LINE
  5
103
100
AcDbEntity
  8
LY_3
  6
CONTINUOUS
 62
       251
100
AcDbLine
 10
184.586777
 20
-35.860733
 30
0.0
 11
190.636765
 21
-35.860733
 31
0.0
  0
LINE
  5
104
100
AcDbEntity
  8
LY_3
  6
CONTINUOUS
 62
       251
100
AcDbLine
 10
196.086746
 20
-35.860733
 30
0.0
 11
200.086777
 21
-35.860733
 31
0.0
  0
LINE
  5
105
100
AcDbEntity
  8
LY_3
  6
PHANTOM
 62
         7
100
AcDbLine
 10
152.786758
 20
-82.610733
 30
0.0
 11
208.786758
 21
-82.610733
 31
0.0
  0
LINE
  5
106
100
AcDbEntity
  8
LY_3
  6
CONTINUOUS
 62
       251
100
AcDbLine
 10
49.413846
 20
-162.610737
 30
0.0
 11
51.486808
 21
-159.160748
 31
0.0
  0
LINE
  5
107
100
AcDbEntity
  8
LY_3
  6
CONTINUOUS
 62
       251
100
AcDbLine
 10
99.286758
 20
-147.610733
 30
0.0
 11
99.286758
 21
-92.610733
 31
0.0
  0
LINE
  5
108
100
AcDbEntity
  8
LY_3
  6
CONTINUOUS
 62
       251
100
AcDbLine
 10
73.786758
 20
-176.110733
 30
0.0
 11
92.286758
 21
-176.110733
 31
0.0
  0
LINE
  5
109
100
AcDbEntity
  8
LY_3
  6
CONTINUOUS
 62
       251
100
AcDbLine
 10
92.286758
 20
-176.110733
 30
0.0
 11
92.286758
 21
-147.610733
 31
0.0
  0
LINE
  5
10A
100
AcDbEntity
  8
LY_3
  6
CONTINUOUS
 62
       251
100
AcDbLine
 10
73.786758
 20
-176.110733
 30
0.0
 11
73.786758
 21
-166.610703
 31
0.0
  0
LINE
  5
10B
100
AcDbEntity
  8
LY_3
  6
CONTINUOUS
 62
       251
100
AcDbLine
 10
64.686783
 20
-141.110733
 30
0.0
 11
83.286758
 21
-141.110733
 31
0.0
  0
LINE
  5
10C
100
AcDbEntity
  8
LY_3
  6
CONTINUOUS
 62
       251
100
AcDbLine
 10
57.786758
 20
-158.610703
 30
0.0
 11
57.786758
 21
-166.610703
 31
0.0
  0
LINE
  5
10D
100
AcDbEntity
  8
LY_3
  6
CONTINUOUS
 62
         7
100
AcDbLine
 10
81.286758
 20
-166.060715
 30
0.0
 11
57.786758
 21
-166.060715
 31
0.0
  0
LINE
  5
10E
100
AcDbEntity
  8
LY_3
  6
CONTINUOUS
 62
       251
100
AcDbLine
 10
81.286758
 20
-166.610703
 30
0.0
 11
57.786758
 21
-166.610703
 31
0.0
  0
LINE
  5
10F
100
AcDbEntity
  8
LY_3
  6
CONTINUOUS
 62
       251
100
AcDbLine
 10
81.286758
 20
-158.610703
 30
0.0
 11
57.786758
 21
-158.610703
 31
0.0
  0
LINE
  5
110
100
AcDbEntity
  8
LY_3
  6
CONTINUOUS
 62
       251
100
AcDbLine
 10
51.486771
 20
-159.160721
 30
0.0
 11
51.486771
 21
-166.060715
 31
0.0
  0
LINE
  5
111
100
AcDbEntity
  8
LY_3
  6
CONTINUOUS
 62
         7
100
AcDbLine
 10
81.286758
 20
-159.160721
 30
0.0
 11
57.786758
 21
-159.160721
 31
0.0
  0
LINE
  5
112
100
AcDbEntity
  8
LY_3
  6
CONTINUOUS
 62
       251
100
AcDbLine
 10
83.286758
 20
-122.610733
 30
0.0
 11
99.286758
 21
-122.610733
 31
0.0
  0
LINE
  5
113
100
AcDbEntity
  8
LY_3
  6
CONTINUOUS
 62
       251
100
AcDbLine
 10
83.286758
 20
-141.110733
 30
0.0
 11
83.286758
 21
-92.610733
 31
0.0
  0
LINE
  5
114
100
AcDbEntity
  8
LY_3
  6
CONTINUOUS
 62
       251
100
AcDbLine
 10
164.086746
 20
-147.610733
 30
0.0
 11
164.086746
 21
-153.585678
 31
0.0
  0
LINE
  5
115
100
AcDbEntity
  8
LY_3
  6
CONTINUOUS
 62
       251
100
AcDbLine
 10
152.786758
 20
-92.610733
 30
0.0
 11
152.786758
 21
-153.585678
 31
0.0
  0
LINE
  5
116
100
AcDbEntity
  8
LY_3
  6
DASHED
 62
         7
100
AcDbLine
 10
154.786758
 20
-162.685715
 30
0.0
 11
162.086746
 21
-162.685715
 31
0.0
  0
LINE
  5
117
100
AcDbEntity
  8
LY_3
  6
CONTINUOUS
 62
       251
100
AcDbLine
 10
99.286758
 20
-101.610733
 30
0.0
 11
141.286758
 21
-101.610733
 31
0.0
  0
LINE
  5
118
100
AcDbEntity
  8
LY_3
  6
CONTINUOUS
 62
       251
100
AcDbLine
 10
92.286758
 20
-147.610733
 30
0.0
 11
129.986759
 21
-147.610733
 31
0.0
  0
LINE
  5
119
100
AcDbEntity
  8
LY_3
  6
CONTINUOUS
 62
       251
100
AcDbLine
 10
118.086777
 20
-148.610733
 30
0.0
 11
118.086777
 21
-147.610733
 31
0.0
  0
LINE
  5
11A
100
AcDbEntity
  8
LY_3
  6
DASHED
 62
         7
100
AcDbLine
 10
139.286763
 20
-162.685657
 30
0.0
 11
141.286768
 21
-160.685615
 31
0.0
  0
LINE
  5
11B
100
AcDbEntity
  8
LY_3
  6
DASHED
 62
         7
100
AcDbLine
 10
129.986768
 20
-160.685686
 30
0.0
 11
131.986769
 21
-162.685689
 31
0.0
  0
LINE
  5
11C
100
AcDbEntity
  8
LY_3
  6
DASHED
 62
         7
100
AcDbLine
 10
129.986759
 20
-160.685715
 30
0.0
 11
129.986759
 21
-153.585678
 31
0.0
  0
LINE
  5
11D
100
AcDbEntity
  8
LY_3
  6
DASHED
 62
         7
100
AcDbLine
 10
141.286758
 20
-160.685654
 30
0.0
 11
141.286758
 21
-153.585678
 31
0.0
  0
LINE
  5
11E
100
AcDbEntity
  8
LY_3
  6
DASHED
 62
         7
100
AcDbLine
 10
131.986759
 20
-162.685715
 30
0.0
 11
139.286758
 21
-162.685715
 31
0.0
  0
LINE
  5
11F
100
AcDbEntity
  8
LY_3
  6
CONTINUOUS
 62
       251
100
AcDbLine
 10
73.786758
 20
-158.610703
 30
0.0
 11
73.786758
 21
-155.110733
 31
0.0
  0
LINE
  5
120
100
AcDbEntity
  8
LY_3
  6
CONTINUOUS
 62
       251
100
AcDbLine
 10
57.786758
 20
-159.160721
 30
0.0
 11
51.486771
 21
-159.160721
 31
0.0
  0
LINE
  5
121
100
AcDbEntity
  8
LY_3
  6
CONTINUOUS
 62
       251
100
AcDbLine
 10
57.786758
 20
-166.060715
 30
0.0
 11
51.486771
 21
-166.060715
 31
0.0
  0
LINE
  5
122
100
AcDbEntity
  8
LY_3
  6
CONTINUOUS
 62
       251
100
AcDbLine
 10
81.286758
 20
-154.91069
 30
0.0
 11
83.286758
 21
-154.91069
 31
0.0
  0
LINE
  5
123
100
AcDbEntity
  8
LY_3
  6
CONTINUOUS
 62
       251
100
AcDbLine
 10
81.286758
 20
-170.310684
 30
0.0
 11
83.286758
 21
-170.310684
 31
0.0
  0
LINE
  5
124
100
AcDbEntity
  8
LY_3
  6
CONTINUOUS
 62
       251
100
AcDbLine
 10
91.286758
 20
-156.110703
 30
0.0
 11
83.286758
 21
-156.110703
 31
0.0
  0
LINE
  5
125
100
AcDbEntity
  8
LY_3
  6
CONTINUOUS
 62
       251
100
AcDbLine
 10
83.286758
 20
-169.110703
 30
0.0
 11
91.286758
 21
-169.110703
 31
0.0
  0
LINE
  5
126
100
AcDbEntity
  8
LY_3
  6
CONTINUOUS
 62
       251
100
AcDbLine
 10
91.286758
 20
-169.110703
 30
0.0
 11
91.286758
 21
-156.110703
 31
0.0
  0
LINE
  5
127
100
AcDbEntity
  8
LY_3
  6
CONTINUOUS
 62
       251
100
AcDbLine
 10
83.286758
 20
-170.310684
 30
0.0
 11
83.286758
 21
-154.91069
 31
0.0
  0
LINE
  5
128
100
AcDbEntity
  8
LY_3
  6
CONTINUOUS
 62
       251
100
AcDbLine
 10
51.486808
 20
-166.060703
 30
0.0
 11
49.41383
 21
-162.610689
 31
0.0
  0
LINE
  5
129
100
AcDbEntity
  8
LY_3
  6
CONTINUOUS
 62
       251
100
AcDbLine
 10
81.286758
 20
-171.110703
 30
0.0
 11
81.286758
 21
-154.110703
 31
0.0
  0
LINE
  5
12A
100
AcDbEntity
  8
LY_3
  6
CONTINUOUS
 62
       251
100
AcDbLine
 10
92.286758
 20
-154.110703
 30
0.0
 11
81.286758
 21
-154.110703
 31
0.0
  0
LINE
  5
12B
100
AcDbEntity
  8
LY_3
  6
CONTINUOUS
 62
       251
100
AcDbLine
 10
92.286758
 20
-171.110703
 30
0.0
 11
81.286758
 21
-171.110703
 31
0.0
  0
LINE
  5
12C
100
AcDbEntity
  8
LY_3
  6
DASHED
 62
         7
100
AcDbLine
 10
162.086761
 20
-162.685626
 30
0.0
 11
164.086762
 21
-160.685623
 31
0.0
  0
LINE
  5
12D
100
AcDbEntity
  8
LY_3
  6
DASHED
 62
         7
100
AcDbLine
 10
152.78674
 20
-160.685618
 30
0.0
 11
154.786745
 21
-162.68566
 31
0.0
  0
LINE
  5
12E
100
AcDbEntity
  8
LY_3
  6
CONTINUOUS
 62
       251
100
AcDbLine
 10
164.086746
 20
-147.610733
 30
0.0
 11
208.786758
 21
-147.610733
 31
0.0
  0
LINE
  5
12F
100
AcDbEntity
  8
LY_3
  6
PHANTOM
 62
         7
100
AcDbLine
 10
152.786758
 20
-130.110733
 30
0.0
 11
208.786758
 21
-130.110733
 31
0.0
  0
LINE
  5
130
100
AcDbEntity
  8
LY_3
  6
CONTINUOUS
 62
       251
100
AcDbLine
 10
208.786758
 20
-147.610733
 30
0.0
 11
208.786758
 21
-92.610733
 31
0.0
  0
LINE
  5
131
100
AcDbEntity
  8
LY_3
  6
CONTINUOUS
 62
       251
100
AcDbLine
 10
101.086839
 20
-176.110733
 30
0.0
 11
193.086762
 21
-176.110733
 31
0.0
  0
LINE
  5
132
100
AcDbEntity
  8
LY_3
  6
CONTINUOUS
 62
       251
100
AcDbLine
 10
118.086777
 20
-171.110733
 30
0.0
 11
118.086777
 21
-148.610733
 31
0.0
  0
LINE
  5
133
100
AcDbEntity
  8
LY_3
  6
CONTINUOUS
 62
       251
100
AcDbLine
 10
94.086777
 20
-169.110683
 30
0.0
 11
94.086777
 21
-147.688217
 31
0.0
  0
LINE
  5
134
100
AcDbEntity
  8
LY_3
  6
CONTINUOUS
 62
       251
100
AcDbLine
 10
200.086777
 20
-169.110679
 30
0.0
 11
200.086777
 21
-147.610733
 31
0.0
  0
LINE
  5
135
100
AcDbEntity
  8
LY_3
  6
CONTINUOUS
 62
       251
100
AcDbLine
 10
94.086777
 20
-169.110683
 30
0.0
 11
101.086839
 21
-176.110733
 31
0.0
  0
LINE
  5
136
100
AcDbEntity
  8
LY_3
  6
CONTINUOUS
 62
       251
100
AcDbLine
 10
193.086762
 20
-176.110733
 30
0.0
 11
200.086777
 21
-169.110679
 31
0.0
  0
LINE
  5
137
100
AcDbEntity
  8
LY_3
  6
DASHED
 62
         7
100
AcDbLine
 10
179.086777
 20
-176.110733
 30
0.0
 11
179.086777
 21
-165.610733
 31
0.0
  0
LINE
  5
138
100
AcDbEntity
  8
LY_3
  6
DASHED
 62
         7
100
AcDbLine
 10
197.086777
 20
-172.110703
 30
0.0
 11
197.086777
 21
-165.610733
 31
0.0
  0
LINE
  5
139
100
AcDbEntity
  8
LY_3
  6
DASHED
 62
         7
100
AcDbLine
 10
114.98674
 20
-165.610733
 30
0.0
 11
114.98674
 21
-175.50975
 31
0.0
  0
LINE
  5
13A
100
AcDbEntity
  8
LY_3
  6
DASHED
 62
         7
100
AcDbLine
 10
96.98674
 20
-165.610733
 30
0.0
 11
96.98674
 21
-172.110703
 31
0.0
  0
LINE
  5
13B
100
AcDbEntity
  8
LY_3
  6
CONTINUOUS
 62
       251
100
AcDbLine
 10
118.086777
 20
-171.110733
 30
0.0
 11
176.086777
 21
-171.110733
 31
0.0
  0
LINE
  5
13C
100
AcDbEntity
  8
LY_3
  6
CONTINUOUS
 62
       251
100
AcDbLine
 10
184.586777
 20
-154.132493
 30
0.0
 11
184.586777
 21
-147.610733
 31
0.0
  0
LINE
  5
13D
100
AcDbEntity
  8
LY_3
  6
CONTINUOUS
 62
       251
100
AcDbLine
 10
176.086777
 20
-171.110733
 30
0.0
 11
176.086777
 21
-165.610733
 31
0.0
  0
LINE
  5
13E
100
AcDbEntity
  8
LY_3
  6
CONTINUOUS
 62
       251
100
AcDbLine
 10
164.786758
 20
-168.590683
 30
0.0
 11
164.786758
 21
-150.490677
 31
0.0
  0
LINE
  5
13F
100
AcDbEntity
  8
LY_3
  6
CONTINUOUS
 62
       251
100
AcDbLine
 10
167.436783
 20
-168.590683
 30
0.0
 11
167.436783
 21
-150.490677
 31
0.0
  0
LINE
  5
140
100
AcDbEntity
  8
LY_3
  6
CONTINUOUS
 62
       251
100
AcDbLine
 10
169.836777
 20
-167.340683
 30
0.0
 11
169.836777
 21
-151.740707
 31
0.0
  0
LINE
  5
141
100
AcDbEntity
  8
LY_3
  6
CONTINUOUS
 62
       251
100
AcDbLine
 10
164.786758
 20
-168.590683
 30
0.0
 11
167.436783
 21
-168.590683
 31
0.0
  0
LINE
  5
142
100
AcDbEntity
  8
LY_3
  6
CONTINUOUS
 62
       251
100
AcDbLine
 10
164.786758
 20
-150.490677
 30
0.0
 11
167.436783
 21
-150.490677
 31
0.0
  0
LINE
  5
143
100
AcDbEntity
  8
LY_3
  6
CONTINUOUS
 62
       251
100
AcDbLine
 10
167.436783
 20
-151.740707
 30
0.0
 11
169.836777
 21
-151.740707
 31
0.0
  0
LINE
  5
144
100
AcDbEntity
  8
LY_3
  6
CONTINUOUS
 62
       251
100
AcDbLine
 10
167.436783
 20
-167.340683
 30
0.0
 11
169.836777
 21
-167.340683
 31
0.0
  0
LINE
  5
145
100
AcDbEntity
  8
LY_3
  6
CONTINUOUS
 62
       251
100
AcDbLine
 10
173.786789
 20
-162.520676
 30
0.0
 11
169.836777
 21
-162.520676
 31
0.0
  0
LINE
  5
146
100
AcDbEntity
  8
LY_3
  6
CONTINUOUS
 62
       251
100
AcDbLine
 10
173.786789
 20
-156.560684
 30
0.0
 11
169.836777
 21
-156.560684
 31
0.0
  0
LINE
  5
147
100
AcDbEntity
  8
LY_3
  6
CONTINUOUS
 62
       251
100
AcDbLine
 10
173.786789
 20
-162.520676
 30
0.0
 11
173.786789
 21
-156.560684
 31
0.0
  0
LINE
  5
148
100
AcDbEntity
  8
LY_3
  6
CONTINUOUS
 62
       251
100
AcDbLine
 10
152.086777
 20
-165.495682
 30
0.0
 11
164.786758
 21
-165.495682
 31
0.0
  0
LINE
  5
149
100
AcDbEntity
  8
LY_3
  6
CONTINUOUS
 62
       251
100
AcDbLine
 10
152.086777
 20
-153.585678
 30
0.0
 11
164.786758
 21
-153.585678
 31
0.0
  0
LINE
  5
14A
100
AcDbEntity
  8
LY_3
  6
CONTINUOUS
 62
       251
100
AcDbLine
 10
152.086746
 20
-150.490677
 30
0.0
 11
152.086746
 21
-168.590683
 31
0.0
  0
LINE
  5
14B
100
AcDbEntity
  8
LY_3
  6
CONTINUOUS
 62
       251
100
AcDbLine
 10
149.436752
 20
-150.490677
 30
0.0
 11
149.436752
 21
-168.590683
 31
0.0
  0
LINE
  5
14C
100
AcDbEntity
  8
LY_3
  6
CONTINUOUS
 62
       251
100
AcDbLine
 10
147.036758
 20
-151.740707
 30
0.0
 11
147.036758
 21
-167.340683
 31
0.0
  0
LINE
  5
14D
100
AcDbEntity
  8
LY_3
  6
CONTINUOUS
 62
       251
100
AcDbLine
 10
149.436752
 20
-168.590683
 30
0.0
 11
152.086746
 21
-168.590683
 31
0.0
  0
LINE
  5
14E
100
AcDbEntity
  8
LY_3
  6
CONTINUOUS
 62
       251
100
AcDbLine
 10
149.436752
 20
-150.490677
 30
0.0
 11
152.086746
 21
-150.490677
 31
0.0
  0
LINE
  5
14F
100
AcDbEntity
  8
LY_3
  6
CONTINUOUS
 62
       251
100
AcDbLine
 10
129.286713
 20
-150.490677
 30
0.0
 11
129.286713
 21
-168.590683
 31
0.0
  0
LINE
  5
150
100
AcDbEntity
  8
LY_3
  6
CONTINUOUS
 62
       251
100
AcDbLine
 10
126.636703
 20
-150.490677
 30
0.0
 11
126.636703
 21
-168.590683
 31
0.0
  0
LINE
  5
151
100
AcDbEntity
  8
LY_3
  6
CONTINUOUS
 62
       251
100
AcDbLine
 10
124.23671
 20
-151.740707
 30
0.0
 11
124.23671
 21
-167.340683
 31
0.0
  0
LINE
  5
152
100
AcDbEntity
  8
LY_3
  6
CONTINUOUS
 62
       251
100
AcDbLine
 10
126.636703
 20
-168.590683
 30
0.0
 11
129.286713
 21
-168.590683
 31
0.0
  0
LINE
  5
153
100
AcDbEntity
  8
LY_3
  6
CONTINUOUS
 62
       251
100
AcDbLine
 10
126.636703
 20
-150.490677
 30
0.0
 11
129.286713
 21
-150.490677
 31
0.0
  0
LINE
  5
154
100
AcDbEntity
  8
LY_3
  6
CONTINUOUS
 62
       251
100
AcDbLine
 10
124.23671
 20
-151.740707
 30
0.0
 11
126.636703
 21
-151.740707
 31
0.0
  0
LINE
  5
155
100
AcDbEntity
  8
LY_3
  6
CONTINUOUS
 62
       251
100
AcDbLine
 10
124.23671
 20
-167.340683
 30
0.0
 11
126.636703
 21
-167.340683
 31
0.0
  0
LINE
  5
156
100
AcDbEntity
  8
LY_3
  6
CONTINUOUS
 62
       251
100
AcDbLine
 10
129.286713
 20
-165.495682
 30
0.0
 11
141.98671
 21
-165.495682
 31
0.0
  0
LINE
  5
157
100
AcDbEntity
  8
LY_3
  6
CONTINUOUS
 62
       251
100
AcDbLine
 10
129.286713
 20
-153.585678
 30
0.0
 11
141.98671
 21
-153.585678
 31
0.0
  0
LINE
  5
158
100
AcDbEntity
  8
LY_3
  6
CONTINUOUS
 62
       251
100
AcDbLine
 10
141.98671
 20
-168.590683
 30
0.0
 11
141.98671
 21
-150.490677
 31
0.0
  0
LINE
  5
159
100
AcDbEntity
  8
LY_3
  6
CONTINUOUS
 62
       251
100
AcDbLine
 10
144.636765
 20
-150.490677
 30
0.0
 11
144.636765
 21
-168.590683
 31
0.0
  0
LINE
  5
15A
100
AcDbEntity
  8
LY_3
  6
CONTINUOUS
 62
       251
100
AcDbLine
 10
141.98671
 20
-168.590683
 30
0.0
 11
144.636765
 21
-168.590683
 31
0.0
  0
LINE
  5
15B
100
AcDbEntity
  8
LY_3
  6
CONTINUOUS
 62
       251
100
AcDbLine
 10
141.98671
 20
-150.490677
 30
0.0
 11
144.636765
 21
-150.490677
 31
0.0
  0
LINE
  5
15C
100
AcDbEntity
  8
LY_3
  6
CONTINUOUS
 62
       251
100
AcDbLine
 10
144.636734
 20
-151.740707
 30
0.0
 11
149.436752
 21
-151.740707
 31
0.0
  0
LINE
  5
15D
100
AcDbEntity
  8
LY_3
  6
CONTINUOUS
 62
       251
100
AcDbLine
 10
144.636734
 20
-167.340683
 30
0.0
 11
149.436752
 21
-167.340683
 31
0.0
  0
LINE
  5
15E
100
AcDbEntity
  8
LY_3
  6
CONTINUOUS
 62
       251
100
AcDbLine
 10
122.786697
 20
-162.520676
 30
0.0
 11
122.786697
 21
-156.560684
 31
0.0
  0
LINE
  5
15F
100
AcDbEntity
  8
LY_3
  6
CONTINUOUS
 62
       251
100
AcDbLine
 10
122.786697
 20
-156.560684
 30
0.0
 11
124.23671
 21
-156.560684
 31
0.0
  0
LINE
  5
160
100
AcDbEntity
  8
LY_3
  6
CONTINUOUS
 62
       251
100
AcDbLine
 10
122.786697
 20
-162.520676
 30
0.0
 11
124.23671
 21
-162.520676
 31
0.0
  0
LINE
  5
161
100
AcDbEntity
  8
LY_3
  6
CONTINUOUS
 62
       251
100
AcDbLine
 10
129.986759
 20
-153.585678
 30
0.0
 11
129.986759
 21
-147.610733
 31
0.0
  0
LINE
  5
162
100
AcDbEntity
  8
LY_3
  6
CONTINUOUS
 62
       251
100
AcDbLine
 10
141.286758
 20
-153.585678
 30
0.0
 11
141.286758
 21
-92.610733
 31
0.0
  0
LINE
  5
163
100
AcDbEntity
  8
LY_3
  6
DASHED
 62
         7
100
AcDbLine
 10
152.786758
 20
-153.585678
 30
0.0
 11
152.786758
 21
-160.685654
 31
0.0
  0
LINE
  5
164
100
AcDbEntity
  8
LY_3
  6
DASHED
 62
         7
100
AcDbLine
 10
164.086746
 20
-153.585678
 30
0.0
 11
164.086746
 21
-160.685715
 31
0.0
  0
LINE
  5
165
100
AcDbEntity
  8
LY_3
  6
CONTINUOUS
 62
       251
100
AcDbLine
 10
190.636765
 20
-149.360733
 30
0.0
 11
190.636765
 21
-147.610733
 31
0.0
  0
LINE
  5
166
100
AcDbEntity
  8
LY_3
  6
CONTINUOUS
 62
       251
100
AcDbLine
 10
196.086746
 20
-149.360733
 30
0.0
 11
196.086746
 21
-147.610733
 31
0.0
  0
LINE
  5
167
100
AcDbEntity
  8
LY_3
  6
CONTINUOUS
 62
       251
100
AcDbLine
 10
191.111771
 20
-154.110733
 30
0.0
 11
195.61174
 21
-154.110733
 31
0.0
  0
LINE
  5
168
100
AcDbEntity
  8
LY_3
  6
CONTINUOUS
 62
       251
100
AcDbLine
 10
191.111765
 20
-154.110685
 30
0.0
 11
190.636768
 21
-149.360694
 31
0.0
  0
LINE
  5
169
100
AcDbEntity
  8
LY_3
  6
CONTINUOUS
 62
       251
100
AcDbLine
 10
196.086728
 20
-149.360705
 30
0.0
 11
195.611723
 21
-154.110695
 31
0.0
  0
LINE
  5
16A
100
AcDbEntity
  8
LY_3
  6
CONTINUOUS
 62
       251
100
AcDbLine
 10
184.586777
 20
-149.360733
 30
0.0
 11
190.636765
 21
-149.360733
 31
0.0
  0
LINE
  5
16B
100
AcDbEntity
  8
LY_3
  6
CONTINUOUS
 62
       251
100
AcDbLine
 10
196.086746
 20
-149.360733
 30
0.0
 11
200.086777
 21
-149.360733
 31
0.0
  0
LINE
  5
16C
100
AcDbEntity
  8
LY_3
  6
PHANTOM
 62
         7
100
AcDbLine
 10
152.786758
 20
-102.610733
 30
0.0
 11
208.786758
 21
-102.610733
 31
0.0
  0
ARC
  5
16D
100
AcDbEntity
  8
LY_3
  6
CONTINUOUS
 62
       251
100
AcDbCircle
 10
-158.264847
 20
-92.610733
 30
0.0
 40
29.999954
100
AcDbArc
 50
107.457563
 51
72.542384
  0
CIRCLE
  5
16E
100
AcDbEntity
  8
LY_3
  6
CONTINUOUS
 62
       251
100
AcDbCircle
 10
-158.264847
 20
-92.610733
 30
0.0
 40
39.999954
  0
CIRCLE
  5
16F
100
AcDbEntity
  8
LY_3
  6
CONTINUOUS
 62
       251
100
AcDbCircle
 10
-158.264847
 20
-92.610733
 30
0.0
 40
62.499954
  0
CIRCLE
  5
170
100
AcDbEntity
  8
LY_3
  6
CONTINUOUS
 62
       251
100
AcDbCircle
 10
-158.264847
 20
-92.610733
 30
0.0
 40
77.499954
  0
ARC
  5
171
100
AcDbEntity
  8
LY_3
  6
CENTER
 62
         7
100
AcDbCircle
 10
-158.264847
 20
-92.610733
 30
0.0
 40
69.999954
100
AcDbArc
 50
36.425235
 51
54.654023
  0
ARC
  5
172
100
AcDbEntity
  8
LY_3
  6
CENTER
 62
         7
100
AcDbCircle
 10
-158.264847
 20
-92.610733
 30
0.0
 40
69.999954
100
AcDbArc
 50
81.425253
 51
99.654045
  0
ARC
  5
173
100
AcDbEntity
  8
LY_3
  6
CENTER
 62
         7
100
AcDbCircle
 10
-158.264847
 20
-92.610733
 30
0.0
 40
69.999954
100
AcDbArc
 50
126.425217
 51
144.654008
  0
ARC
  5
174
100
AcDbEntity
  8
LY_3
  6
CENTER
 62
         7
100
AcDbCircle
 10
-158.264847
 20
-92.610733
 30
0.0
 40
69.999954
100
AcDbArc
 50
171.425181
 51
189.653972
  0
ARC
  5
175
100
AcDbEntity
  8
LY_3
  6
CENTER
 62
         7
100
AcDbCircle
 10
-158.264847
 20
-92.610733
 30
0.0
 40
69.999954
100
AcDbArc
 50
216.425216
 51
234.654008
  0
ARC
  5
176
100
AcDbEntity
  8
LY_3
  6
CENTER
 62
         7
100
AcDbCircle
 10
-158.264847
 20
-92.610733
 30
0.0
 40
69.999954
100
AcDbArc
 50
261.425235
 51
279.654026
  0
ARC
  5
177
100
AcDbEntity
  8
LY_3
  6
CENTER
 62
         7
100
AcDbCircle
 10
-158.264847
 20
-92.610733
 30
0.0
 40
69.999954
100
AcDbArc
 50
306.425236
 51
324.654027
  0
ARC
  5
178
100
AcDbEntity
  8
LY_3
  6
CENTER
 62
         7
100
AcDbCircle
 10
-158.264847
 20
-92.610733
 30
0.0
 40
69.999954
100
AcDbArc
 50
351.425237
 51
9.654025
  0
CIRCLE
  5
179
100
AcDbEntity
  8
LY_3
  6
CONTINUOUS
 62
       251
100
AcDbCircle
 10
51.336807
 20
-41.360748
 30
0.0
 40
6.746999
  0
CIRCLE
  5
17A
100
AcDbEntity
  8
LY_3
  6
CONTINUOUS
 62
       251
100
AcDbCircle
 10
51.336807
 20
-143.860718
 30
0.0
 40
6.746999
  0
CIRCLE
  5
17B
100
AcDbEntity
  8
LY_3
  6
CONTINUOUS
 62
       251
100
AcDbCircle
 10
-3.763016
 20
-41.360748
 30
0.0
 40
6.746999
  0
CIRCLE
  5
17C
100
AcDbEntity
  8
LY_3
  6
CONTINUOUS
 62
       251
100
AcDbCircle
 10
-3.763016
 20
-143.860718
 30
0.0
 40
6.746999
  0
CIRCLE
  5
17D
100
AcDbEntity
  8
LY_3
  6
CONTINUOUS
 62
       251
100
AcDbCircle
 10
9.501755
 20
-42.124359
 30
0.0
 40
1.199999
  0
CIRCLE
  5
17E
100
AcDbEntity
  8
LY_3
  6
CONTINUOUS
 62
       251
100
AcDbCircle
 10
38.071777
 20
-42.124359
 30
0.0
 40
1.199999
  0
CIRCLE
  5
17F
100
AcDbEntity
  8
LY_3
  6
CONTINUOUS
 62
       251
100
AcDbCircle
 10
38.071777
 20
-143.097061
 30
0.0
 40
1.199999
  0
CIRCLE
  5
180
100
AcDbEntity
  8
LY_3
  6
CONTINUOUS
 62
       251
100
AcDbCircle
 10
9.501755
 20
-143.097061
 30
0.0
 40
1.199999
  0
ARC
  5
181
100
AcDbEntity
  8
LY_3
  6
DASHED
 62
         7
100
AcDbCircle
 10
188.086777
 20
-19.610733
 30
0.0
 40
9.0
100
AcDbArc
 50
180.000091
 51
0.0
  0
ARC
  5
182
100
AcDbEntity
  8
LY_3
  6
DASHED
 62
         7
100
AcDbCircle
 10
105.98674
 20
-19.610733
 30
0.0
 40
9.0
100
AcDbArc
 50
180.000091
 51
359.999964
  0
CIRCLE
  5
183
100
AcDbEntity
  8
LY_3
  6
CONTINUOUS
 62
       251
100
AcDbCircle
 10
188.086777
 20
-19.610733
 30
0.0
 40
4.5
  0
CIRCLE
  5
184
100
AcDbEntity
  8
LY_3
  6
CONTINUOUS
 62
       251
100
AcDbCircle
 10
105.98674
 20
-19.610733
 30
0.0
 40
4.5
  0
ARC
  5
185
100
AcDbEntity
  8
LY_3
  6
CONTINUOUS
 62
       251
100
AcDbCircle
 10
188.086777
 20
-19.610733
 30
0.0
 40
12.0
100
AcDbArc
 50
180.000036
 51
253.042237
  0
ARC
  5
186
100
AcDbEntity
  8
LY_3
  6
DASHED
 62
         7
100
AcDbCircle
 10
188.086777
 20
-165.610733
 30
0.0
 40
9.0
100
AcDbArc
 50
0.0
 51
179.999909
  0
ARC
  5
187
100
AcDbEntity
  8
LY_3
  6
DASHED
 62
         7
100
AcDbCircle
 10
105.98674
 20
-165.610733
 30
0.0
 40
9.0
100
AcDbArc
 50
0.000036
 51
179.999909
  0
CIRCLE
  5
188
100
AcDbEntity
  8
LY_3
  6
CONTINUOUS
 62
       251
100
AcDbCircle
 10
188.086777
 20
-165.610733
 30
0.0
 40
4.5
  0
CIRCLE
  5
189
100
AcDbEntity
  8
LY_3
  6
CONTINUOUS
 62
       251
100
AcDbCircle
 10
105.98674
 20
-165.610733
 30
0.0
 40
4.5
  0
ARC
  5
18A
100
AcDbEntity
  8
LY_3
  6
CONTINUOUS
 62
       251
100
AcDbCircle
 10
188.086777
 20
-165.610733
 30
0.0
 40
12.0
100
AcDbArc
 50
106.957763
 51
179.999964
  0
MTEXT
  5
18B
100
AcDbEntity
  8
LY_3
  6
CONTINUOUS
 62
         7
100
AcDbMText
 10
-57.7842080355
 20
68.667357702
 30
0.0
 40
15.0
 41
0.0
 71
         1
 72
         1
  1
\W1.029;\A1;MZ60-C
  0
MTEXT
  5
18C
100
AcDbEntity
  8
LY_3
  6
CONTINUOUS
 62
         7
100
AcDbMText
 10
-68.2430559669
 20
92.6673580596
 30
0.0
 40
13.0
 41
0.0
 71
         1
 72
         1
  1
\W1.042;\A1;CAM CLUTCH
  0
ENDSEC
  0
SECTION
  2
OBJECTS
  0
DICTIONARY
  5
19
100
AcDbDictionary
  3
ACAD_GROUP
350
1A
  3
ACAD_MLINESTYLE
350
1B
  0
DICTIONARY
  5
1A
102
{ACAD_REACTORS
330
19
102
}
100
AcDbDictionary
  0
DICTIONARY
  5
1B
102
{ACAD_REACTORS
330
19
102
}
100
AcDbDictionary
  3
STANDARD
350
1C
  0
MLINESTYLE
  5
1C
102
{ACAD_REACTORS
330
1B
102
}
100
AcDbMlineStyle
  2
Standard
 70
         0
  3

 62
         0
 51
90.0
 52
90.0
 71
         2
 49
0.5
 62
       256
  6
ByLayer
 49
-0.5
 62
       256
  6
ByLayer
  0
ENDSEC
  0
EOF
