  0
SECTION
  2
HEADER
  9
$ACADVER
  1
AC1014
  9
$ACADMAINTVER
 70
         0
  9
$DWGCODEPAGE
  3
ANSI_932
  9
$INSBASE
 10
0.0
 20
0.0
 30
0.0
  9
$EXTMIN
 10
-162.3362882137
 20
-233.0856933594
 30
0.0
  9
$EXTMAX
 10
135.42578125
 20
122.1256914138
 30
0.0
  9
$LIMMIN
 10
-162.3362882137
 20
-233.0856933594
  9
$LIMMAX
 10
135.42578125
 20
122.1256914138
  9
$ORTHOMODE
 70
         0
  9
$REGENMODE
 70
         1
  9
$FILLMODE
 70
         1
  9
$QTEXTMODE
 70
         0
  9
$MIRRTEXT
 70
         1
  9
$DRAGMODE
 70
         2
  9
$LTSCALE
 40
1.0
  9
$OSMODE
 70
         0
  9
$ATTMODE
 70
         1
  9
$TEXTSIZE
 40
3.2000000477
  9
$TRACEWID
 40
0.05
  9
$TEXTSTYLE
  7
MX_NOTE_STANDARD
  9
$CLAYER
  8
0
  9
$CELTYPE
  6
CONTINUOUS
  9
$CECOLOR
 62
       256
  9
$CELTSCALE
 40
1.0
  9
$DELOBJ
 70
         1
  9
$DISPSILH
 70
         0
  9
$DIMSCALE
 40
1.0
  9
$DIMASZ
 40
2.5
  9
$DIMEXO
 40
0.0
  9
$DIMDLI
 40
3.75
  9
$DIMRND
 40
0.0
  9
$DIMDLE
 40
0.0
  9
$DIMEXE
 40
2.5
  9
$DIMTP
 40
0.0
  9
$DIMTM
 40
0.0
  9
$DIMTXT
 40
3.2000000477
  9
$DIMCEN
 40
2.5
  9
$DIMTSZ
 40
0.0
  9
$DIMTOL
 70
         0
  9
$DIMLIM
 70
         0
  9
$DIMTIH
 70
         0
  9
$DIMTOH
 70
         0
  9
$DIMSE1
 70
         0
  9
$DIMSE2
 70
         0
  9
$DIMTAD
 70
         1
  9
$DIMZIN
 70
         8
  9
$DIMBLK
  1

  9
$DIMASO
 70
         1
  9
$DIMSHO
 70
         1
  9
$DIMPOST
  1

  9
$DIMAPOST
  1

  9
$DIMALT
 70
         0
  9
$DIMALTD
 70
         4
  9
$DIMALTF
 40
0.0393700787
  9
$DIMLFAC
 40
1.0
  9
$DIMTOFL
 70
         1
  9
$DIMTVP
 40
0.0
  9
$DIMTIX
 70
         0
  9
$DIMSOXD
 70
         0
  9
$DIMSAH
 70
         1
  9
$DIMBLK1
  1
_OPEN30
  9
$DIMBLK2
  1
_OPEN30
  9
$DIMSTYLE
  2
MXDIMSTYLE
  9
$DIMCLRD
 70
         0
  9
$DIMCLRE
 70
         0
  9
$DIMCLRT
 70
         0
  9
$DIMTFAC
 40
1.0
  9
$DIMGAP
 40
1.0
  9
$DIMJUST
 70
         0
  9
$DIMSD1
 70
         0
  9
$DIMSD2
 70
         0
  9
$DIMTOLJ
 70
         0
  9
$DIMTZIN
 70
         0
  9
$DIMALTZ
 70
         0
  9
$DIMALTTZ
 70
         0
  9
$DIMFIT
 70
         3
  9
$DIMUPT
 70
         0
  9
$DIMUNIT
 70
         2
  9
$DIMDEC
 70
         2
  9
$DIMTDEC
 70
         2
  9
$DIMALTU
 70
         2
  9
$DIMALTTD
 70
         4
  9
$DIMTXSTY
  7
MX_NOTE_STANDARD
  9
$DIMAUNIT
 70
         0
  9
$LUNITS
 70
         2
  9
$LUPREC
 70
         4
  9
$SKETCHINC
 40
0.1
  9
$FILLETRAD
 40
0.0
  9
$AUNITS
 70
         0
  9
$AUPREC
 70
         0
  9
$MENU
  1
acad
  9
$ELEVATION
 40
0.0
  9
$PELEVATION
 40
0.0
  9
$THICKNESS
 40
0.0
  9
$LIMCHECK
 70
         0
  9
$BLIPMODE
 70
         1
  9
$CHAMFERA
 40
0.0
  9
$CHAMFERB
 40
0.0
  9
$CHAMFERC
 40
0.0
  9
$CHAMFERD
 40
0.0
  9
$SKPOLY
 70
         0
  9
$TDCREATE
 40
2456603.419502315
  9
$TDUPDATE
 40
2456603.419502315
  9
$TDINDWG
 40
0.0000000000
  9
$TDUSRTIMER
 40
0.0000000000
  9
$USRTIMER
 70
         1
  9
$ANGBASE
 50
0.0
  9
$ANGDIR
 70
         0
  9
$PDMODE
 70
         0
  9
$PDSIZE
 40
0.0
  9
$PLINEWID
 40
0.0
  9
$COORDS
 70
         1
  9
$SPLFRAME
 70
         0
  9
$SPLINETYPE
 70
         6
  9
$SPLINESEGS
 70
         8
  9
$ATTDIA
 70
         0
  9
$ATTREQ
 70
         1
  9
$HANDLING
 70
         1
  9
$HANDSEED
  5
CD
  9
$SURFTAB1
 70
         6
  9
$SURFTAB2
 70
         6
  9
$SURFTYPE
 70
         6
  9
$SURFU
 70
         6
  9
$SURFV
 70
         6
  9
$UCSNAME
  2

  9
$UCSORG
 10
0.0
 20
0.0
 30
0.0
  9
$UCSXDIR
 10
1.0
 20
0.0
 30
0.0
  9
$UCSYDIR
 10
0.0
 20
1.0
 30
0.0
  9
$PUCSNAME
  2

  9
$PUCSORG
 10
0.0
 20
0.0
 30
0.0
  9
$PUCSXDIR
 10
1.0
 20
0.0
 30
0.0
  9
$PUCSYDIR
 10
0.0
 20
1.0
 30
0.0
  9
$USERI1
 70
         0
  9
$USERI2
 70
         0
  9
$USERI3
 70
         0
  9
$USERI4
 70
         0
  9
$USERI5
 70
         0
  9
$USERR1
 40
0.0
  9
$USERR2
 40
0.0
  9
$USERR3
 40
0.0
  9
$USERR4
 40
0.0
  9
$USERR5
 40
0.0
  9
$WORLDVIEW
 70
         1
  9
$SHADEDGE
 70
         3
  9
$SHADEDIF
 70
        70
  9
$TILEMODE
 70
         1
  9
$MAXACTVP
 70
        16
  9
$PINSBASE
 10
0.0
 20
0.0
 30
0.0
  9
$PLIMCHECK
 70
         0
  9
$PEXTMIN
 10
1.0000000000E+20
 20
1.0000000000E+20
 30
1.0000000000E+20
  9
$PEXTMAX
 10
-1.0000000000E+20
 20
-1.0000000000E+20
 30
-1.0000000000E+20
  9
$PLIMMIN
 10
0.0
 20
0.0
  9
$PLIMMAX
 10
12.0
 20
9.0
  9
$UNITMODE
 70
         0
  9
$VISRETAIN
 70
         0
  9
$PLINEGEN
 70
         1
  9
$PSLTSCALE
 70
         0
  9
$TREEDEPTH
 70
      3020
  9
$PICKSTYLE
 70
         1
  9
$CMLSTYLE
  2
Standard
  9
$CMLJUST
 70
         0
  9
$CMLSCALE
 40
1.0
  9
$PROXYGRAPHICS
 70
         0
  9
$MEASUREMENT
 70
         1
  0
ENDSEC
  0
SECTION
  2
CLASSES
  0
CLASS
  1
LWPOLYLINE
  2
AcDbPolyline
  3
"AutoCAD"
 90
        0
280
         0
281
         1
  0
CLASS
  1
IMAGE
  2
AcDbRasterImage
  3
ISM
 90
      127
280
         0
281
         1
  0
CLASS
  1
OLE2FRAME
  2
AcDbOle2Frame
  3
""
 90
        0
280
         0
281
         1
  0
CLASS
  1
HATCH
  2
AcDbHatch
  3
"ACAD_SEDONA"
 90
        0
280
         0
281
         1
  0
CLASS
  1
DICTIONARYVAR
  2
AcDbDictionaryVar
  3
"AutoCAD"
 90
        0
280
         0
281
         0
  0
CLASS
  1
RASTERVARIABLES
  2
AcDbRasterVariables
  3
ISM
 90
        0
280
         0
281
         0
  0
CLASS
  1
IMAGEDEF
  2
AcDbRasterImageDef
  3
ISM
 90
        0
280
         0
281
         0
  0
CLASS
  1
IMAGEDEF_REACTOR
  2
AcDbRasterImageDefReactor
  3
ISM
 90
        1
280
         0
281
         0
  0
CLASS
  1
IDBUFFER
  2
AcDbIdBuffer
  3
"Acad"
 90
        0
280
         0
281
         0
  0
CLASS
  1
SPATIAL_FILTER
  2
AcDbSpatialFilter
  3
"Acad"
 90
        0
280
         0
281
         0
  0
CLASS
  1
XRECORD
  2
AcDbXrecord
  3
"<Built In>"
 90
        0
280
         0
281
         0
  0
CLASS
  1
SORTENTSTABLE
  2
AcDbSortentsTable
  3
"AutoCAD"
 90
        0
280
         0
281
         0
  0
CLASS
  1
LAYER_INDEX
  2
AcDbLayerIndex
  3
"Acad"
 90
        0
280
         0
281
         0
  0
CLASS
  1
SPATIAL_INDEX
  2
AcDbSpatialIndex
  3
"Acad"
 90
        0
280
         0
281
         0
  0
CLASS
  1
OBJECT_PTR
  2
CAseDLPNTableRecord
  3
"ASE-LPNTableRecord"
 90
        1
280
         0
281
         0
  0
CLASS
  1
LAYOUT
  2
AcDbLayout
  3
"AutoCAD 2000"
 90
        0
280
         0
281
         0
  0
CLASS
  1
PLOTSETTINGS
  2
AcDbPlotSettings
  3
"AutoCAD 2000"
 90
        0
280
         0
281
         0
  0
CLASS
  1
ACDBDICTIONARYWDFLT
  2
AcDbDictionaryWithDefault
  3
"AutoCAD 2000"
 90
        0
280
         0
281
         0
  0
CLASS
  1
ACDBPLACEHOLDER
  2
AcDbPlaceHolder
  3
"AutoCAD 2000"
 90
        0
280
         0
281
         0
  0
ENDSEC
  0
SECTION
  2
TABLES
  0
TABLE
  2
VPORT
  5
7
100
AcDbSymbolTable
 70
         1
  0
VPORT
  5
15
100
AcDbSymbolTableRecord
100
AcDbViewportTableRecord
  2
*ACTIVE
 70
         0
 10
0.0
 20
0.0
 11
1.0
 21
1.0
 12
-13.4552534819
 22
-55.4800009728
 13
0.0
 23
0.0
 14
1.0
 24
1.0
 15
0.0
 25
0.0
 16
0.0
 26
0.0
 36
1.0
 17
0.0
 27
0.0
 37
0.0
 40
358.763498621
 41
1.7320508076
 42
50.0
 43
0.0
 44
0.0
 50
0.0
 51
0.0
 71
         0
 72
       100
 73
         1
 74
         1
 75
         0
 76
         0
 77
         0
 78
         0
  0
ENDTAB
  0
TABLE
  2
LTYPE
  5
4
100
AcDbSymbolTable
 70
         4
  0
LTYPE
  5
11
100
AcDbSymbolTableRecord
100
AcDbLinetypeTableRecord
  2
BYBLOCK
 70
        64
  3

 72
        65
 73
         0
 40
0.0
  0
LTYPE
  5
12
100
AcDbSymbolTableRecord
100
AcDbLinetypeTableRecord
  2
BYLAYER
 70
        64
  3

 72
        65
 73
         0
 40
0.0
  0
LTYPE
  5
13
100
AcDbSymbolTableRecord
100
AcDbLinetypeTableRecord
  2
CONTINUOUS
 70
        64
  3
Solid line
 72
        65
 73
         0
 40
0.0
  0
LTYPE
  5
51
100
AcDbSymbolTableRecord
100
AcDbLinetypeTableRecord
  2
CENTER
 70
        64
  3
Center ____ _ ____ _ ____ _ ____ _ ____ _ ____
 72
        65
 73
         4
 40
50.8
 49
31.75
 74
         0
 49
-6.35
 74
         0
 49
6.35
 74
         0
 49
-6.35
 74
         0
  0
ENDTAB
  0
TABLE
  2
LAYER
  5
2
100
AcDbSymbolTable
 70
         3
  0
LAYER
  5
14
100
AcDbSymbolTableRecord
100
AcDbLayerTableRecord
  2
0
 70
         0
 62
         7
  6
CONTINUOUS
  0
LAYER
  5
1D
100
AcDbSymbolTableRecord
100
AcDbLayerTableRecord
  2
DEFPOINTS
 70
         0
 62
         7
  6
CONTINUOUS
  0
LAYER
  5
1E
100
AcDbSymbolTableRecord
100
AcDbLayerTableRecord
  2
LY_3
 70
         0
 62
         7
  6
CONTINUOUS
  0
ENDTAB
  0
TABLE
  2
STYLE
  5
3
100
AcDbSymbolTable
 70
         1
  0
STYLE
  5
17
100
AcDbSymbolTableRecord
100
AcDbTextStyleTableRecord
  2
MX_NOTE_STANDARD
 70
         0
 40
0.0
 41
1.0
 50
0.0
 71
         0
 42
3.2000000477
  3
txt.shx
  4
extfont.shx
  0
ENDTAB
  0
TABLE
  2
VIEW
  5
5
100
AcDbSymbolTable
 70
         0
  0
ENDTAB
  0
TABLE
  2
UCS
  5
6
100
AcDbSymbolTable
 70
         0
  0
ENDTAB
  0
TABLE
  2
APPID
  5
8
100
AcDbSymbolTable
 70
         1
  0
APPID
  5
16
100
AcDbSymbolTableRecord
100
AcDbRegAppTableRecord
  2
ACAD
 70
         0
  0
ENDTAB
  0
TABLE
  2
DIMSTYLE
  5
9
100
AcDbSymbolTable
 70
         1
  0
DIMSTYLE
105
18
100
AcDbSymbolTableRecord
100
AcDbDimStyleTableRecord
  2
MXDIMSTYLE
 70
         0
  3

  4

  5

  6
_OPEN30
  7
_OPEN30
 40
1.0
 41
2.5
 42
0.0
 43
3.75
 44
2.5
 45
0.0
 46
0.0
 47
0.0
 48
0.0
 71
         0
 72
         0
 73
         0
 74
         0
 75
         0
 76
         0
 77
         1
 78
         8
140
3.2000000477
141
2.5
142
0.0
143
0.0393700787
144
1.0
145
0.0
146
1.0
147
1.0
170
         0
171
         4
172
         1
173
         1
174
         0
175
         0
176
         0
177
         0
178
         0
270
         2
271
         2
272
         2
273
         2
274
         4
275
         0
280
         0
281
         0
282
         0
283
         0
284
         0
285
         0
286
         0
287
         3
288
         0
340
17
  0
ENDTAB
  0
TABLE
  2
BLOCK_RECORD
  5
1
100
AcDbSymbolTable
 70
         1
  0
BLOCK_RECORD
  5
A
100
AcDbSymbolTableRecord
100
AcDbBlockTableRecord
  2
*MODEL_SPACE
  0
BLOCK_RECORD
  5
B
100
AcDbSymbolTableRecord
100
AcDbBlockTableRecord
  2
*PAPER_SPACE
  0
BLOCK_RECORD
  5
1F
100
AcDbSymbolTableRecord
100
AcDbBlockTableRecord
  2
_OPEN30
  0
ENDTAB
  0
ENDSEC
  0
SECTION
  2
BLOCKS
  0
BLOCK
  5
D
100
AcDbEntity
  8
0
100
AcDbBlockBegin
  2
*MODEL_SPACE
 70
         0
 10
0.0
 20
0.0
 30
0.0
  3
*MODEL_SPACE
  1

  0
ENDBLK
  5
E
100
AcDbEntity
  8
0
100
AcDbBlockEnd
  0
BLOCK
  5
F
100
AcDbEntity
 67
         1
  8
0
100
AcDbBlockBegin
  2
*PAPER_SPACE
 70
         0
 10
0.0
 20
0.0
 30
0.0
  3
*PAPER_SPACE
  1

  0
ENDBLK
  5
10
100
AcDbEntity
 67
         1
  8
0
100
AcDbBlockEnd
  0
BLOCK
  5
20
100
AcDbEntity
  8
0
  6
ByBlock
 62
         0
100
AcDbBlockBegin
  2
_OPEN30
 70
         2
 10
0.0
 20
0.0
 30
0.0
  3
_OPEN30
  1

  0
LINE
  5
21
100
AcDbEntity
  8
0
  6
ByBlock
 62
         0
100
AcDbLine
 10
-1.0
 20
0.267949
 30
0.0
 11
0.0
 21
0.0
 31
0.0
  0
LINE
  5
22
100
AcDbEntity
  8
0
  6
ByBlock
 62
         0
100
AcDbLine
 10
0.0
 20
0.0
 30
0.0
 11
-1.0
 21
-0.267949
 31
0.0
  0
LINE
  5
23
100
AcDbEntity
  8
0
  6
ByBlock
 62
         0
100
AcDbLine
 10
0.0
 20
0.0
 30
0.0
 11
-1.0
 21
0.0
 31
0.0
  0
ENDBLK
  5
24
100
AcDbEntity
  8
0
  6
ByBlock
 62
         0
100
AcDbBlockEnd
  0
ENDSEC
  0
SECTION
  2
ENTITIES
  0
MTEXT
  5
25
100
AcDbEntity
  8
0
  6
CONTINUOUS
 62
       110
100
AcDbMText
 10
-147.4464030812
 20
117.7423582077
 30
0.0
 40
13.1499996185
 41
0.0
 71
         1
 72
         1
  1
\W1.050;\A1;TSUBAKI
  0
POINT
  5
26
100
AcDbEntity
  8
LY_3
  6
CONTINUOUS
 62
       172
100
AcDbPoint
 10
-126.9329223633
 20
-63.0857391357
 30
0.0
  0
POINT
  5
27
100
AcDbEntity
  8
LY_3
  6
CONTINUOUS
 62
       172
100
AcDbPoint
 10
-34.9329528809
 20
-63.085723877
 30
0.0
  0
POINT
  5
28
100
AcDbEntity
  8
LY_3
  6
CONTINUOUS
 62
       172
100
AcDbPoint
 10
72.9257507324
 20
-63.085723877
 30
0.0
  0
POINT
  5
29
100
AcDbEntity
  8
LY_3
  6
CONTINUOUS
 62
       172
100
AcDbPoint
 10
-34.9329376221
 20
-213.085723877
 30
0.0
  0
POINT
  5
2A
100
AcDbEntity
  8
LY_3
  6
CONTINUOUS
 62
       172
100
AcDbPoint
 10
-126.9329071045
 20
-213.0857086182
 30
0.0
  0
POINT
  5
2B
100
AcDbEntity
  8
LY_3
  6
CONTINUOUS
 62
       172
100
AcDbPoint
 10
72.9257507324
 20
-213.085723877
 30
0.0
  0
LINE
  5
2C
100
AcDbEntity
  8
LY_3
  6
CONTINUOUS
 62
         3
100
AcDbLine
 10
-34.9329376221
 20
-33.0857391357
 30
0.0
 11
-34.9329376221
 21
-40.5857391357
 31
0.0
  0
LINE
  5
2D
100
AcDbEntity
  8
LY_3
  6
CONTINUOUS
 62
         3
100
AcDbLine
 10
-126.9329223633
 20
-33.0857391357
 30
0.0
 11
-126.9329223633
 21
-40.5857391357
 31
0.0
  0
LINE
  5
2E
100
AcDbEntity
  8
LY_3
  6
CONTINUOUS
 62
         3
100
AcDbLine
 10
-126.9329223633
 20
-33.0857391357
 30
0.0
 11
-97.4879302979
 21
-33.0857391357
 31
0.0
  0
LINE
  5
2F
100
AcDbEntity
  8
LY_3
  6
CONTINUOUS
 62
         3
100
AcDbLine
 10
-126.9329223633
 20
-93.0857391357
 30
0.0
 11
-97.4879302979
 21
-93.0857391357
 31
0.0
  0
LINE
  5
30
100
AcDbEntity
  8
LY_3
  6
CONTINUOUS
 62
         3
100
AcDbLine
 10
-97.4879302979
 20
-27.5867462158
 30
0.0
 11
-64.3879394531
 21
-27.5867462158
 31
0.0
  0
LINE
  5
31
100
AcDbEntity
  8
LY_3
  6
CONTINUOUS
 62
         3
100
AcDbLine
 10
-97.4879302979
 20
-98.5847320557
 30
0.0
 11
-64.3879394531
 21
-98.5847320557
 31
0.0
  0
LINE
  5
32
100
AcDbEntity
  8
LY_3
  6
CONTINUOUS
 62
         3
100
AcDbLine
 10
-64.3879394531
 20
-93.0857391357
 30
0.0
 11
-34.9329376221
 21
-93.0857391357
 31
0.0
  0
LINE
  5
33
100
AcDbEntity
  8
LY_3
  6
CONTINUOUS
 62
         3
100
AcDbLine
 10
-64.3879394531
 20
-33.0857391357
 30
0.0
 11
-34.9329376221
 21
-33.0857391357
 31
0.0
  0
LINE
  5
34
100
AcDbEntity
  8
LY_3
  6
CONTINUOUS
 62
         3
100
AcDbLine
 10
-126.9329223633
 20
-85.5857391357
 30
0.0
 11
-34.9329376221
 21
-85.5857391357
 31
0.0
  0
LINE
  5
35
100
AcDbEntity
  8
LY_3
  6
CONTINUOUS
 62
         3
100
AcDbLine
 10
79.92578125
 20
-36.7857513428
 30
0.0
 11
79.92578125
 21
-41.7023468018
 31
0.0
  0
LINE
  5
36
100
AcDbEntity
  8
LY_3
  6
CONTINUOUS
 62
         3
100
AcDbLine
 10
65.92578125
 20
-36.7857513428
 30
0.0
 11
65.92578125
 21
-41.7023468018
 31
0.0
  0
LINE
  5
37
100
AcDbEntity
  8
LY_3
  6
CONTINUOUS
 62
         3
100
AcDbLine
 10
65.92578125
 20
-36.7857513428
 30
0.0
 11
79.92578125
 21
-36.7857513428
 31
0.0
  0
LINE
  5
38
100
AcDbEntity
  8
LY_3
  6
CONTINUOUS
 62
         3
100
AcDbLine
 10
-126.9329223633
 20
-36.7857513428
 30
0.0
 11
-34.9329376221
 21
-36.7857513428
 31
0.0
  0
LINE
  5
39
100
AcDbEntity
  8
LY_3
  6
CONTINUOUS
 62
         3
100
AcDbLine
 10
-64.8879394531
 20
-15.5857391357
 30
0.0
 11
-64.8879394531
 21
-27.5867462158
 31
0.0
  0
LINE
  5
3A
100
AcDbEntity
  8
LY_3
  6
CONTINUOUS
 62
         3
100
AcDbLine
 10
-96.9879302979
 20
-15.5857391357
 30
0.0
 11
-96.9879302979
 21
-27.6105651855
 31
0.0
  0
LINE
  5
3B
100
AcDbEntity
  8
LY_3
  6
CONTINUOUS
 62
         3
100
AcDbLine
 10
-35.9379272461
 20
-0.5857391357
 30
0.0
 11
-35.9379272461
 21
-33.0857391357
 31
0.0
  0
LINE
  5
3C
100
AcDbEntity
  8
LY_3
  6
CONTINUOUS
 62
         3
100
AcDbLine
 10
-125.9379272461
 20
-0.5857391357
 30
0.0
 11
-125.9379272461
 21
-33.0857391357
 31
0.0
  0
LINE
  5
3D
100
AcDbEntity
  8
LY_3
  6
CONTINUOUS
 62
         3
100
AcDbLine
 10
-125.9379272461
 20
-0.5857391357
 30
0.0
 11
-35.9379272461
 21
-0.5857391357
 31
0.0
  0
LINE
  5
3E
100
AcDbEntity
  8
LY_3
  6
CONTINUOUS
 62
         3
100
AcDbLine
 10
-125.9379272461
 20
-125.5857391357
 30
0.0
 11
-35.9379272461
 21
-125.5857391357
 31
0.0
  0
LINE
  5
3F
100
AcDbEntity
  8
LY_3
  6
CONTINUOUS
 62
         3
100
AcDbLine
 10
-125.9379272461
 20
-93.0857391357
 30
0.0
 11
-125.9379272461
 21
-125.5857391357
 31
0.0
  0
LINE
  5
40
100
AcDbEntity
  8
LY_3
  6
CONTINUOUS
 62
         3
100
AcDbLine
 10
-35.9379272461
 20
-93.0857391357
 30
0.0
 11
-35.9379272461
 21
-125.5857391357
 31
0.0
  0
LINE
  5
41
100
AcDbEntity
  8
LY_3
  6
CONTINUOUS
 62
         3
100
AcDbLine
 10
-125.9379272461
 20
-15.5857391357
 30
0.0
 11
-117.5379180908
 21
-15.5857391357
 31
0.0
  0
LINE
  5
42
100
AcDbEntity
  8
LY_3
  6
CONTINUOUS
 62
         3
100
AcDbLine
 10
-125.9379272461
 20
-110.5857391357
 30
0.0
 11
-117.5379180908
 21
-110.5857391357
 31
0.0
  0
LINE
  5
43
100
AcDbEntity
  8
LY_3
  6
CONTINUOUS
 62
         3
100
AcDbLine
 10
-96.9879302979
 20
-19.2677459717
 30
0.0
 11
-64.8879394531
 21
-19.2677459717
 31
0.0
  0
LINE
  5
44
100
AcDbEntity
  8
LY_3
  6
CONTINUOUS
 62
         3
100
AcDbLine
 10
-96.9879302979
 20
-106.9037322998
 30
0.0
 11
-64.8879394531
 21
-106.9037322998
 31
0.0
  0
LINE
  5
45
100
AcDbEntity
  8
LY_3
  6
CONTINUOUS
 62
         3
100
AcDbLine
 10
-96.9879302979
 20
-98.5847320557
 30
0.0
 11
-96.9879302979
 21
-110.5857391357
 31
0.0
  0
LINE
  5
46
100
AcDbEntity
  8
LY_3
  6
CONTINUOUS
 62
         3
100
AcDbLine
 10
-64.8879394531
 20
-98.5847320557
 30
0.0
 11
-64.8879394531
 21
-110.5857391357
 31
0.0
  0
LINE
  5
47
100
AcDbEntity
  8
LY_3
  6
CONTINUOUS
 62
         3
100
AcDbLine
 10
-64.8879394531
 20
-15.5857391357
 30
0.0
 11
-46.4379119873
 21
-15.5857391357
 31
0.0
  0
LINE
  5
48
100
AcDbEntity
  8
LY_3
  6
CONTINUOUS
 62
         3
100
AcDbLine
 10
-64.8879394531
 20
-110.5857391357
 30
0.0
 11
-46.3879394531
 21
-110.5857391357
 31
0.0
  0
LINE
  5
49
100
AcDbEntity
  8
LY_3
  6
CONTINUOUS
 62
         3
100
AcDbLine
 10
-117.5379180908
 20
-14.1607513428
 30
0.0
 11
-115.4879302979
 21
-14.1607513428
 31
0.0
  0
LINE
  5
4A
100
AcDbEntity
  8
LY_3
  6
CONTINUOUS
 62
         3
100
AcDbLine
 10
-117.5379180908
 20
-112.0107269287
 30
0.0
 11
-115.4879302979
 21
-112.0107269287
 31
0.0
  0
LINE
  5
4B
100
AcDbEntity
  8
LY_3
  6
CONTINUOUS
 62
         3
100
AcDbLine
 10
-46.3879394531
 20
-112.0107269287
 30
0.0
 11
-44.3379211426
 21
-112.0107269287
 31
0.0
  0
LINE
  5
4C
100
AcDbEntity
  8
LY_3
  6
CONTINUOUS
 62
         3
100
AcDbLine
 10
-46.3879394531
 20
-14.1607513428
 30
0.0
 11
-44.3379211426
 21
-14.1607513428
 31
0.0
  0
LINE
  5
4D
100
AcDbEntity
  8
LY_3
  6
CONTINUOUS
 62
         3
100
AcDbLine
 10
-115.4879302979
 20
-110.5857391357
 30
0.0
 11
-96.9879302979
 21
-110.5857391357
 31
0.0
  0
LINE
  5
4E
100
AcDbEntity
  8
LY_3
  6
CONTINUOUS
 62
         3
100
AcDbLine
 10
-44.3379211426
 20
-110.5857391357
 30
0.0
 11
-35.9379272461
 21
-110.5857391357
 31
0.0
  0
LINE
  5
4F
100
AcDbEntity
  8
LY_3
  6
CONTINUOUS
 62
         3
100
AcDbLine
 10
-44.3379211426
 20
-15.5857391357
 30
0.0
 11
-35.9379272461
 21
-15.5857391357
 31
0.0
  0
LINE
  5
50
100
AcDbEntity
  8
LY_3
  6
CONTINUOUS
 62
         3
100
AcDbLine
 10
-115.4379119873
 20
-15.5857391357
 30
0.0
 11
-96.9879302979
 21
-15.5857391357
 31
0.0
  0
LINE
  5
52
100
AcDbEntity
  8
LY_3
  6
CENTER
 62
        80
100
AcDbLine
 10
116.0592089421
 20
-19.9522452553
 30
0.0
 11
107.5739275679
 21
-28.4375266295
 31
0.0
  0
LINE
  5
53
100
AcDbEntity
  8
LY_3
  6
CENTER
 62
        80
100
AcDbLine
 10
72.92578125
 20
-2.0857391357
 30
0.0
 11
72.92578125
 21
-14.0857391357
 31
0.0
  0
LINE
  5
54
100
AcDbEntity
  8
LY_3
  6
CENTER
 62
        80
100
AcDbLine
 10
29.7922463749
 20
-19.9522452553
 30
0.0
 11
38.2775169596
 21
-28.4375158399
 31
0.0
  0
LINE
  5
55
100
AcDbEntity
  8
LY_3
  6
CENTER
 62
        80
100
AcDbLine
 10
11.9257965088
 20
-63.0857391357
 30
0.0
 11
23.92578125
 21
-63.0857391357
 31
0.0
  0
LINE
  5
56
100
AcDbEntity
  8
LY_3
  6
CENTER
 62
        80
100
AcDbLine
 10
29.7922571645
 20
-106.2192186121
 30
0.0
 11
38.2775277491
 21
-97.7339480275
 31
0.0
  0
LINE
  5
57
100
AcDbEntity
  8
LY_3
  6
CENTER
 62
        80
100
AcDbLine
 10
72.92578125
 20
-124.0857086182
 30
0.0
 11
72.92578125
 21
-112.0857086182
 31
0.0
  0
LINE
  5
58
100
AcDbEntity
  8
LY_3
  6
CENTER
 62
        80
100
AcDbLine
 10
116.0592305213
 20
-106.2192294017
 30
0.0
 11
107.5739491471
 21
-97.7339480275
 31
0.0
  0
LINE
  5
59
100
AcDbEntity
  8
LY_3
  6
CENTER
 62
        80
100
AcDbLine
 10
133.9257659912
 20
-63.0857391357
 30
0.0
 11
121.92578125
 21
-63.0857391357
 31
0.0
  0
LINE
  5
5A
100
AcDbEntity
  8
LY_3
  6
CONTINUOUS
 62
         3
100
AcDbLine
 10
-97.4879302979
 20
-15.5857391357
 30
0.0
 11
-97.4879302979
 21
-33.0857391357
 31
0.0
  0
LINE
  5
5B
100
AcDbEntity
  8
LY_3
  6
CONTINUOUS
 62
         3
100
AcDbLine
 10
-64.3879394531
 20
-15.5857391357
 30
0.0
 11
-64.3879394531
 21
-33.0857391357
 31
0.0
  0
LINE
  5
5C
100
AcDbEntity
  8
LY_3
  6
CONTINUOUS
 62
         3
100
AcDbLine
 10
-64.3879394531
 20
-93.0857391357
 30
0.0
 11
-64.3879394531
 21
-110.5857391357
 31
0.0
  0
LINE
  5
5D
100
AcDbEntity
  8
LY_3
  6
CONTINUOUS
 62
         3
100
AcDbLine
 10
-97.4879302979
 20
-93.0857391357
 30
0.0
 11
-97.4879302979
 21
-110.5857391357
 31
0.0
  0
LINE
  5
5E
100
AcDbEntity
  8
LY_3
  6
CONTINUOUS
 62
         3
100
AcDbLine
 10
-46.3379058838
 20
-107.2307128906
 30
0.0
 11
-44.3379211426
 21
-107.2307128906
 31
0.0
  0
LINE
  5
5F
100
AcDbEntity
  8
LY_3
  6
CONTINUOUS
 62
         3
100
AcDbLine
 10
-46.3879394531
 20
-18.9407653809
 30
0.0
 11
-44.3379211426
 21
-18.9407653809
 31
0.0
  0
LINE
  5
60
100
AcDbEntity
  8
LY_3
  6
CONTINUOUS
 62
         3
100
AcDbLine
 10
-117.5379180908
 20
-18.9407653809
 30
0.0
 11
-115.537902832
 21
-18.9407653809
 31
0.0
  0
LINE
  5
61
100
AcDbEntity
  8
LY_3
  6
CONTINUOUS
 62
         3
100
AcDbLine
 10
-117.5379180908
 20
-107.2307128906
 30
0.0
 11
-115.4879302979
 21
-107.2307128906
 31
0.0
  0
LINE
  5
62
100
AcDbEntity
  8
LY_3
  6
CONTINUOUS
 62
         3
100
AcDbLine
 10
-115.4879302979
 20
-21.235748291
 30
0.0
 11
-110.6119232178
 21
-21.235748291
 31
0.0
  0
LINE
  5
63
100
AcDbEntity
  8
LY_3
  6
CONTINUOUS
 62
         3
100
AcDbLine
 10
-114.8709259033
 20
-18.4789581299
 30
0.0
 11
-114.8709259033
 21
-25.7021179199
 31
0.0
  0
LINE
  5
64
100
AcDbEntity
  8
LY_3
  6
CONTINUOUS
 62
         3
100
AcDbLine
 10
-102.3639221191
 20
-21.235748291
 30
0.0
 11
-97.4879302979
 21
-21.235748291
 31
0.0
  0
LINE
  5
65
100
AcDbEntity
  8
LY_3
  6
CONTINUOUS
 62
         3
100
AcDbLine
 10
-115.4879302979
 20
-14.1607513428
 30
0.0
 11
-115.4879302979
 21
-33.0857391357
 31
0.0
  0
LINE
  5
66
100
AcDbEntity
  8
LY_3
  6
CONTINUOUS
 62
         3
100
AcDbLine
 10
-102.3639221191
 20
-104.9357452393
 30
0.0
 11
-97.4879302979
 21
-104.9357452393
 31
0.0
  0
LINE
  5
67
100
AcDbEntity
  8
LY_3
  6
CONTINUOUS
 62
         3
100
AcDbLine
 10
-115.4879302979
 20
-104.9357452393
 30
0.0
 11
-110.6119232178
 21
-104.9357452393
 31
0.0
  0
LINE
  5
68
100
AcDbEntity
  8
LY_3
  6
CONTINUOUS
 62
         3
100
AcDbLine
 10
-115.4879302979
 20
-112.0107269287
 30
0.0
 11
-115.4879302979
 21
-93.0857391357
 31
0.0
  0
LINE
  5
69
100
AcDbEntity
  8
LY_3
  6
CONTINUOUS
 62
         3
100
AcDbLine
 10
-98.1049346924
 20
-18.4789581299
 30
0.0
 11
-98.1049346924
 21
-25.7021179199
 31
0.0
  0
LINE
  5
6A
100
AcDbEntity
  8
LY_3
  6
CONTINUOUS
 62
         3
100
AcDbLine
 10
-115.4879302979
 20
-27.4357452393
 30
0.0
 11
-110.6119232178
 21
-27.4357452393
 31
0.0
  0
LINE
  5
6B
100
AcDbEntity
  8
LY_3
  6
CONTINUOUS
 62
         3
100
AcDbLine
 10
-102.3639221191
 20
-98.7357330322
 30
0.0
 11
-97.4879302979
 21
-98.7357330322
 31
0.0
  0
LINE
  5
6C
100
AcDbEntity
  8
LY_3
  6
CONTINUOUS
 62
         3
100
AcDbLine
 10
-115.4879302979
 20
-98.7357330322
 30
0.0
 11
-110.6119232178
 21
-98.7357330322
 31
0.0
  0
LINE
  5
6D
100
AcDbEntity
  8
LY_3
  6
CONTINUOUS
 62
         3
100
AcDbLine
 10
-102.3639221191
 20
-27.4357452393
 30
0.0
 11
-97.4879302979
 21
-27.4357452393
 31
0.0
  0
LINE
  5
6E
100
AcDbEntity
  8
LY_3
  6
CONTINUOUS
 62
         3
100
AcDbLine
 10
-64.3879394531
 20
-21.235748291
 30
0.0
 11
-59.511932373
 21
-21.235748291
 31
0.0
  0
LINE
  5
6F
100
AcDbEntity
  8
LY_3
  6
CONTINUOUS
 62
         3
100
AcDbLine
 10
-51.2639312744
 20
-21.235748291
 30
0.0
 11
-46.3879394531
 21
-21.235748291
 31
0.0
  0
LINE
  5
70
100
AcDbEntity
  8
LY_3
  6
CONTINUOUS
 62
         3
100
AcDbLine
 10
-46.3879394531
 20
-14.1607513428
 30
0.0
 11
-46.3879394531
 21
-33.0857391357
 31
0.0
  0
LINE
  5
71
100
AcDbEntity
  8
LY_3
  6
CONTINUOUS
 62
         3
100
AcDbLine
 10
-51.2639312744
 20
-104.9357452393
 30
0.0
 11
-46.3879394531
 21
-104.9357452393
 31
0.0
  0
LINE
  5
72
100
AcDbEntity
  8
LY_3
  6
CONTINUOUS
 62
         3
100
AcDbLine
 10
-64.3879394531
 20
-104.9357452393
 30
0.0
 11
-59.511932373
 21
-104.9357452393
 31
0.0
  0
LINE
  5
73
100
AcDbEntity
  8
LY_3
  6
CONTINUOUS
 62
         3
100
AcDbLine
 10
-46.3879394531
 20
-112.0107269287
 30
0.0
 11
-46.3879394531
 21
-93.0857391357
 31
0.0
  0
LINE
  5
74
100
AcDbEntity
  8
LY_3
  6
CONTINUOUS
 62
         3
100
AcDbLine
 10
-64.3879394531
 20
-27.4357452393
 30
0.0
 11
-59.511932373
 21
-27.4357452393
 31
0.0
  0
LINE
  5
75
100
AcDbEntity
  8
LY_3
  6
CONTINUOUS
 62
         3
100
AcDbLine
 10
-51.2639312744
 20
-98.7357330322
 30
0.0
 11
-46.3879394531
 21
-98.7357330322
 31
0.0
  0
LINE
  5
76
100
AcDbEntity
  8
LY_3
  6
CONTINUOUS
 62
         3
100
AcDbLine
 10
-64.3879394531
 20
-98.7357330322
 30
0.0
 11
-59.511932373
 21
-98.7357330322
 31
0.0
  0
LINE
  5
77
100
AcDbEntity
  8
LY_3
  6
CONTINUOUS
 62
         3
100
AcDbLine
 10
-51.2639312744
 20
-27.4357452393
 30
0.0
 11
-46.3879394531
 21
-27.4357452393
 31
0.0
  0
LINE
  5
78
100
AcDbEntity
  8
LY_3
  6
CONTINUOUS
 62
         3
100
AcDbLine
 10
-94.02293396
 20
-24.9308776855
 30
0.0
 11
-94.02293396
 21
-27.5867462158
 31
0.0
  0
LINE
  5
79
100
AcDbEntity
  8
LY_3
  6
CONTINUOUS
 62
         3
100
AcDbLine
 10
-67.852935791
 20
-24.9308776855
 30
0.0
 11
-67.852935791
 21
-27.5737457275
 31
0.0
  0
LINE
  5
7A
100
AcDbEntity
  8
LY_3
  6
CONTINUOUS
 62
         3
100
AcDbLine
 10
-96.9878795451
 20
-23.9954694056
 30
0.0
 11
-95.4106014178
 21
-23.7456531597
 31
0.0
  0
LINE
  5
7B
100
AcDbEntity
  8
LY_3
  6
CONTINUOUS
 62
         3
100
AcDbLine
 10
-66.4651833764
 20
-23.7456439896
 30
0.0
 11
-64.8879052492
 21
-23.9954602354
 31
0.0
  0
LINE
  5
7C
100
AcDbEntity
  8
LY_3
  6
CONTINUOUS
 62
         3
100
AcDbLine
 10
-67.8528747559
 20
-101.2405853271
 30
0.0
 11
-67.8528747559
 21
-98.5847167969
 31
0.0
  0
LINE
  5
7D
100
AcDbEntity
  8
LY_3
  6
CONTINUOUS
 62
         3
100
AcDbLine
 10
-94.0228729248
 20
-101.2405853271
 30
0.0
 11
-94.0228729248
 21
-98.5847167969
 31
0.0
  0
LINE
  5
7E
100
AcDbEntity
  8
LY_3
  6
CONTINUOUS
 62
         3
100
AcDbLine
 10
-64.8878982513
 20
-102.1759748311
 30
0.0
 11
-66.4651613076
 21
-102.42578869
 31
0.0
  0
LINE
  5
7F
100
AcDbEntity
  8
LY_3
  6
CONTINUOUS
 62
         3
100
AcDbLine
 10
-95.4106109519
 20
-102.4257979197
 30
0.0
 11
-96.9878890791
 21
-102.1759816738
 31
0.0
  0
LINE
  5
80
100
AcDbEntity
  8
LY_3
  6
CONTINUOUS
 62
        80
100
AcDbLine
 10
-125.9379272461
 20
-4.0857391357
 30
0.0
 11
-109.9379272461
 21
-4.0857391357
 31
0.0
  0
LINE
  5
81
100
AcDbEntity
  8
LY_3
  6
CONTINUOUS
 62
        80
100
AcDbLine
 10
-125.9379272461
 20
-12.0857391357
 30
0.0
 11
-109.9379272461
 21
-12.0857391357
 31
0.0
  0
LINE
  5
82
100
AcDbEntity
  8
LY_3
  6
CONTINUOUS
 62
         3
100
AcDbLine
 10
-109.9379272461
 20
-4.0857391357
 30
0.0
 11
-109.9379272461
 21
-12.0857391357
 31
0.0
  0
LINE
  5
83
100
AcDbEntity
  8
LY_3
  6
CONTINUOUS
 62
         3
100
AcDbLine
 10
-103.6379394531
 20
-4.6357421875
 30
0.0
 11
-103.6379394531
 21
-11.5357513428
 31
0.0
  0
LINE
  5
84
100
AcDbEntity
  8
LY_3
  6
CONTINUOUS
 62
         3
100
AcDbLine
 10
-125.9379272461
 20
-4.6357421875
 30
0.0
 11
-103.6379394531
 21
-4.6357421875
 31
0.0
  0
LINE
  5
85
100
AcDbEntity
  8
LY_3
  6
CONTINUOUS
 62
         3
100
AcDbLine
 10
-125.9379272461
 20
-11.5357513428
 30
0.0
 11
-103.6379394531
 21
-11.5357513428
 31
0.0
  0
LINE
  5
86
100
AcDbEntity
  8
LY_3
  6
CONTINUOUS
 62
         3
100
AcDbLine
 10
-101.5649266523
 20
-8.085766677
 30
0.0
 11
-103.6378968436
 21
-4.635765136
 31
0.0
  0
LINE
  5
87
100
AcDbEntity
  8
LY_3
  6
CONTINUOUS
 62
         3
100
AcDbLine
 10
-103.6379001666
 20
-11.5357308888
 30
0.0
 11
-101.5649299753
 21
-8.0857293478
 31
0.0
  0
LINE
  5
88
100
AcDbEntity
  8
LY_3
  6
CONTINUOUS
 62
        80
100
AcDbLine
 10
-51.9279174805
 20
-4.0857391357
 30
0.0
 11
-35.9279174805
 21
-4.0857391357
 31
0.0
  0
LINE
  5
89
100
AcDbEntity
  8
LY_3
  6
CONTINUOUS
 62
        80
100
AcDbLine
 10
-51.9279174805
 20
-12.0857391357
 30
0.0
 11
-35.9279174805
 21
-12.0857391357
 31
0.0
  0
LINE
  5
8A
100
AcDbEntity
  8
LY_3
  6
CONTINUOUS
 62
         3
100
AcDbLine
 10
-51.9279174805
 20
-12.0857391357
 30
0.0
 11
-51.9279174805
 21
-4.0857391357
 31
0.0
  0
LINE
  5
8B
100
AcDbEntity
  8
LY_3
  6
CONTINUOUS
 62
         3
100
AcDbLine
 10
-58.2279052734
 20
-11.5357513428
 30
0.0
 11
-58.2279052734
 21
-4.6357421875
 31
0.0
  0
LINE
  5
8C
100
AcDbEntity
  8
LY_3
  6
CONTINUOUS
 62
         3
100
AcDbLine
 10
-58.2279052734
 20
-4.6357421875
 30
0.0
 11
-35.9279174805
 21
-4.6357421875
 31
0.0
  0
LINE
  5
8D
100
AcDbEntity
  8
LY_3
  6
CONTINUOUS
 62
         3
100
AcDbLine
 10
-58.2279052734
 20
-11.5357513428
 30
0.0
 11
-35.9279174805
 21
-11.5357513428
 31
0.0
  0
LINE
  5
8E
100
AcDbEntity
  8
LY_3
  6
CONTINUOUS
 62
         3
100
AcDbLine
 10
-58.2278757531
 20
-4.6357594951
 30
0.0
 11
-60.3008459445
 21
-8.0857610361
 31
0.0
  0
LINE
  5
8F
100
AcDbEntity
  8
LY_3
  6
CONTINUOUS
 62
         3
100
AcDbLine
 10
-60.3008321242
 20
-8.0857820856
 30
0.0
 11
-58.2278697917
 21
-11.5357705472
 31
0.0
  0
LINE
  5
90
100
AcDbEntity
  8
LY_3
  6
CONTINUOUS
 62
        80
100
AcDbLine
 10
-109.9379272461
 20
-122.0857391357
 30
0.0
 11
-125.9379272461
 21
-122.0857391357
 31
0.0
  0
LINE
  5
91
100
AcDbEntity
  8
LY_3
  6
CONTINUOUS
 62
        80
100
AcDbLine
 10
-109.9379272461
 20
-114.0857391357
 30
0.0
 11
-125.9379272461
 21
-114.0857391357
 31
0.0
  0
LINE
  5
92
100
AcDbEntity
  8
LY_3
  6
CONTINUOUS
 62
         3
100
AcDbLine
 10
-109.9379272461
 20
-114.0857391357
 30
0.0
 11
-109.9379272461
 21
-122.0857391357
 31
0.0
  0
LINE
  5
93
100
AcDbEntity
  8
LY_3
  6
CONTINUOUS
 62
         3
100
AcDbLine
 10
-103.6379394531
 20
-114.6357269287
 30
0.0
 11
-103.6379394531
 21
-121.535736084
 31
0.0
  0
LINE
  5
94
100
AcDbEntity
  8
LY_3
  6
CONTINUOUS
 62
         3
100
AcDbLine
 10
-103.6379394531
 20
-121.535736084
 30
0.0
 11
-125.9379272461
 21
-121.535736084
 31
0.0
  0
LINE
  5
95
100
AcDbEntity
  8
LY_3
  6
CONTINUOUS
 62
         3
100
AcDbLine
 10
-103.6379394531
 20
-114.6357269287
 30
0.0
 11
-125.9379272461
 21
-114.6357269287
 31
0.0
  0
LINE
  5
96
100
AcDbEntity
  8
LY_3
  6
CONTINUOUS
 62
         3
100
AcDbLine
 10
-103.6378876236
 20
-121.5357084934
 30
0.0
 11
-101.5649174323
 21
-118.0857069525
 31
0.0
  0
LINE
  5
97
100
AcDbEntity
  8
LY_3
  6
CONTINUOUS
 62
         3
100
AcDbLine
 10
-101.5649287543
 20
-118.0857024052
 30
0.0
 11
-103.6378989457
 21
-114.6357008643
 31
0.0
  0
LINE
  5
98
100
AcDbEntity
  8
LY_3
  6
CONTINUOUS
 62
        80
100
AcDbLine
 10
-35.9279174805
 20
-122.0857391357
 30
0.0
 11
-51.9279174805
 21
-122.0857391357
 31
0.0
  0
LINE
  5
99
100
AcDbEntity
  8
LY_3
  6
CONTINUOUS
 62
        80
100
AcDbLine
 10
-35.9279174805
 20
-114.0857391357
 30
0.0
 11
-51.9279174805
 21
-114.0857391357
 31
0.0
  0
LINE
  5
9A
100
AcDbEntity
  8
LY_3
  6
CONTINUOUS
 62
         3
100
AcDbLine
 10
-51.9279174805
 20
-122.0857391357
 30
0.0
 11
-51.9279174805
 21
-114.0857391357
 31
0.0
  0
LINE
  5
9B
100
AcDbEntity
  8
LY_3
  6
CONTINUOUS
 62
         3
100
AcDbLine
 10
-58.2279052734
 20
-121.535736084
 30
0.0
 11
-58.2279052734
 21
-114.6357269287
 31
0.0
  0
LINE
  5
9C
100
AcDbEntity
  8
LY_3
  6
CONTINUOUS
 62
         3
100
AcDbLine
 10
-35.9279174805
 20
-121.535736084
 30
0.0
 11
-58.2279052734
 21
-121.535736084
 31
0.0
  0
LINE
  5
9D
100
AcDbEntity
  8
LY_3
  6
CONTINUOUS
 62
         3
100
AcDbLine
 10
-35.9279174805
 20
-114.6357269287
 30
0.0
 11
-58.2279052734
 21
-114.6357269287
 31
0.0
  0
LINE
  5
9E
100
AcDbEntity
  8
LY_3
  6
CONTINUOUS
 62
         3
100
AcDbLine
 10
-60.3008578029
 20
-118.0856785759
 30
0.0
 11
-58.2278876115
 21
-121.5356801168
 31
0.0
  0
LINE
  5
9F
100
AcDbEntity
  8
LY_3
  6
CONTINUOUS
 62
         3
100
AcDbLine
 10
-58.227884278
 20
-114.6356888381
 30
0.0
 11
-60.3008466105
 21
-118.0856772997
 31
0.0
  0
LINE
  5
A0
100
AcDbEntity
  8
LY_3
  6
CONTINUOUS
 62
         3
100
AcDbLine
 10
-126.9329223633
 20
-40.5857391357
 30
0.0
 11
-34.9329376221
 21
-40.5857391357
 31
0.0
  0
LINE
  5
A1
100
AcDbEntity
  8
LY_3
  6
CONTINUOUS
 62
         3
100
AcDbLine
 10
-34.9329376221
 20
-85.5857391357
 30
0.0
 11
-34.9329376221
 21
-93.0857391357
 31
0.0
  0
LINE
  5
A2
100
AcDbEntity
  8
LY_3
  6
CONTINUOUS
 62
         3
100
AcDbLine
 10
-126.9329223633
 20
-85.5857391357
 30
0.0
 11
-126.9329223633
 21
-93.0857391357
 31
0.0
  0
LINE
  5
A3
100
AcDbEntity
  8
LY_3
  6
CONTINUOUS
 62
         3
100
AcDbLine
 10
-44.3379211426
 20
-14.1607513428
 30
0.0
 11
-44.3379211426
 21
-33.0857391357
 31
0.0
  0
LINE
  5
A4
100
AcDbEntity
  8
LY_3
  6
CONTINUOUS
 62
         3
100
AcDbLine
 10
-44.3379211426
 20
-93.0857391357
 30
0.0
 11
-44.3379211426
 21
-112.0107269287
 31
0.0
  0
LINE
  5
A5
100
AcDbEntity
  8
LY_3
  6
CONTINUOUS
 62
         3
100
AcDbLine
 10
-117.5379180908
 20
-93.0857391357
 30
0.0
 11
-117.5379180908
 21
-112.0107269287
 31
0.0
  0
LINE
  5
A6
100
AcDbEntity
  8
LY_3
  6
CONTINUOUS
 62
         3
100
AcDbLine
 10
-117.5379180908
 20
-14.1607513428
 30
0.0
 11
-117.5379180908
 21
-33.0857391357
 31
0.0
  0
LINE
  5
A7
100
AcDbEntity
  8
LY_3
  6
CONTINUOUS
 62
         3
100
AcDbLine
 10
-46.9949188232
 20
-25.7021179199
 30
0.0
 11
-46.9949188232
 21
-18.4789581299
 31
0.0
  0
LINE
  5
A8
100
AcDbEntity
  8
LY_3
  6
CONTINUOUS
 62
         3
100
AcDbLine
 10
-63.7609100342
 20
-25.7021179199
 30
0.0
 11
-63.7609100342
 21
-18.4789581299
 31
0.0
  0
LINE
  5
A9
100
AcDbEntity
  8
LY_3
  6
CONTINUOUS
 62
         3
100
AcDbLine
 10
-114.8709259033
 20
-100.4693603516
 30
0.0
 11
-114.8709259033
 21
-107.6925201416
 31
0.0
  0
LINE
  5
AA
100
AcDbEntity
  8
LY_3
  6
CONTINUOUS
 62
         3
100
AcDbLine
 10
-98.1049346924
 20
-100.4693603516
 30
0.0
 11
-98.1049346924
 21
-107.6925201416
 31
0.0
  0
LINE
  5
AB
100
AcDbEntity
  8
LY_3
  6
CONTINUOUS
 62
         3
100
AcDbLine
 10
-46.9949188232
 20
-107.6925201416
 30
0.0
 11
-46.9949188232
 21
-100.4693603516
 31
0.0
  0
LINE
  5
AC
100
AcDbEntity
  8
LY_3
  6
CONTINUOUS
 62
         3
100
AcDbLine
 10
-63.7609100342
 20
-107.6925201416
 30
0.0
 11
-63.7609100342
 21
-100.4693603516
 31
0.0
  0
LINE
  5
AD
100
AcDbEntity
  8
LY_3
  6
CONTINUOUS
 62
         3
100
AcDbLine
 10
-126.9329071045
 20
-193.0856933594
 30
0.0
 11
-34.9329376221
 21
-193.0856933594
 31
0.0
  0
LINE
  5
AE
100
AcDbEntity
  8
LY_3
  6
CONTINUOUS
 62
         3
100
AcDbLine
 10
-126.9329071045
 20
-233.0856933594
 30
0.0
 11
-34.9329376221
 21
-233.0856933594
 31
0.0
  0
LINE
  5
AF
100
AcDbEntity
  8
LY_3
  6
CONTINUOUS
 62
         3
100
AcDbLine
 10
-126.9329071045
 20
-189.7857208252
 30
0.0
 11
-34.9329223633
 21
-189.7857208252
 31
0.0
  0
LINE
  5
B0
100
AcDbEntity
  8
LY_3
  6
CONTINUOUS
 62
         3
100
AcDbLine
 10
66.9257507324
 20
-189.7857208252
 30
0.0
 11
66.9257507324
 21
-194.0069122314
 31
0.0
  0
LINE
  5
B1
100
AcDbEntity
  8
LY_3
  6
CONTINUOUS
 62
         3
100
AcDbLine
 10
78.9257507324
 20
-189.7857208252
 30
0.0
 11
78.9257507324
 21
-194.0069122314
 31
0.0
  0
LINE
  5
B2
100
AcDbEntity
  8
LY_3
  6
CONTINUOUS
 62
         3
100
AcDbLine
 10
66.9257507324
 20
-189.7857208252
 30
0.0
 11
78.9257507324
 21
-189.7857208252
 31
0.0
  0
ARC
  5
B3
100
AcDbEntity
  8
LY_3
  6
CONTINUOUS
 62
         3
100
AcDbCircle
 10
72.92578125
 20
-63.0857391357
 30
0.0
 40
22.5
100
AcDbArc
 50
108.1261565993
 51
71.8737901256
  0
CIRCLE
  5
B4
100
AcDbEntity
  8
LY_3
  6
CONTINUOUS
 62
         3
100
AcDbCircle
 10
72.92578125
 20
-63.0857391357
 30
0.0
 40
47.5
  0
CIRCLE
  5
B5
100
AcDbEntity
  8
LY_3
  6
CONTINUOUS
 62
         3
100
AcDbCircle
 10
72.92578125
 20
-63.0857391357
 30
0.0
 40
62.5
  0
ARC
  5
B6
100
AcDbEntity
  8
LY_3
  6
CENTER
 62
        80
100
AcDbCircle
 10
72.92578125
 20
-63.0857391357
 30
0.0
 40
55.0
100
AcDbArc
 50
38.7464576331
 51
51.2535619469
  0
ARC
  5
B7
100
AcDbEntity
  8
LY_3
  6
CENTER
 62
        80
100
AcDbCircle
 10
72.92578125
 20
-63.0857391357
 30
0.0
 40
55.0
100
AcDbArc
 50
83.7464247344
 51
96.2535392934
  0
ARC
  5
B8
100
AcDbEntity
  8
LY_3
  6
CENTER
 62
        80
100
AcDbCircle
 10
72.92578125
 20
-63.0857391357
 30
0.0
 40
55.0
100
AcDbArc
 50
128.7464430621
 51
141.2535576211
  0
ARC
  5
B9
100
AcDbEntity
  8
LY_3
  6
CENTER
 62
        80
100
AcDbCircle
 10
72.92578125
 20
-63.0857391357
 30
0.0
 40
55.0
100
AcDbArc
 50
173.7464067483
 51
186.2535213073
  0
ARC
  5
BA
100
AcDbEntity
  8
LY_3
  6
CENTER
 62
        80
100
AcDbCircle
 10
72.92578125
 20
-63.0857391357
 30
0.0
 40
55.0
100
AcDbArc
 50
218.7464423789
 51
231.2535569379
  0
ARC
  5
BB
100
AcDbEntity
  8
LY_3
  6
CENTER
 62
        80
100
AcDbCircle
 10
72.92578125
 20
-63.0857391357
 30
0.0
 40
55.0
100
AcDbArc
 50
263.7464607066
 51
276.2535752656
  0
ARC
  5
BC
100
AcDbEntity
  8
LY_3
  6
CENTER
 62
        80
100
AcDbCircle
 10
72.92578125
 20
-63.0857391357
 30
0.0
 40
55.0
100
AcDbArc
 50
308.7464380531
 51
321.2535423669
  0
ARC
  5
BD
100
AcDbEntity
  8
LY_3
  6
CENTER
 62
        80
100
AcDbCircle
 10
72.92578125
 20
-63.0857391357
 30
0.0
 40
55.0
100
AcDbArc
 50
353.7464495507
 51
6.2535504493
  0
CIRCLE
  5
BE
100
AcDbEntity
  8
LY_3
  6
CONTINUOUS
 62
         3
100
AcDbCircle
 10
72.92578125
 20
-63.0857391357
 30
0.0
 40
30.299987793
  0
CIRCLE
  5
BF
100
AcDbEntity
  8
LY_3
  6
CONTINUOUS
 62
         3
100
AcDbCircle
 10
-106.4879302979
 20
-24.3357391357
 30
0.0
 40
5.1590003967
  0
CIRCLE
  5
C0
100
AcDbEntity
  8
LY_3
  6
CONTINUOUS
 62
         3
100
AcDbCircle
 10
-106.4879302979
 20
-101.8357391357
 30
0.0
 40
5.1590003967
  0
CIRCLE
  5
C1
100
AcDbEntity
  8
LY_3
  6
CONTINUOUS
 62
         3
100
AcDbCircle
 10
-55.3879394531
 20
-24.3357391357
 30
0.0
 40
5.1590003967
  0
CIRCLE
  5
C2
100
AcDbEntity
  8
LY_3
  6
CONTINUOUS
 62
         3
100
AcDbCircle
 10
-55.3879394531
 20
-101.8357391357
 30
0.0
 40
5.1590003967
  0
CIRCLE
  5
C3
100
AcDbEntity
  8
LY_3
  6
CONTINUOUS
 62
         3
100
AcDbCircle
 10
-95.2229309082
 20
-24.9308776855
 30
0.0
 40
1.1999998093
  0
CIRCLE
  5
C4
100
AcDbEntity
  8
LY_3
  6
CONTINUOUS
 62
         3
100
AcDbCircle
 10
-66.6529388428
 20
-24.9308776855
 30
0.0
 40
1.1999998093
  0
CIRCLE
  5
C5
100
AcDbEntity
  8
LY_3
  6
CONTINUOUS
 62
         3
100
AcDbCircle
 10
-66.6529388428
 20
-101.2406005859
 30
0.0
 40
1.1999998093
  0
CIRCLE
  5
C6
100
AcDbEntity
  8
LY_3
  6
CONTINUOUS
 62
         3
100
AcDbCircle
 10
-95.2229309082
 20
-101.2406005859
 30
0.0
 40
1.1999998093
  0
ARC
  5
C7
100
AcDbEntity
  8
LY_3
  6
CONTINUOUS
 62
         3
100
AcDbCircle
 10
72.9257507324
 20
-213.085723877
 30
0.0
 40
19.9999694824
100
AcDbArc
 50
107.4576723249
 51
72.5422744001
  0
MTEXT
  5
C8
100
AcDbEntity
  8
LY_3
  6
CONTINUOUS
 62
       110
100
AcDbMText
 10
-65.0355972588
 20
46.1673603058
 30
0.0
 40
15.0
 41
0.0
 71
         1
 72
         1
  1
\W1.024;\A1;MZ45-40
  0
MTEXT
  5
C9
100
AcDbEntity
  8
LY_3
  6
CONTINUOUS
 62
       110
100
AcDbMText
 10
-65.096572876
 20
68.6673583984
 30
0.0
 40
15.0
 41
0.0
 71
         1
 72
         1
  1
\A1;MZ45
  0
MTEXT
  5
CA
100
AcDbEntity
  8
LY_3
  6
CONTINUOUS
 62
       110
100
AcDbMText
 10
-68.2430553901
 20
92.6673583984
 30
0.0
 40
13.0
 41
0.0
 71
         1
 72
         1
  1
\W1.042;\A1;CAM CLUTCH
  0
MTEXT
  5
CB
100
AcDbEntity
  8
LY_3
  6
CONTINUOUS
 62
       110
100
AcDbMText
 10
-161.1602883062
 20
-209.9081573486
 30
0.0
 40
7.0
 41
0.0
 71
         1
 72
         1
  1
\W1.008;\A1;\U+220540
  0
MTEXT
  5
CC
100
AcDbEntity
  8
LY_3
  6
CONTINUOUS
 62
       110
100
AcDbMText
 10
-161.222651944
 20
-59.5857391357
 30
0.0
 40
7.0
 41
0.0
 71
         1
 72
         1
  1
\W0.955;\A1;\U+220545
  0
ENDSEC
  0
SECTION
  2
OBJECTS
  0
DICTIONARY
  5
19
100
AcDbDictionary
  3
ACAD_GROUP
350
1A
  3
ACAD_MLINESTYLE
350
1B
  0
DICTIONARY
  5
1A
102
{ACAD_REACTORS
330
19
102
}
100
AcDbDictionary
  0
DICTIONARY
  5
1B
102
{ACAD_REACTORS
330
19
102
}
100
AcDbDictionary
  3
STANDARD
350
1C
  0
MLINESTYLE
  5
1C
102
{ACAD_REACTORS
330
1B
102
}
100
AcDbMlineStyle
  2
Standard
 70
         0
  3

 62
         0
 51
90.0
 52
90.0
 71
         2
 49
0.5
 62
       256
  6
ByLayer
 49
-0.5
 62
       256
  6
ByLayer
  0
ENDSEC
  0
EOF
