  0
SECTION
  2
HEADER
  9
$ACADVER
  1
AC1014
  9
$ACADMAINTVER
 70
         0
  9
$DWGCODEPAGE
  3
ANSI_932
  9
$INSBASE
 10
0.0
 20
0.0
 30
0.0
  9
$EXTMIN
 10
-149.7476530076
 20
-274.978515625
 30
0.0
  9
$EXTMAX
 10
111.3171844482
 20
122.1256914138
 30
0.0
  9
$LIMMIN
 10
-149.7476530076
 20
-274.978515625
  9
$LIMMAX
 10
111.3171844482
 20
122.1256914138
  9
$ORTHOMODE
 70
         0
  9
$REGENMODE
 70
         1
  9
$FILLMODE
 70
         1
  9
$QTEXTMODE
 70
         0
  9
$MIRRTEXT
 70
         1
  9
$DRAGMODE
 70
         2
  9
$LTSCALE
 40
1.0
  9
$OSMODE
 70
         0
  9
$ATTMODE
 70
         1
  9
$TEXTSIZE
 40
3.2000000477
  9
$TRACEWID
 40
0.05
  9
$TEXTSTYLE
  7
MX_NOTE_STANDARD
  9
$CLAYER
  8
0
  9
$CELTYPE
  6
CONTINUOUS
  9
$CECOLOR
 62
       256
  9
$CELTSCALE
 40
1.0
  9
$DELOBJ
 70
         1
  9
$DISPSILH
 70
         0
  9
$DIMSCALE
 40
1.0
  9
$DIMASZ
 40
2.5
  9
$DIMEXO
 40
0.0
  9
$DIMDLI
 40
3.75
  9
$DIMRND
 40
0.0
  9
$DIMDLE
 40
0.0
  9
$DIMEXE
 40
2.5
  9
$DIMTP
 40
0.0
  9
$DIMTM
 40
0.0
  9
$DIMTXT
 40
3.2000000477
  9
$DIMCEN
 40
2.5
  9
$DIMTSZ
 40
0.0
  9
$DIMTOL
 70
         0
  9
$DIMLIM
 70
         0
  9
$DIMTIH
 70
         0
  9
$DIMTOH
 70
         0
  9
$DIMSE1
 70
         0
  9
$DIMSE2
 70
         0
  9
$DIMTAD
 70
         1
  9
$DIMZIN
 70
         8
  9
$DIMBLK
  1

  9
$DIMASO
 70
         1
  9
$DIMSHO
 70
         1
  9
$DIMPOST
  1

  9
$DIMAPOST
  1

  9
$DIMALT
 70
         0
  9
$DIMALTD
 70
         4
  9
$DIMALTF
 40
0.0393700787
  9
$DIMLFAC
 40
1.0
  9
$DIMTOFL
 70
         1
  9
$DIMTVP
 40
0.0
  9
$DIMTIX
 70
         0
  9
$DIMSOXD
 70
         0
  9
$DIMSAH
 70
         1
  9
$DIMBLK1
  1
_OPEN30
  9
$DIMBLK2
  1
_OPEN30
  9
$DIMSTYLE
  2
MXDIMSTYLE
  9
$DIMCLRD
 70
         0
  9
$DIMCLRE
 70
         0
  9
$DIMCLRT
 70
         0
  9
$DIMTFAC
 40
1.0
  9
$DIMGAP
 40
1.0
  9
$DIMJUST
 70
         0
  9
$DIMSD1
 70
         0
  9
$DIMSD2
 70
         0
  9
$DIMTOLJ
 70
         0
  9
$DIMTZIN
 70
         0
  9
$DIMALTZ
 70
         0
  9
$DIMALTTZ
 70
         0
  9
$DIMFIT
 70
         3
  9
$DIMUPT
 70
         0
  9
$DIMUNIT
 70
         2
  9
$DIMDEC
 70
         2
  9
$DIMTDEC
 70
         2
  9
$DIMALTU
 70
         2
  9
$DIMALTTD
 70
         4
  9
$DIMTXSTY
  7
MX_NOTE_STANDARD
  9
$DIMAUNIT
 70
         0
  9
$LUNITS
 70
         2
  9
$LUPREC
 70
         4
  9
$SKETCHINC
 40
0.1
  9
$FILLETRAD
 40
0.0
  9
$AUNITS
 70
         0
  9
$AUPREC
 70
         0
  9
$MENU
  1
acad
  9
$ELEVATION
 40
0.0
  9
$PELEVATION
 40
0.0
  9
$THICKNESS
 40
0.0
  9
$LIMCHECK
 70
         0
  9
$BLIPMODE
 70
         1
  9
$CHAMFERA
 40
0.0
  9
$CHAMFERB
 40
0.0
  9
$CHAMFERC
 40
0.0
  9
$CHAMFERD
 40
0.0
  9
$SKPOLY
 70
         0
  9
$TDCREATE
 40
2456603.419502315
  9
$TDUPDATE
 40
2456603.419502315
  9
$TDINDWG
 40
0.0000000000
  9
$TDUSRTIMER
 40
0.0000000000
  9
$USRTIMER
 70
         1
  9
$ANGBASE
 50
0.0
  9
$ANGDIR
 70
         0
  9
$PDMODE
 70
         0
  9
$PDSIZE
 40
0.0
  9
$PLINEWID
 40
0.0
  9
$COORDS
 70
         1
  9
$SPLFRAME
 70
         0
  9
$SPLINETYPE
 70
         6
  9
$SPLINESEGS
 70
         8
  9
$ATTDIA
 70
         0
  9
$ATTREQ
 70
         1
  9
$HANDLING
 70
         1
  9
$HANDSEED
  5
D5
  9
$SURFTAB1
 70
         6
  9
$SURFTAB2
 70
         6
  9
$SURFTYPE
 70
         6
  9
$SURFU
 70
         6
  9
$SURFV
 70
         6
  9
$UCSNAME
  2

  9
$UCSORG
 10
0.0
 20
0.0
 30
0.0
  9
$UCSXDIR
 10
1.0
 20
0.0
 30
0.0
  9
$UCSYDIR
 10
0.0
 20
1.0
 30
0.0
  9
$PUCSNAME
  2

  9
$PUCSORG
 10
0.0
 20
0.0
 30
0.0
  9
$PUCSXDIR
 10
1.0
 20
0.0
 30
0.0
  9
$PUCSYDIR
 10
0.0
 20
1.0
 30
0.0
  9
$USERI1
 70
         0
  9
$USERI2
 70
         0
  9
$USERI3
 70
         0
  9
$USERI4
 70
         0
  9
$USERI5
 70
         0
  9
$USERR1
 40
0.0
  9
$USERR2
 40
0.0
  9
$USERR3
 40
0.0
  9
$USERR4
 40
0.0
  9
$USERR5
 40
0.0
  9
$WORLDVIEW
 70
         1
  9
$SHADEDGE
 70
         3
  9
$SHADEDIF
 70
        70
  9
$TILEMODE
 70
         1
  9
$MAXACTVP
 70
        16
  9
$PINSBASE
 10
0.0
 20
0.0
 30
0.0
  9
$PLIMCHECK
 70
         0
  9
$PEXTMIN
 10
1.0000000000E+20
 20
1.0000000000E+20
 30
1.0000000000E+20
  9
$PEXTMAX
 10
-1.0000000000E+20
 20
-1.0000000000E+20
 30
-1.0000000000E+20
  9
$PLIMMIN
 10
0.0
 20
0.0
  9
$PLIMMAX
 10
12.0
 20
9.0
  9
$UNITMODE
 70
         0
  9
$VISRETAIN
 70
         0
  9
$PLINEGEN
 70
         1
  9
$PSLTSCALE
 70
         0
  9
$TREEDEPTH
 70
      3020
  9
$PICKSTYLE
 70
         1
  9
$CMLSTYLE
  2
Standard
  9
$CMLJUST
 70
         0
  9
$CMLSCALE
 40
1.0
  9
$PROXYGRAPHICS
 70
         0
  9
$MEASUREMENT
 70
         1
  0
ENDSEC
  0
SECTION
  2
CLASSES
  0
CLASS
  1
LWPOLYLINE
  2
AcDbPolyline
  3
"AutoCAD"
 90
        0
280
         0
281
         1
  0
CLASS
  1
IMAGE
  2
AcDbRasterImage
  3
ISM
 90
      127
280
         0
281
         1
  0
CLASS
  1
OLE2FRAME
  2
AcDbOle2Frame
  3
""
 90
        0
280
         0
281
         1
  0
CLASS
  1
HATCH
  2
AcDbHatch
  3
"ACAD_SEDONA"
 90
        0
280
         0
281
         1
  0
CLASS
  1
DICTIONARYVAR
  2
AcDbDictionaryVar
  3
"AutoCAD"
 90
        0
280
         0
281
         0
  0
CLASS
  1
RASTERVARIABLES
  2
AcDbRasterVariables
  3
ISM
 90
        0
280
         0
281
         0
  0
CLASS
  1
IMAGEDEF
  2
AcDbRasterImageDef
  3
ISM
 90
        0
280
         0
281
         0
  0
CLASS
  1
IMAGEDEF_REACTOR
  2
AcDbRasterImageDefReactor
  3
ISM
 90
        1
280
         0
281
         0
  0
CLASS
  1
IDBUFFER
  2
AcDbIdBuffer
  3
"Acad"
 90
        0
280
         0
281
         0
  0
CLASS
  1
SPATIAL_FILTER
  2
AcDbSpatialFilter
  3
"Acad"
 90
        0
280
         0
281
         0
  0
CLASS
  1
XRECORD
  2
AcDbXrecord
  3
"<Built In>"
 90
        0
280
         0
281
         0
  0
CLASS
  1
SORTENTSTABLE
  2
AcDbSortentsTable
  3
"AutoCAD"
 90
        0
280
         0
281
         0
  0
CLASS
  1
LAYER_INDEX
  2
AcDbLayerIndex
  3
"Acad"
 90
        0
280
         0
281
         0
  0
CLASS
  1
SPATIAL_INDEX
  2
AcDbSpatialIndex
  3
"Acad"
 90
        0
280
         0
281
         0
  0
CLASS
  1
OBJECT_PTR
  2
CAseDLPNTableRecord
  3
"ASE-LPNTableRecord"
 90
        1
280
         0
281
         0
  0
CLASS
  1
LAYOUT
  2
AcDbLayout
  3
"AutoCAD 2000"
 90
        0
280
         0
281
         0
  0
CLASS
  1
PLOTSETTINGS
  2
AcDbPlotSettings
  3
"AutoCAD 2000"
 90
        0
280
         0
281
         0
  0
CLASS
  1
ACDBDICTIONARYWDFLT
  2
AcDbDictionaryWithDefault
  3
"AutoCAD 2000"
 90
        0
280
         0
281
         0
  0
CLASS
  1
ACDBPLACEHOLDER
  2
AcDbPlaceHolder
  3
"AutoCAD 2000"
 90
        0
280
         0
281
         0
  0
ENDSEC
  0
SECTION
  2
TABLES
  0
TABLE
  2
VPORT
  5
7
100
AcDbSymbolTable
 70
         1
  0
VPORT
  5
15
100
AcDbSymbolTableRecord
100
AcDbViewportTableRecord
  2
*ACTIVE
 70
         0
 10
0.0
 20
0.0
 11
1.0
 21
1.0
 12
-19.2152342797
 22
-76.4264121056
 13
0.0
 23
0.0
 14
1.0
 24
1.0
 15
0.0
 25
0.0
 16
0.0
 26
0.0
 36
1.0
 17
0.0
 27
0.0
 37
0.0
 40
401.0752491092
 41
1.7320508076
 42
50.0
 43
0.0
 44
0.0
 50
0.0
 51
0.0
 71
         0
 72
       100
 73
         1
 74
         1
 75
         0
 76
         0
 77
         0
 78
         0
  0
ENDTAB
  0
TABLE
  2
LTYPE
  5
4
100
AcDbSymbolTable
 70
         4
  0
LTYPE
  5
11
100
AcDbSymbolTableRecord
100
AcDbLinetypeTableRecord
  2
BYBLOCK
 70
        64
  3

 72
        65
 73
         0
 40
0.0
  0
LTYPE
  5
12
100
AcDbSymbolTableRecord
100
AcDbLinetypeTableRecord
  2
BYLAYER
 70
        64
  3

 72
        65
 73
         0
 40
0.0
  0
LTYPE
  5
13
100
AcDbSymbolTableRecord
100
AcDbLinetypeTableRecord
  2
CONTINUOUS
 70
        64
  3
Solid line
 72
        65
 73
         0
 40
0.0
  0
LTYPE
  5
5D
100
AcDbSymbolTableRecord
100
AcDbLinetypeTableRecord
  2
CENTER
 70
        64
  3
Center ____ _ ____ _ ____ _ ____ _ ____ _ ____
 72
        65
 73
         4
 40
50.8
 49
31.75
 74
         0
 49
-6.35
 74
         0
 49
6.35
 74
         0
 49
-6.35
 74
         0
  0
ENDTAB
  0
TABLE
  2
LAYER
  5
2
100
AcDbSymbolTable
 70
         3
  0
LAYER
  5
14
100
AcDbSymbolTableRecord
100
AcDbLayerTableRecord
  2
0
 70
         0
 62
         7
  6
CONTINUOUS
  0
LAYER
  5
1D
100
AcDbSymbolTableRecord
100
AcDbLayerTableRecord
  2
DEFPOINTS
 70
         0
 62
         7
  6
CONTINUOUS
  0
LAYER
  5
1E
100
AcDbSymbolTableRecord
100
AcDbLayerTableRecord
  2
LY_3
 70
         0
 62
         7
  6
CONTINUOUS
  0
ENDTAB
  0
TABLE
  2
STYLE
  5
3
100
AcDbSymbolTable
 70
         1
  0
STYLE
  5
17
100
AcDbSymbolTableRecord
100
AcDbTextStyleTableRecord
  2
MX_NOTE_STANDARD
 70
         0
 40
0.0
 41
1.0
 50
0.0
 71
         0
 42
3.2000000477
  3
txt.shx
  4
extfont.shx
  0
ENDTAB
  0
TABLE
  2
VIEW
  5
5
100
AcDbSymbolTable
 70
         0
  0
ENDTAB
  0
TABLE
  2
UCS
  5
6
100
AcDbSymbolTable
 70
         0
  0
ENDTAB
  0
TABLE
  2
APPID
  5
8
100
AcDbSymbolTable
 70
         1
  0
APPID
  5
16
100
AcDbSymbolTableRecord
100
AcDbRegAppTableRecord
  2
ACAD
 70
         0
  0
ENDTAB
  0
TABLE
  2
DIMSTYLE
  5
9
100
AcDbSymbolTable
 70
         1
  0
DIMSTYLE
105
18
100
AcDbSymbolTableRecord
100
AcDbDimStyleTableRecord
  2
MXDIMSTYLE
 70
         0
  3

  4

  5

  6
_OPEN30
  7
_OPEN30
 40
1.0
 41
2.5
 42
0.0
 43
3.75
 44
2.5
 45
0.0
 46
0.0
 47
0.0
 48
0.0
 71
         0
 72
         0
 73
         0
 74
         0
 75
         0
 76
         0
 77
         1
 78
         8
140
3.2000000477
141
2.5
142
0.0
143
0.0393700787
144
1.0
145
0.0
146
1.0
147
1.0
170
         0
171
         4
172
         1
173
         1
174
         0
175
         0
176
         0
177
         0
178
         0
270
         2
271
         2
272
         2
273
         2
274
         4
275
         0
280
         0
281
         0
282
         0
283
         0
284
         0
285
         0
286
         0
287
         3
288
         0
340
17
  0
ENDTAB
  0
TABLE
  2
BLOCK_RECORD
  5
1
100
AcDbSymbolTable
 70
         1
  0
BLOCK_RECORD
  5
A
100
AcDbSymbolTableRecord
100
AcDbBlockTableRecord
  2
*MODEL_SPACE
  0
BLOCK_RECORD
  5
B
100
AcDbSymbolTableRecord
100
AcDbBlockTableRecord
  2
*PAPER_SPACE
  0
BLOCK_RECORD
  5
1F
100
AcDbSymbolTableRecord
100
AcDbBlockTableRecord
  2
_OPEN30
  0
ENDTAB
  0
ENDSEC
  0
SECTION
  2
BLOCKS
  0
BLOCK
  5
D
100
AcDbEntity
  8
0
100
AcDbBlockBegin
  2
*MODEL_SPACE
 70
         0
 10
0.0
 20
0.0
 30
0.0
  3
*MODEL_SPACE
  1

  0
ENDBLK
  5
E
100
AcDbEntity
  8
0
100
AcDbBlockEnd
  0
BLOCK
  5
F
100
AcDbEntity
 67
         1
  8
0
100
AcDbBlockBegin
  2
*PAPER_SPACE
 70
         0
 10
0.0
 20
0.0
 30
0.0
  3
*PAPER_SPACE
  1

  0
ENDBLK
  5
10
100
AcDbEntity
 67
         1
  8
0
100
AcDbBlockEnd
  0
BLOCK
  5
20
100
AcDbEntity
  8
0
  6
ByBlock
 62
         0
100
AcDbBlockBegin
  2
_OPEN30
 70
         2
 10
0.0
 20
0.0
 30
0.0
  3
_OPEN30
  1

  0
LINE
  5
21
100
AcDbEntity
  8
0
  6
ByBlock
 62
         0
100
AcDbLine
 10
-1.0
 20
0.267949
 30
0.0
 11
0.0
 21
0.0
 31
0.0
  0
LINE
  5
22
100
AcDbEntity
  8
0
  6
ByBlock
 62
         0
100
AcDbLine
 10
0.0
 20
0.0
 30
0.0
 11
-1.0
 21
-0.267949
 31
0.0
  0
LINE
  5
23
100
AcDbEntity
  8
0
  6
ByBlock
 62
         0
100
AcDbLine
 10
0.0
 20
0.0
 30
0.0
 11
-1.0
 21
0.0
 31
0.0
  0
ENDBLK
  5
24
100
AcDbEntity
  8
0
  6
ByBlock
 62
         0
100
AcDbBlockEnd
  0
ENDSEC
  0
SECTION
  2
ENTITIES
  0
MTEXT
  5
25
100
AcDbEntity
  8
0
  6
CONTINUOUS
 62
       110
100
AcDbMText
 10
-147.4464030812
 20
117.7423582077
 30
0.0
 40
13.1499996185
 41
0.0
 71
         1
 72
         1
  1
\W1.050;\A1;TSUBAKI
  0
POINT
  5
26
100
AcDbEntity
  8
LY_3
  6
CONTINUOUS
 62
       172
100
AcDbPoint
 10
61.3171844482
 20
-63.9786987305
 30
0.0
  0
POINT
  5
27
100
AcDbEntity
  8
LY_3
  6
CONTINUOUS
 62
       172
100
AcDbPoint
 10
-23.9003601074
 20
-173.9786987305
 30
0.0
  0
POINT
  5
28
100
AcDbEntity
  8
LY_3
  6
CONTINUOUS
 62
       172
100
AcDbPoint
 10
-93.9003448486
 20
-263.978515625
 30
0.0
  0
POINT
  5
29
100
AcDbEntity
  8
LY_3
  6
CONTINUOUS
 62
       172
100
AcDbPoint
 10
-23.9003601074
 20
-263.978515625
 30
0.0
  0
POINT
  5
2A
100
AcDbEntity
  8
LY_3
  6
CONTINUOUS
 62
       172
100
AcDbPoint
 10
61.3171844482
 20
-263.978515625
 30
0.0
  0
POINT
  5
2B
100
AcDbEntity
  8
LY_3
  6
CONTINUOUS
 62
       172
100
AcDbPoint
 10
-93.9003448486
 20
-63.9786987305
 30
0.0
  0
POINT
  5
2C
100
AcDbEntity
  8
LY_3
  6
CONTINUOUS
 62
       172
100
AcDbPoint
 10
-23.9003601074
 20
-63.9786987305
 30
0.0
  0
POINT
  5
2D
100
AcDbEntity
  8
LY_3
  6
CONTINUOUS
 62
       172
100
AcDbPoint
 10
-93.9003448486
 20
-173.9786987305
 30
0.0
  0
POINT
  5
2E
100
AcDbEntity
  8
LY_3
  6
CONTINUOUS
 62
       172
100
AcDbPoint
 10
61.3171844482
 20
-173.9786987305
 30
0.0
  0
LINE
  5
2F
100
AcDbEntity
  8
LY_3
  6
CONTINUOUS
 62
         3
100
AcDbLine
 10
-93.9003448486
 20
-249.6784667969
 30
0.0
 11
-23.9003448486
 21
-249.6784667969
 31
0.0
  0
LINE
  5
30
100
AcDbEntity
  8
LY_3
  6
CONTINUOUS
 62
         3
100
AcDbLine
 10
-93.9003448486
 20
-252.978515625
 30
0.0
 11
-23.9003601074
 21
-252.978515625
 31
0.0
  0
LINE
  5
31
100
AcDbEntity
  8
LY_3
  6
CONTINUOUS
 62
         3
100
AcDbLine
 10
-93.9003448486
 20
-274.978515625
 30
0.0
 11
-23.9003601074
 21
-274.978515625
 31
0.0
  0
LINE
  5
32
100
AcDbEntity
  8
LY_3
  6
CONTINUOUS
 62
         3
100
AcDbLine
 10
57.3171844482
 20
-253.7314453125
 30
0.0
 11
57.3171844482
 21
-249.6784667969
 31
0.0
  0
LINE
  5
33
100
AcDbEntity
  8
LY_3
  6
CONTINUOUS
 62
         3
100
AcDbLine
 10
57.3171844482
 20
-249.6784667969
 30
0.0
 11
65.3171844482
 21
-249.6784667969
 31
0.0
  0
LINE
  5
34
100
AcDbEntity
  8
LY_3
  6
CONTINUOUS
 62
         3
100
AcDbLine
 10
65.3171844482
 20
-249.6784667969
 30
0.0
 11
65.3171844482
 21
-253.7314453125
 31
0.0
  0
LINE
  5
35
100
AcDbEntity
  8
LY_3
  6
CONTINUOUS
 62
         3
100
AcDbLine
 10
-72.2503509521
 20
-37.1307067871
 30
0.0
 11
-45.5503540039
 21
-37.1307067871
 31
0.0
  0
LINE
  5
36
100
AcDbEntity
  8
LY_3
  6
CONTINUOUS
 62
         3
100
AcDbLine
 10
-45.5503540039
 20
-41.4786987305
 30
0.0
 11
-23.9003601074
 21
-41.4786987305
 31
0.0
  0
LINE
  5
37
100
AcDbEntity
  8
LY_3
  6
CONTINUOUS
 62
         3
100
AcDbLine
 10
-23.9003601074
 20
-41.4786987305
 30
0.0
 11
-23.9003601074
 21
-48.9787139893
 31
0.0
  0
LINE
  5
38
100
AcDbEntity
  8
LY_3
  6
CONTINUOUS
 62
         3
100
AcDbLine
 10
-23.9003601074
 20
-86.4786987305
 30
0.0
 11
-45.5503540039
 21
-86.4786987305
 31
0.0
  0
LINE
  5
39
100
AcDbEntity
  8
LY_3
  6
CONTINUOUS
 62
         3
100
AcDbLine
 10
-45.5503540039
 20
-90.8266906738
 30
0.0
 11
-72.2503509521
 21
-90.8266906738
 31
0.0
  0
LINE
  5
3A
100
AcDbEntity
  8
LY_3
  6
CONTINUOUS
 62
         3
100
AcDbLine
 10
-72.2503509521
 20
-86.4786987305
 30
0.0
 11
-93.9003448486
 21
-86.4786987305
 31
0.0
  0
LINE
  5
3B
100
AcDbEntity
  8
LY_3
  6
CONTINUOUS
 62
         3
100
AcDbLine
 10
-93.9003448486
 20
-86.4786987305
 30
0.0
 11
-93.9003448486
 21
-78.9786987305
 31
0.0
  0
LINE
  5
3C
100
AcDbEntity
  8
LY_3
  6
CONTINUOUS
 62
         3
100
AcDbLine
 10
-93.9003448486
 20
-45.6787109375
 30
0.0
 11
-23.9003753662
 21
-45.6787109375
 31
0.0
  0
LINE
  5
3D
100
AcDbEntity
  8
LY_3
  6
CONTINUOUS
 62
         3
100
AcDbLine
 10
-23.9003601074
 20
-78.9786987305
 30
0.0
 11
-93.9003448486
 21
-78.9786987305
 31
0.0
  0
LINE
  5
3E
100
AcDbEntity
  8
LY_3
  6
CONTINUOUS
 62
         3
100
AcDbLine
 10
-92.9003448486
 20
-13.9786987305
 30
0.0
 11
-24.9003448486
 21
-13.9786987305
 31
0.0
  0
LINE
  5
3F
100
AcDbEntity
  8
LY_3
  6
CONTINUOUS
 62
         3
100
AcDbLine
 10
-24.9003448486
 20
-13.9786987305
 30
0.0
 11
-24.9003448486
 21
-41.4786987305
 31
0.0
  0
LINE
  5
40
100
AcDbEntity
  8
LY_3
  6
CONTINUOUS
 62
         3
100
AcDbLine
 10
-24.9003448486
 20
-113.9786987305
 30
0.0
 11
-92.9003448486
 21
-113.9786987305
 31
0.0
  0
LINE
  5
41
100
AcDbEntity
  8
LY_3
  6
CONTINUOUS
 62
         3
100
AcDbLine
 10
-92.9003448486
 20
-113.9786987305
 30
0.0
 11
-92.9003448486
 21
-86.4786987305
 31
0.0
  0
LINE
  5
42
100
AcDbEntity
  8
LY_3
  6
CONTINUOUS
 62
         3
100
AcDbLine
 10
-92.9003448486
 20
-26.4786987305
 30
0.0
 11
-89.7003326416
 21
-26.4786987305
 31
0.0
  0
LINE
  5
43
100
AcDbEntity
  8
LY_3
  6
CONTINUOUS
 62
         3
100
AcDbLine
 10
-88.2003326416
 20
-26.4786987305
 30
0.0
 11
-71.7503509521
 21
-26.4786987305
 31
0.0
  0
LINE
  5
44
100
AcDbEntity
  8
LY_3
  6
CONTINUOUS
 62
         3
100
AcDbLine
 10
-28.1003570557
 20
-26.4786987305
 30
0.0
 11
-24.9003448486
 21
-26.4786987305
 31
0.0
  0
LINE
  5
45
100
AcDbEntity
  8
LY_3
  6
CONTINUOUS
 62
         3
100
AcDbLine
 10
-24.9003448486
 20
-101.4786987305
 30
0.0
 11
-28.1003570557
 21
-101.4786987305
 31
0.0
  0
LINE
  5
46
100
AcDbEntity
  8
LY_3
  6
CONTINUOUS
 62
         3
100
AcDbLine
 10
-29.5503540039
 20
-101.4786987305
 30
0.0
 11
-46.0503540039
 21
-101.4786987305
 31
0.0
  0
LINE
  5
47
100
AcDbEntity
  8
LY_3
  6
CONTINUOUS
 62
         3
100
AcDbLine
 10
-89.7003326416
 20
-101.4786987305
 30
0.0
 11
-92.9003448486
 21
-101.4786987305
 31
0.0
  0
LINE
  5
48
100
AcDbEntity
  8
LY_3
  6
CONTINUOUS
 62
         3
100
AcDbLine
 10
-89.7003326416
 20
-25.2787017822
 30
0.0
 11
-88.2503509521
 21
-25.2787017822
 31
0.0
  0
LINE
  5
49
100
AcDbEntity
  8
LY_3
  6
CONTINUOUS
 62
         3
100
AcDbLine
 10
-29.5503540039
 20
-25.2787017822
 30
0.0
 11
-28.1003570557
 21
-25.2787017822
 31
0.0
  0
LINE
  5
4A
100
AcDbEntity
  8
LY_3
  6
CONTINUOUS
 62
         3
100
AcDbLine
 10
-28.1003570557
 20
-102.6786956787
 30
0.0
 11
-29.5503540039
 21
-102.6786956787
 31
0.0
  0
LINE
  5
4B
100
AcDbEntity
  8
LY_3
  6
CONTINUOUS
 62
         3
100
AcDbLine
 10
-88.2503509521
 20
-102.6786956787
 30
0.0
 11
-89.7003326416
 21
-102.6786956787
 31
0.0
  0
LINE
  5
4C
100
AcDbEntity
  8
LY_3
  6
CONTINUOUS
 62
         3
100
AcDbLine
 10
-89.7003326416
 20
-25.2787017822
 30
0.0
 11
-89.7003326416
 21
-41.4786987305
 31
0.0
  0
LINE
  5
4D
100
AcDbEntity
  8
LY_3
  6
CONTINUOUS
 62
         3
100
AcDbLine
 10
-28.1003570557
 20
-25.2787017822
 30
0.0
 11
-28.1003570557
 21
-41.4786987305
 31
0.0
  0
LINE
  5
4E
100
AcDbEntity
  8
LY_3
  6
CONTINUOUS
 62
         3
100
AcDbLine
 10
-71.7503509521
 20
-30.8442077637
 30
0.0
 11
-46.0503540039
 21
-30.8442077637
 31
0.0
  0
LINE
  5
4F
100
AcDbEntity
  8
LY_3
  6
CONTINUOUS
 62
         3
100
AcDbLine
 10
-71.7503509521
 20
-97.1131896973
 30
0.0
 11
-46.0503540039
 21
-97.1131896973
 31
0.0
  0
LINE
  5
50
100
AcDbEntity
  8
LY_3
  6
CONTINUOUS
 62
         3
100
AcDbLine
 10
-71.7503509521
 20
-101.4786987305
 30
0.0
 11
-71.7503509521
 21
-90.8266906738
 31
0.0
  0
LINE
  5
51
100
AcDbEntity
  8
LY_3
  6
CONTINUOUS
 62
         3
100
AcDbLine
 10
-46.0503540039
 20
-26.4786987305
 30
0.0
 11
-46.0503540039
 21
-37.1040802002
 31
0.0
  0
LINE
  5
52
100
AcDbEntity
  8
LY_3
  6
CONTINUOUS
 62
         3
100
AcDbLine
 10
-71.7503509521
 20
-37.1040802002
 30
0.0
 11
-71.7503509521
 21
-26.4786987305
 31
0.0
  0
LINE
  5
53
100
AcDbEntity
  8
LY_3
  6
CONTINUOUS
 62
         3
100
AcDbLine
 10
-46.0503540039
 20
-90.8266906738
 30
0.0
 11
-46.0503540039
 21
-101.4786987305
 31
0.0
  0
LINE
  5
54
100
AcDbEntity
  8
LY_3
  6
CONTINUOUS
 62
         3
100
AcDbLine
 10
-89.7003326416
 20
-86.4786987305
 30
0.0
 11
-89.7003326416
 21
-102.6786804199
 31
0.0
  0
LINE
  5
55
100
AcDbEntity
  8
LY_3
  6
CONTINUOUS
 62
         3
100
AcDbLine
 10
-92.9003448486
 20
-41.4786987305
 30
0.0
 11
-92.9003448486
 21
-13.9786987305
 31
0.0
  0
LINE
  5
56
100
AcDbEntity
  8
LY_3
  6
CONTINUOUS
 62
         3
100
AcDbLine
 10
-28.1003570557
 20
-86.4786987305
 30
0.0
 11
-28.1003570557
 21
-102.6786804199
 31
0.0
  0
LINE
  5
57
100
AcDbEntity
  8
LY_3
  6
CONTINUOUS
 62
         3
100
AcDbLine
 10
-24.9003448486
 20
-86.4786987305
 30
0.0
 11
-24.9003448486
 21
-113.9786987305
 31
0.0
  0
LINE
  5
58
100
AcDbEntity
  8
LY_3
  6
CONTINUOUS
 62
         3
100
AcDbLine
 10
-46.0503540039
 20
-26.4786987305
 30
0.0
 11
-29.6003570557
 21
-26.4786987305
 31
0.0
  0
LINE
  5
59
100
AcDbEntity
  8
LY_3
  6
CONTINUOUS
 62
         3
100
AcDbLine
 10
-71.7503509521
 20
-101.4786987305
 30
0.0
 11
-88.2003173828
 21
-101.4786987305
 31
0.0
  0
LINE
  5
5A
100
AcDbEntity
  8
LY_3
  6
CONTINUOUS
 62
         3
100
AcDbLine
 10
-45.5503540039
 20
-26.4786987305
 30
0.0
 11
-45.5503540039
 21
-41.4786987305
 31
0.0
  0
LINE
  5
5B
100
AcDbEntity
  8
LY_3
  6
CONTINUOUS
 62
         3
100
AcDbLine
 10
-45.5503540039
 20
-86.4786987305
 30
0.0
 11
-45.5503540039
 21
-101.4786987305
 31
0.0
  0
LINE
  5
5C
100
AcDbEntity
  8
LY_3
  6
CONTINUOUS
 62
         3
100
AcDbLine
 10
-72.2503509521
 20
-101.4786987305
 30
0.0
 11
-72.2503509521
 21
-86.4786987305
 31
0.0
  0
LINE
  5
5E
100
AcDbEntity
  8
LY_3
  6
CENTER
 62
        80
100
AcDbLine
 10
103.7462600866
 20
-39.4822227437
 30
0.0
 11
95.2934734685
 21
-44.3624408789
 31
0.0
  0
LINE
  5
5F
100
AcDbEntity
  8
LY_3
  6
CONTINUOUS
 62
         3
100
AcDbLine
 10
56.3171844482
 20
-49.8365631104
 30
0.0
 11
56.3171844482
 21
-45.6787109375
 31
0.0
  0
LINE
  5
60
100
AcDbEntity
  8
LY_3
  6
CONTINUOUS
 62
         3
100
AcDbLine
 10
56.3171844482
 20
-45.6787109375
 30
0.0
 11
66.3171844482
 21
-45.6787109375
 31
0.0
  0
LINE
  5
61
100
AcDbEntity
  8
LY_3
  6
CONTINUOUS
 62
         3
100
AcDbLine
 10
66.3171844482
 20
-45.6787109375
 30
0.0
 11
66.3171844482
 21
-49.8365631104
 31
0.0
  0
LINE
  5
62
100
AcDbEntity
  8
LY_3
  6
CENTER
 62
        80
100
AcDbLine
 10
61.3171844482
 20
-14.9857635498
 30
0.0
 11
61.3171844482
 21
-24.7462158203
 31
0.0
  0
LINE
  5
63
100
AcDbEntity
  8
LY_3
  6
CENTER
 62
        80
100
AcDbLine
 10
18.8880478695
 20
-39.4822371922
 30
0.0
 11
27.3408474502
 21
-44.3624633931
 31
0.0
  0
LINE
  5
64
100
AcDbEntity
  8
LY_3
  6
CENTER
 62
        80
100
AcDbLine
 10
18.8880522665
 20
-88.4751445299
 30
0.0
 11
27.3408388847
 21
-83.5949263946
 31
0.0
  0
LINE
  5
65
100
AcDbEntity
  8
LY_3
  6
CENTER
 62
        80
100
AcDbLine
 10
61.317164236
 20
-112.9716060821
 30
0.0
 11
61.3171646639
 21
-103.2111690704
 31
0.0
  0
LINE
  5
66
100
AcDbEntity
  8
LY_3
  6
CENTER
 62
        80
100
AcDbLine
 10
103.7462657827
 20
-88.4751400216
 30
0.0
 11
95.2934795619
 21
-83.5949211981
 31
0.0
  0
LINE
  5
67
100
AcDbEntity
  8
LY_3
  6
CONTINUOUS
 62
         3
100
AcDbLine
 10
-89.7003326416
 20
-29.2887115479
 30
0.0
 11
-88.268447876
 21
-29.2887115479
 31
0.0
  0
LINE
  5
68
100
AcDbEntity
  8
LY_3
  6
CONTINUOUS
 62
         3
100
AcDbLine
 10
-29.5395507813
 20
-29.2887115479
 30
0.0
 11
-28.1003570557
 21
-29.2887115479
 31
0.0
  0
LINE
  5
69
100
AcDbEntity
  8
LY_3
  6
CONTINUOUS
 62
         3
100
AcDbLine
 10
-28.1003570557
 20
-98.6686859131
 30
0.0
 11
-29.5503540039
 21
-98.6686859131
 31
0.0
  0
LINE
  5
6A
100
AcDbEntity
  8
LY_3
  6
CONTINUOUS
 62
         3
100
AcDbLine
 10
-88.268371582
 20
-98.6686859131
 30
0.0
 11
-89.7003326416
 21
-98.6686859131
 31
0.0
  0
LINE
  5
6B
100
AcDbEntity
  8
LY_3
  6
CONTINUOUS
 62
        80
100
AcDbLine
 10
-92.9003448486
 20
-15.9786987305
 30
0.0
 11
-76.9003448486
 21
-15.9786987305
 31
0.0
  0
LINE
  5
6C
100
AcDbEntity
  8
LY_3
  6
CONTINUOUS
 62
        80
100
AcDbLine
 10
-92.9003448486
 20
-23.9786987305
 30
0.0
 11
-76.9003448486
 21
-23.9786987305
 31
0.0
  0
LINE
  5
6D
100
AcDbEntity
  8
LY_3
  6
CONTINUOUS
 62
         3
100
AcDbLine
 10
-76.9003448486
 20
-15.9786987305
 30
0.0
 11
-76.9003448486
 21
-23.9786987305
 31
0.0
  0
LINE
  5
6E
100
AcDbEntity
  8
LY_3
  6
CONTINUOUS
 62
         3
100
AcDbLine
 10
-70.6003570557
 20
-16.5287017822
 30
0.0
 11
-70.6003570557
 21
-23.4287109375
 31
0.0
  0
LINE
  5
6F
100
AcDbEntity
  8
LY_3
  6
CONTINUOUS
 62
         3
100
AcDbLine
 10
-92.9003448486
 20
-16.5287017822
 30
0.0
 11
-70.6003570557
 21
-16.5287017822
 31
0.0
  0
LINE
  5
70
100
AcDbEntity
  8
LY_3
  6
CONTINUOUS
 62
         3
100
AcDbLine
 10
-92.9003448486
 20
-23.4287109375
 30
0.0
 11
-70.6003570557
 21
-23.4287109375
 31
0.0
  0
LINE
  5
71
100
AcDbEntity
  8
LY_3
  6
CONTINUOUS
 62
         3
100
AcDbLine
 10
-68.5273751871
 20
-19.9787090921
 30
0.0
 11
-70.6003453784
 21
-16.5287075511
 31
0.0
  0
LINE
  5
72
100
AcDbEntity
  8
LY_3
  6
CONTINUOUS
 62
         3
100
AcDbLine
 10
-70.600343379
 20
-23.4287017855
 30
0.0
 11
-68.5273731877
 21
-19.9787002446
 31
0.0
  0
LINE
  5
73
100
AcDbEntity
  8
LY_3
  6
CONTINUOUS
 62
        80
100
AcDbLine
 10
-92.9003448486
 20
-103.9786987305
 30
0.0
 11
-76.9003448486
 21
-103.9786987305
 31
0.0
  0
LINE
  5
74
100
AcDbEntity
  8
LY_3
  6
CONTINUOUS
 62
        80
100
AcDbLine
 10
-92.9003448486
 20
-111.9786987305
 30
0.0
 11
-76.9003448486
 21
-111.9786987305
 31
0.0
  0
LINE
  5
75
100
AcDbEntity
  8
LY_3
  6
CONTINUOUS
 62
         3
100
AcDbLine
 10
-76.9003448486
 20
-103.9786987305
 30
0.0
 11
-76.9003448486
 21
-111.9786987305
 31
0.0
  0
LINE
  5
76
100
AcDbEntity
  8
LY_3
  6
CONTINUOUS
 62
         3
100
AcDbLine
 10
-70.6003570557
 20
-104.5286865234
 30
0.0
 11
-70.6003570557
 21
-111.4286956787
 31
0.0
  0
LINE
  5
77
100
AcDbEntity
  8
LY_3
  6
CONTINUOUS
 62
         3
100
AcDbLine
 10
-92.9003448486
 20
-104.5286865234
 30
0.0
 11
-70.6003570557
 21
-104.5286865234
 31
0.0
  0
LINE
  5
78
100
AcDbEntity
  8
LY_3
  6
CONTINUOUS
 62
         3
100
AcDbLine
 10
-92.9003448486
 20
-111.4286956787
 30
0.0
 11
-70.6003570557
 21
-111.4286956787
 31
0.0
  0
LINE
  5
79
100
AcDbEntity
  8
LY_3
  6
CONTINUOUS
 62
         3
100
AcDbLine
 10
-68.5273936081
 20
-107.9786712929
 30
0.0
 11
-70.6003637994
 21
-104.528669752
 31
0.0
  0
LINE
  5
7A
100
AcDbEntity
  8
LY_3
  6
CONTINUOUS
 62
         3
100
AcDbLine
 10
-70.6003450788
 20
-111.4286696981
 30
0.0
 11
-68.5273748874
 21
-107.9786681571
 31
0.0
  0
LINE
  5
7B
100
AcDbEntity
  8
LY_3
  6
CONTINUOUS
 62
        80
100
AcDbLine
 10
-40.9003448486
 20
-15.9786987305
 30
0.0
 11
-24.9003448486
 21
-15.9786987305
 31
0.0
  0
LINE
  5
7C
100
AcDbEntity
  8
LY_3
  6
CONTINUOUS
 62
        80
100
AcDbLine
 10
-40.9003448486
 20
-23.9786987305
 30
0.0
 11
-24.9003448486
 21
-23.9786987305
 31
0.0
  0
LINE
  5
7D
100
AcDbEntity
  8
LY_3
  6
CONTINUOUS
 62
         3
100
AcDbLine
 10
-40.9003448486
 20
-23.9786987305
 30
0.0
 11
-40.9003448486
 21
-15.9786987305
 31
0.0
  0
LINE
  5
7E
100
AcDbEntity
  8
LY_3
  6
CONTINUOUS
 62
         3
100
AcDbLine
 10
-47.2003326416
 20
-23.4287109375
 30
0.0
 11
-47.2003326416
 21
-16.5287017822
 31
0.0
  0
LINE
  5
7F
100
AcDbEntity
  8
LY_3
  6
CONTINUOUS
 62
         3
100
AcDbLine
 10
-47.2003326416
 20
-16.5287017822
 30
0.0
 11
-24.9003448486
 21
-16.5287017822
 31
0.0
  0
LINE
  5
80
100
AcDbEntity
  8
LY_3
  6
CONTINUOUS
 62
         3
100
AcDbLine
 10
-47.2003326416
 20
-23.4287109375
 30
0.0
 11
-24.9003448486
 21
-23.4287109375
 31
0.0
  0
LINE
  5
81
100
AcDbEntity
  8
LY_3
  6
CONTINUOUS
 62
         3
100
AcDbLine
 10
-47.2003333905
 20
-16.5287155717
 30
0.0
 11
-49.2733035818
 21
-19.9787171127
 31
0.0
  0
LINE
  5
82
100
AcDbEntity
  8
LY_3
  6
CONTINUOUS
 62
         3
100
AcDbLine
 10
-49.2732918283
 20
-19.9787151128
 30
0.0
 11
-47.2003216369
 21
-23.4287166537
 31
0.0
  0
LINE
  5
83
100
AcDbEntity
  8
LY_3
  6
CONTINUOUS
 62
        80
100
AcDbLine
 10
-40.9003448486
 20
-103.9786987305
 30
0.0
 11
-24.9003448486
 21
-103.9786987305
 31
0.0
  0
LINE
  5
84
100
AcDbEntity
  8
LY_3
  6
CONTINUOUS
 62
        80
100
AcDbLine
 10
-40.9003448486
 20
-111.9786987305
 30
0.0
 11
-24.9003448486
 21
-111.9786987305
 31
0.0
  0
LINE
  5
85
100
AcDbEntity
  8
LY_3
  6
CONTINUOUS
 62
         3
100
AcDbLine
 10
-40.9003448486
 20
-111.9786987305
 30
0.0
 11
-40.9003448486
 21
-103.9786987305
 31
0.0
  0
LINE
  5
86
100
AcDbEntity
  8
LY_3
  6
CONTINUOUS
 62
         3
100
AcDbLine
 10
-47.2003326416
 20
-111.4286956787
 30
0.0
 11
-47.2003326416
 21
-104.5286865234
 31
0.0
  0
LINE
  5
87
100
AcDbEntity
  8
LY_3
  6
CONTINUOUS
 62
         3
100
AcDbLine
 10
-47.2003326416
 20
-104.5286865234
 30
0.0
 11
-24.9003448486
 21
-104.5286865234
 31
0.0
  0
LINE
  5
88
100
AcDbEntity
  8
LY_3
  6
CONTINUOUS
 62
         3
100
AcDbLine
 10
-47.2003326416
 20
-111.4286956787
 30
0.0
 11
-24.9003448486
 21
-111.4286956787
 31
0.0
  0
LINE
  5
89
100
AcDbEntity
  8
LY_3
  6
CONTINUOUS
 62
         3
100
AcDbLine
 10
-47.2003359077
 20
-104.5286829931
 30
0.0
 11
-49.2733060991
 21
-107.978684534
 31
0.0
  0
LINE
  5
8A
100
AcDbEntity
  8
LY_3
  6
CONTINUOUS
 62
         3
100
AcDbLine
 10
-49.2733161434
 20
-107.9786675042
 30
0.0
 11
-47.200345952
 21
-111.4286690451
 31
0.0
  0
LINE
  5
8B
100
AcDbEntity
  8
LY_3
  6
CONTINUOUS
 62
         3
100
AcDbLine
 10
-93.9003448486
 20
-48.9787139893
 30
0.0
 11
-23.9003601074
 21
-48.9787139893
 31
0.0
  0
LINE
  5
8C
100
AcDbEntity
  8
LY_3
  6
CONTINUOUS
 62
         3
100
AcDbLine
 10
-72.7803497314
 20
-28.5984954834
 30
0.0
 11
-72.7803497314
 21
-34.0460510254
 31
0.0
  0
LINE
  5
8D
100
AcDbEntity
  8
LY_3
  6
CONTINUOUS
 62
         3
100
AcDbLine
 10
-76.743347168
 20
-31.3787078857
 30
0.0
 11
-72.2503509521
 21
-31.3787078857
 31
0.0
  0
LINE
  5
8E
100
AcDbEntity
  8
LY_3
  6
CONTINUOUS
 62
         3
100
AcDbLine
 10
-88.2503509521
 20
-31.3787078857
 30
0.0
 11
-83.7573394775
 21
-31.3787078857
 31
0.0
  0
LINE
  5
8F
100
AcDbEntity
  8
LY_3
  6
CONTINUOUS
 62
         3
100
AcDbLine
 10
-87.7203369141
 20
-28.5984954834
 30
0.0
 11
-87.7203369141
 21
-34.0460510254
 31
0.0
  0
LINE
  5
90
100
AcDbEntity
  8
LY_3
  6
CONTINUOUS
 62
         3
100
AcDbLine
 10
-88.2503509521
 20
-25.2787017822
 30
0.0
 11
-88.2503509521
 21
-41.4786987305
 31
0.0
  0
LINE
  5
91
100
AcDbEntity
  8
LY_3
  6
CONTINUOUS
 62
         3
100
AcDbLine
 10
-72.2503509521
 20
-26.4786987305
 30
0.0
 11
-72.2503509521
 21
-41.4786987305
 31
0.0
  0
LINE
  5
92
100
AcDbEntity
  8
LY_3
  6
CONTINUOUS
 62
         3
100
AcDbLine
 10
-76.743347168
 20
-96.578704834
 30
0.0
 11
-72.2503509521
 21
-96.578704834
 31
0.0
  0
LINE
  5
93
100
AcDbEntity
  8
LY_3
  6
CONTINUOUS
 62
         3
100
AcDbLine
 10
-88.2503509521
 20
-96.578704834
 30
0.0
 11
-83.7573394775
 21
-96.578704834
 31
0.0
  0
LINE
  5
94
100
AcDbEntity
  8
LY_3
  6
CONTINUOUS
 62
         3
100
AcDbLine
 10
-88.2503509521
 20
-102.6786956787
 30
0.0
 11
-88.2503509521
 21
-86.4786987305
 31
0.0
  0
LINE
  5
95
100
AcDbEntity
  8
LY_3
  6
CONTINUOUS
 62
         3
100
AcDbLine
 10
-76.743347168
 20
-91.378692627
 30
0.0
 11
-72.2503509521
 21
-91.378692627
 31
0.0
  0
LINE
  5
96
100
AcDbEntity
  8
LY_3
  6
CONTINUOUS
 62
         3
100
AcDbLine
 10
-88.2503509521
 20
-91.378692627
 30
0.0
 11
-83.7573394775
 21
-91.378692627
 31
0.0
  0
LINE
  5
97
100
AcDbEntity
  8
LY_3
  6
CONTINUOUS
 62
         3
100
AcDbLine
 10
-87.7203369141
 20
-99.3589019775
 30
0.0
 11
-87.7203369141
 21
-93.9113464355
 31
0.0
  0
LINE
  5
98
100
AcDbEntity
  8
LY_3
  6
CONTINUOUS
 62
         3
100
AcDbLine
 10
-72.7803497314
 20
-99.3589019775
 30
0.0
 11
-72.7803497314
 21
-93.9113464355
 31
0.0
  0
LINE
  5
99
100
AcDbEntity
  8
LY_3
  6
CONTINUOUS
 62
         3
100
AcDbLine
 10
-88.2503509521
 20
-36.578704834
 30
0.0
 11
-83.7573394775
 21
-36.578704834
 31
0.0
  0
LINE
  5
9A
100
AcDbEntity
  8
LY_3
  6
CONTINUOUS
 62
         3
100
AcDbLine
 10
-76.743347168
 20
-36.578704834
 30
0.0
 11
-72.2503509521
 21
-36.578704834
 31
0.0
  0
LINE
  5
9B
100
AcDbEntity
  8
LY_3
  6
CONTINUOUS
 62
         3
100
AcDbLine
 10
-93.9003448486
 20
-41.4786987305
 30
0.0
 11
-72.2503509521
 21
-41.4786987305
 31
0.0
  0
LINE
  5
9C
100
AcDbEntity
  8
LY_3
  6
CONTINUOUS
 62
         3
100
AcDbLine
 10
-30.0803527832
 20
-28.5984954834
 30
0.0
 11
-30.0803527832
 21
-34.0460510254
 31
0.0
  0
LINE
  5
9D
100
AcDbEntity
  8
LY_3
  6
CONTINUOUS
 62
         3
100
AcDbLine
 10
-34.0433502197
 20
-31.3787078857
 30
0.0
 11
-29.5503540039
 21
-31.3787078857
 31
0.0
  0
LINE
  5
9E
100
AcDbEntity
  8
LY_3
  6
CONTINUOUS
 62
         3
100
AcDbLine
 10
-45.5503540039
 20
-31.3787078857
 30
0.0
 11
-41.0573425293
 21
-31.3787078857
 31
0.0
  0
LINE
  5
9F
100
AcDbEntity
  8
LY_3
  6
CONTINUOUS
 62
         3
100
AcDbLine
 10
-45.0203399658
 20
-28.5984954834
 30
0.0
 11
-45.0203399658
 21
-34.0460510254
 31
0.0
  0
LINE
  5
A0
100
AcDbEntity
  8
LY_3
  6
CONTINUOUS
 62
         3
100
AcDbLine
 10
-29.5503540039
 20
-25.2787017822
 30
0.0
 11
-29.5503540039
 21
-41.4786987305
 31
0.0
  0
LINE
  5
A1
100
AcDbEntity
  8
LY_3
  6
CONTINUOUS
 62
         3
100
AcDbLine
 10
-34.0433502197
 20
-96.578704834
 30
0.0
 11
-29.5503540039
 21
-96.578704834
 31
0.0
  0
LINE
  5
A2
100
AcDbEntity
  8
LY_3
  6
CONTINUOUS
 62
         3
100
AcDbLine
 10
-45.5503540039
 20
-96.578704834
 30
0.0
 11
-41.0573425293
 21
-96.578704834
 31
0.0
  0
LINE
  5
A3
100
AcDbEntity
  8
LY_3
  6
CONTINUOUS
 62
         3
100
AcDbLine
 10
-29.5503540039
 20
-102.6786956787
 30
0.0
 11
-29.5503540039
 21
-86.4786987305
 31
0.0
  0
LINE
  5
A4
100
AcDbEntity
  8
LY_3
  6
CONTINUOUS
 62
         3
100
AcDbLine
 10
-34.0433502197
 20
-91.378692627
 30
0.0
 11
-29.5503540039
 21
-91.378692627
 31
0.0
  0
LINE
  5
A5
100
AcDbEntity
  8
LY_3
  6
CONTINUOUS
 62
         3
100
AcDbLine
 10
-45.5503540039
 20
-91.378692627
 30
0.0
 11
-41.0573425293
 21
-91.378692627
 31
0.0
  0
LINE
  5
A6
100
AcDbEntity
  8
LY_3
  6
CONTINUOUS
 62
         3
100
AcDbLine
 10
-45.0203399658
 20
-99.3589019775
 30
0.0
 11
-45.0203399658
 21
-93.9113464355
 31
0.0
  0
LINE
  5
A7
100
AcDbEntity
  8
LY_3
  6
CONTINUOUS
 62
         3
100
AcDbLine
 10
-30.0803527832
 20
-99.3589019775
 30
0.0
 11
-30.0803527832
 21
-93.9113464355
 31
0.0
  0
LINE
  5
A8
100
AcDbEntity
  8
LY_3
  6
CONTINUOUS
 62
         3
100
AcDbLine
 10
-45.5503540039
 20
-36.578704834
 30
0.0
 11
-41.0573425293
 21
-36.578704834
 31
0.0
  0
LINE
  5
A9
100
AcDbEntity
  8
LY_3
  6
CONTINUOUS
 62
         3
100
AcDbLine
 10
-34.0433502197
 20
-36.578704834
 30
0.0
 11
-29.5503540039
 21
-36.578704834
 31
0.0
  0
LINE
  5
AA
100
AcDbEntity
  8
LY_3
  6
CONTINUOUS
 62
         3
100
AcDbLine
 10
-69.2403411865
 20
-35.2120056152
 30
0.0
 11
-69.2403411865
 21
-37.1307067871
 31
0.0
  0
LINE
  5
AB
100
AcDbEntity
  8
LY_3
  6
CONTINUOUS
 62
         3
100
AcDbLine
 10
-48.5603485107
 20
-35.2120056152
 30
0.0
 11
-48.5603485107
 21
-37.1182098389
 31
0.0
  0
LINE
  5
AC
100
AcDbEntity
  8
LY_3
  6
CONTINUOUS
 62
         3
100
AcDbLine
 10
-71.7503438877
 20
-34.4679784593
 30
0.0
 11
-70.3678424359
 21
-34.2490117998
 31
0.0
  0
LINE
  5
AD
100
AcDbEntity
  8
LY_3
  6
CONTINUOUS
 62
         3
100
AcDbLine
 10
-47.4328037931
 20
-34.24900558
 30
0.0
 11
-46.0503475541
 21
-34.4679650784
 31
0.0
  0
LINE
  5
AE
100
AcDbEntity
  8
LY_3
  6
CONTINUOUS
 62
         3
100
AcDbLine
 10
-48.5603179932
 20
-92.7453918457
 30
0.0
 11
-48.5603179932
 21
-90.826675415
 31
0.0
  0
LINE
  5
AF
100
AcDbEntity
  8
LY_3
  6
CONTINUOUS
 62
         3
100
AcDbLine
 10
-69.2403106689
 20
-92.7453918457
 30
0.0
 11
-69.2403106689
 21
-90.8391876221
 31
0.0
  0
LINE
  5
B0
100
AcDbEntity
  8
LY_3
  6
CONTINUOUS
 62
         3
100
AcDbLine
 10
-46.0503472911
 20
-93.4894053916
 30
0.0
 11
-47.4328186011
 21
-93.7083672771
 31
0.0
  0
LINE
  5
B1
100
AcDbEntity
  8
LY_3
  6
CONTINUOUS
 62
         3
100
AcDbLine
 10
-70.3678450858
 20
-93.7083737412
 30
0.0
 11
-71.7503314667
 21
-93.4894094687
 31
0.0
  0
LINE
  5
B2
100
AcDbEntity
  8
LY_3
  6
CONTINUOUS
 62
         3
100
AcDbLine
 10
-93.9003448486
 20
-48.9787139893
 30
0.0
 11
-93.9003448486
 21
-41.4786987305
 31
0.0
  0
LINE
  5
B3
100
AcDbEntity
  8
LY_3
  6
CONTINUOUS
 62
         3
100
AcDbLine
 10
-23.9003601074
 20
-78.9786987305
 30
0.0
 11
-23.9003601074
 21
-86.4786987305
 31
0.0
  0
LINE
  5
B4
100
AcDbEntity
  8
LY_3
  6
CONTINUOUS
 62
         3
100
AcDbLine
 10
-93.9003448486
 20
-158.1787109375
 30
0.0
 11
-23.9003448486
 21
-158.1787109375
 31
0.0
  0
LINE
  5
B5
100
AcDbEntity
  8
LY_3
  6
CONTINUOUS
 62
         3
100
AcDbLine
 10
-93.9003448486
 20
-161.4786987305
 30
0.0
 11
-23.9003601074
 21
-161.4786987305
 31
0.0
  0
LINE
  5
B6
100
AcDbEntity
  8
LY_3
  6
CONTINUOUS
 62
         3
100
AcDbLine
 10
-93.9003448486
 20
-186.4786987305
 30
0.0
 11
-23.9003601074
 21
-186.4786987305
 31
0.0
  0
LINE
  5
B7
100
AcDbEntity
  8
LY_3
  6
CONTINUOUS
 62
         3
100
AcDbLine
 10
57.3171844482
 20
-162.1359863281
 30
0.0
 11
57.3171844482
 21
-158.1787109375
 31
0.0
  0
LINE
  5
B8
100
AcDbEntity
  8
LY_3
  6
CONTINUOUS
 62
         3
100
AcDbLine
 10
57.3171844482
 20
-158.1787109375
 30
0.0
 11
65.3171844482
 21
-158.1787109375
 31
0.0
  0
LINE
  5
B9
100
AcDbEntity
  8
LY_3
  6
CONTINUOUS
 62
         3
100
AcDbLine
 10
65.3171844482
 20
-158.1787109375
 30
0.0
 11
65.3171844482
 21
-162.1359863281
 31
0.0
  0
ARC
  5
BA
100
AcDbEntity
  8
LY_3
  6
CONTINUOUS
 62
         3
100
AcDbCircle
 10
61.3171844482
 20
-263.978515625
 30
0.0
 40
11.0
100
AcDbArc
 50
111.3237233197
 51
68.6762780468
  0
ARC
  5
BB
100
AcDbEntity
  8
LY_3
  6
CONTINUOUS
 62
         3
100
AcDbCircle
 10
61.3171844482
 20
-63.9786987305
 30
0.0
 40
14.9999990463
100
AcDbArc
 50
109.4712667337
 51
70.5287346328
  0
CIRCLE
  5
BC
100
AcDbEntity
  8
LY_3
  6
CONTINUOUS
 62
         3
100
AcDbCircle
 10
61.3171844482
 20
-63.9786987305
 30
0.0
 40
22.5
  0
CIRCLE
  5
BD
100
AcDbEntity
  8
LY_3
  6
CONTINUOUS
 62
         3
100
AcDbCircle
 10
61.3171844482
 20
-63.9786987305
 30
0.0
 40
37.5
  0
CIRCLE
  5
BE
100
AcDbEntity
  8
LY_3
  6
CONTINUOUS
 62
         3
100
AcDbCircle
 10
61.3171844482
 20
-63.9786987305
 30
0.0
 40
50.0
  0
ARC
  5
BF
100
AcDbEntity
  8
LY_3
  6
CENTER
 62
        80
100
AcDbCircle
 10
61.3171844482
 20
-63.9786987305
 30
0.0
 40
44.0
100
AcDbArc
 50
12.7777232389
 51
46.5176009839
  0
ARC
  5
C0
100
AcDbEntity
  8
LY_3
  6
CENTER
 62
        80
100
AcDbCircle
 10
61.3171844482
 20
-63.9786987305
 30
0.0
 40
44.0
100
AcDbArc
 50
72.7776873425
 51
106.5175650875
  0
ARC
  5
C1
100
AcDbEntity
  8
LY_3
  6
CENTER
 62
        80
100
AcDbCircle
 10
61.3171844482
 20
-63.9786987305
 30
0.0
 40
44.0
100
AcDbArc
 50
132.7776753518
 51
166.5175530968
  0
ARC
  5
C2
100
AcDbEntity
  8
LY_3
  6
CENTER
 62
        80
100
AcDbCircle
 10
61.3171844482
 20
-63.9786987305
 30
0.0
 40
44.0
100
AcDbArc
 50
192.7776806639
 51
226.5175584089
  0
ARC
  5
C3
100
AcDbEntity
  8
LY_3
  6
CENTER
 62
        80
100
AcDbCircle
 10
61.3171844482
 20
-63.9786987305
 30
0.0
 40
44.0
100
AcDbArc
 50
252.7777233147
 51
286.5176010597
  0
ARC
  5
C4
100
AcDbEntity
  8
LY_3
  6
CENTER
 62
        80
100
AcDbCircle
 10
61.3171844482
 20
-63.9786987305
 30
0.0
 40
44.0
100
AcDbArc
 50
312.7777249843
 51
346.5176027294
  0
CIRCLE
  5
C5
100
AcDbEntity
  8
LY_3
  6
CONTINUOUS
 62
         3
100
AcDbCircle
 10
-80.2503509521
 20
-33.9786987305
 30
0.0
 40
4.3660001755
  0
CIRCLE
  5
C6
100
AcDbEntity
  8
LY_3
  6
CONTINUOUS
 62
         3
100
AcDbCircle
 10
-80.2503509521
 20
-93.9786987305
 30
0.0
 40
4.3660001755
  0
CIRCLE
  5
C7
100
AcDbEntity
  8
LY_3
  6
CONTINUOUS
 62
         3
100
AcDbCircle
 10
-37.5503540039
 20
-33.9786987305
 30
0.0
 40
4.3660001755
  0
CIRCLE
  5
C8
100
AcDbEntity
  8
LY_3
  6
CONTINUOUS
 62
         3
100
AcDbCircle
 10
-37.5503540039
 20
-93.9786987305
 30
0.0
 40
4.3660001755
  0
CIRCLE
  5
C9
100
AcDbEntity
  8
LY_3
  6
CONTINUOUS
 62
         3
100
AcDbCircle
 10
-47.5853424072
 20
-35.2120056152
 30
0.0
 40
0.9749999046
  0
CIRCLE
  5
CA
100
AcDbEntity
  8
LY_3
  6
CONTINUOUS
 62
         3
100
AcDbCircle
 10
-70.2153320313
 20
-35.2120056152
 30
0.0
 40
0.974999845
  0
CIRCLE
  5
CB
100
AcDbEntity
  8
LY_3
  6
CONTINUOUS
 62
         3
100
AcDbCircle
 10
-70.2153320313
 20
-92.7453918457
 30
0.0
 40
0.9749999046
  0
CIRCLE
  5
CC
100
AcDbEntity
  8
LY_3
  6
CONTINUOUS
 62
         3
100
AcDbCircle
 10
-47.5853424072
 20
-92.7453918457
 30
0.0
 40
0.974999845
  0
ARC
  5
CD
100
AcDbEntity
  8
LY_3
  6
CONTINUOUS
 62
         3
100
AcDbCircle
 10
61.3171844482
 20
-173.9786987305
 30
0.0
 40
12.4999990463
100
AcDbArc
 50
108.6630094681
 51
71.3369918984
  0
MTEXT
  5
CE
100
AcDbEntity
  8
LY_3
  6
CONTINUOUS
 62
       110
100
AcDbMText
 10
-57.921570467
 20
23.6673622131
 30
0.0
 40
15.0
 41
0.0
 71
         1
 72
         1
  1
\W1.021;\A1;MZ30G-22
  0
MTEXT
  5
CF
100
AcDbEntity
  8
LY_3
  6
CONTINUOUS
 62
       110
100
AcDbMText
 10
-57.921570467
 20
46.1673603058
 30
0.0
 40
15.0
 41
0.0
 71
         1
 72
         1
  1
\W1.021;\A1;MZ30G-25
  0
MTEXT
  5
D0
100
AcDbEntity
  8
LY_3
  6
CONTINUOUS
 62
       110
100
AcDbMText
 10
-57.8885550558
 20
68.6673583984
 30
0.0
 40
15.0
 41
0.0
 71
         1
 72
         1
  1
\W1.034;\A1;MZ30G
  0
MTEXT
  5
D1
100
AcDbEntity
  8
LY_3
  6
CONTINUOUS
 62
       110
100
AcDbMText
 10
-68.2430553901
 20
92.6673583984
 30
0.0
 40
13.0
 41
0.0
 71
         1
 72
         1
  1
\W1.042;\A1;CAM CLUTCH
  0
MTEXT
  5
D2
100
AcDbEntity
  8
LY_3
  6
CONTINUOUS
 62
       110
100
AcDbMText
 10
-126.5563449428
 20
-59.9786987305
 30
0.0
 40
8.0
 41
0.0
 71
         1
 72
         1
  1
\W1.008;\A1;\U+220530
  0
MTEXT
  5
D3
100
AcDbEntity
  8
LY_3
  6
CONTINUOUS
 62
       110
100
AcDbMText
 10
-126.6276176724
 20
-169.9786987305
 30
0.0
 40
8.0
 41
0.0
 71
         1
 72
         1
  1
\W0.955;\A1;\U+220525
  0
MTEXT
  5
D4
100
AcDbEntity
  8
LY_3
  6
CONTINUOUS
 62
       110
100
AcDbMText
 10
-126.6276176724
 20
-259.978515625
 30
0.0
 40
8.0
 41
0.0
 71
         1
 72
         1
  1
\W0.955;\A1;\U+220522
  0
ENDSEC
  0
SECTION
  2
OBJECTS
  0
DICTIONARY
  5
19
100
AcDbDictionary
  3
ACAD_GROUP
350
1A
  3
ACAD_MLINESTYLE
350
1B
  0
DICTIONARY
  5
1A
102
{ACAD_REACTORS
330
19
102
}
100
AcDbDictionary
  0
DICTIONARY
  5
1B
102
{ACAD_REACTORS
330
19
102
}
100
AcDbDictionary
  3
STANDARD
350
1C
  0
MLINESTYLE
  5
1C
102
{ACAD_REACTORS
330
1B
102
}
100
AcDbMlineStyle
  2
Standard
 70
         0
  3

 62
         0
 51
90.0
 52
90.0
 71
         2
 49
0.5
 62
       256
  6
ByLayer
 49
-0.5
 62
       256
  6
ByLayer
  0
ENDSEC
  0
EOF
