  0
SECTION
  2
HEADER
  9
$ACADVER
  1
AC1014
  9
$ACADMAINTVER
 70
         0
  9
$DWGCODEPAGE
  3
ANSI_932
  9
$INSBASE
 10
0.0
 20
0.0
 30
0.0
  9
$EXTMIN
 10
-173.682801
 20
-124.923178
 30
0.0
  9
$EXTMAX
 10
177.09955
 20
122.1256910721
 30
0.0
  9
$LIMMIN
 10
-173.682801
 20
-124.923178
  9
$LIMMAX
 10
177.09955
 20
122.1256910721
  9
$ORTHOMODE
 70
         0
  9
$REGENMODE
 70
         1
  9
$FILLMODE
 70
         1
  9
$QTEXTMODE
 70
         0
  9
$MIRRTEXT
 70
         1
  9
$DRAGMODE
 70
         2
  9
$LTSCALE
 40
1.0
  9
$OSMODE
 70
         0
  9
$ATTMODE
 70
         1
  9
$TEXTSIZE
 40
3.2000000477
  9
$TRACEWID
 40
0.05
  9
$TEXTSTYLE
  7
MX_NOTE_STANDARD
  9
$CLAYER
  8
LY_3
  9
$CELTYPE
  6
CONTINUOUS
  9
$CECOLOR
 62
       256
  9
$CELTSCALE
 40
1.0
  9
$DELOBJ
 70
         1
  9
$DISPSILH
 70
         0
  9
$DIMSCALE
 40
1.0
  9
$DIMASZ
 40
2.5
  9
$DIMEXO
 40
0.0
  9
$DIMDLI
 40
3.75
  9
$DIMRND
 40
0.0
  9
$DIMDLE
 40
0.0
  9
$DIMEXE
 40
2.5
  9
$DIMTP
 40
0.0
  9
$DIMTM
 40
0.0
  9
$DIMTXT
 40
3.2000000477
  9
$DIMCEN
 40
2.5
  9
$DIMTSZ
 40
0.0
  9
$DIMTOL
 70
         0
  9
$DIMLIM
 70
         0
  9
$DIMTIH
 70
         0
  9
$DIMTOH
 70
         0
  9
$DIMSE1
 70
         0
  9
$DIMSE2
 70
         0
  9
$DIMTAD
 70
         1
  9
$DIMZIN
 70
         8
  9
$DIMBLK
  1

  9
$DIMASO
 70
         1
  9
$DIMSHO
 70
         1
  9
$DIMPOST
  1

  9
$DIMAPOST
  1

  9
$DIMALT
 70
         0
  9
$DIMALTD
 70
         4
  9
$DIMALTF
 40
0.0393700787
  9
$DIMLFAC
 40
1.0
  9
$DIMTOFL
 70
         1
  9
$DIMTVP
 40
0.0
  9
$DIMTIX
 70
         0
  9
$DIMSOXD
 70
         0
  9
$DIMSAH
 70
         1
  9
$DIMBLK1
  1
_OPEN30
  9
$DIMBLK2
  1
_OPEN30
  9
$DIMSTYLE
  2
MXDIMSTYLE
  9
$DIMCLRD
 70
         0
  9
$DIMCLRE
 70
         0
  9
$DIMCLRT
 70
         0
  9
$DIMTFAC
 40
1.0
  9
$DIMGAP
 40
1.0
  9
$DIMJUST
 70
         0
  9
$DIMSD1
 70
         0
  9
$DIMSD2
 70
         0
  9
$DIMTOLJ
 70
         0
  9
$DIMTZIN
 70
         0
  9
$DIMALTZ
 70
         0
  9
$DIMALTTZ
 70
         0
  9
$DIMFIT
 70
         3
  9
$DIMUPT
 70
         0
  9
$DIMUNIT
 70
         2
  9
$DIMDEC
 70
         2
  9
$DIMTDEC
 70
         2
  9
$DIMALTU
 70
         2
  9
$DIMALTTD
 70
         4
  9
$DIMTXSTY
  7
MX_NOTE_STANDARD
  9
$DIMAUNIT
 70
         0
  9
$LUNITS
 70
         2
  9
$LUPREC
 70
         4
  9
$SKETCHINC
 40
0.1
  9
$FILLETRAD
 40
0.0
  9
$AUNITS
 70
         0
  9
$AUPREC
 70
         0
  9
$MENU
  1
acad
  9
$ELEVATION
 40
0.0
  9
$PELEVATION
 40
0.0
  9
$THICKNESS
 40
0.0
  9
$LIMCHECK
 70
         0
  9
$BLIPMODE
 70
         1
  9
$CHAMFERA
 40
0.0
  9
$CHAMFERB
 40
0.0
  9
$CHAMFERC
 40
0.0
  9
$CHAMFERD
 40
0.0
  9
$SKPOLY
 70
         0
  9
$TDCREATE
 40
2456603.419502315
  9
$TDUPDATE
 40
2456603.419502315
  9
$TDINDWG
 40
0.0000000000
  9
$TDUSRTIMER
 40
0.0000000000
  9
$USRTIMER
 70
         1
  9
$ANGBASE
 50
0.0
  9
$ANGDIR
 70
         0
  9
$PDMODE
 70
         0
  9
$PDSIZE
 40
0.0
  9
$PLINEWID
 40
0.0
  9
$COORDS
 70
         1
  9
$SPLFRAME
 70
         0
  9
$SPLINETYPE
 70
         6
  9
$SPLINESEGS
 70
         8
  9
$ATTDIA
 70
         0
  9
$ATTREQ
 70
         1
  9
$HANDLING
 70
         1
  9
$HANDSEED
  5
186
  9
$SURFTAB1
 70
         6
  9
$SURFTAB2
 70
         6
  9
$SURFTYPE
 70
         6
  9
$SURFU
 70
         6
  9
$SURFV
 70
         6
  9
$UCSNAME
  2

  9
$UCSORG
 10
0.0
 20
0.0
 30
0.0
  9
$UCSXDIR
 10
1.0
 20
0.0
 30
0.0
  9
$UCSYDIR
 10
0.0
 20
1.0
 30
0.0
  9
$PUCSNAME
  2

  9
$PUCSORG
 10
0.0
 20
0.0
 30
0.0
  9
$PUCSXDIR
 10
1.0
 20
0.0
 30
0.0
  9
$PUCSYDIR
 10
0.0
 20
1.0
 30
0.0
  9
$USERI1
 70
         0
  9
$USERI2
 70
         0
  9
$USERI3
 70
         0
  9
$USERI4
 70
         0
  9
$USERI5
 70
         0
  9
$USERR1
 40
0.0
  9
$USERR2
 40
0.0
  9
$USERR3
 40
0.0
  9
$USERR4
 40
0.0
  9
$USERR5
 40
0.0
  9
$WORLDVIEW
 70
         1
  9
$SHADEDGE
 70
         3
  9
$SHADEDIF
 70
        70
  9
$TILEMODE
 70
         1
  9
$MAXACTVP
 70
        16
  9
$PINSBASE
 10
0.0
 20
0.0
 30
0.0
  9
$PLIMCHECK
 70
         0
  9
$PEXTMIN
 10
1.0000000000E+20
 20
1.0000000000E+20
 30
1.0000000000E+20
  9
$PEXTMAX
 10
-1.0000000000E+20
 20
-1.0000000000E+20
 30
-1.0000000000E+20
  9
$PLIMMIN
 10
0.0
 20
0.0
  9
$PLIMMAX
 10
12.0
 20
9.0
  9
$UNITMODE
 70
         0
  9
$VISRETAIN
 70
         0
  9
$PLINEGEN
 70
         1
  9
$PSLTSCALE
 70
         0
  9
$TREEDEPTH
 70
      3020
  9
$PICKSTYLE
 70
         1
  9
$CMLSTYLE
  2
Standard
  9
$CMLJUST
 70
         0
  9
$CMLSCALE
 40
1.0
  9
$PROXYGRAPHICS
 70
         0
  9
$MEASUREMENT
 70
         1
  0
ENDSEC
  0
SECTION
  2
CLASSES
  0
CLASS
  1
LWPOLYLINE
  2
AcDbPolyline
  3
"AutoCAD"
 90
        0
280
         0
281
         1
  0
CLASS
  1
IMAGE
  2
AcDbRasterImage
  3
ISM
 90
      127
280
         0
281
         1
  0
CLASS
  1
OLE2FRAME
  2
AcDbOle2Frame
  3
""
 90
        0
280
         0
281
         1
  0
CLASS
  1
HATCH
  2
AcDbHatch
  3
"ACAD_SEDONA"
 90
        0
280
         0
281
         1
  0
CLASS
  1
DICTIONARYVAR
  2
AcDbDictionaryVar
  3
"AutoCAD"
 90
        0
280
         0
281
         0
  0
CLASS
  1
RASTERVARIABLES
  2
AcDbRasterVariables
  3
ISM
 90
        0
280
         0
281
         0
  0
CLASS
  1
IMAGEDEF
  2
AcDbRasterImageDef
  3
ISM
 90
        0
280
         0
281
         0
  0
CLASS
  1
IMAGEDEF_REACTOR
  2
AcDbRasterImageDefReactor
  3
ISM
 90
        1
280
         0
281
         0
  0
CLASS
  1
IDBUFFER
  2
AcDbIdBuffer
  3
"Acad"
 90
        0
280
         0
281
         0
  0
CLASS
  1
SPATIAL_FILTER
  2
AcDbSpatialFilter
  3
"Acad"
 90
        0
280
         0
281
         0
  0
CLASS
  1
XRECORD
  2
AcDbXrecord
  3
"<Built In>"
 90
        0
280
         0
281
         0
  0
CLASS
  1
SORTENTSTABLE
  2
AcDbSortentsTable
  3
"AutoCAD"
 90
        0
280
         0
281
         0
  0
CLASS
  1
LAYER_INDEX
  2
AcDbLayerIndex
  3
"Acad"
 90
        0
280
         0
281
         0
  0
CLASS
  1
SPATIAL_INDEX
  2
AcDbSpatialIndex
  3
"Acad"
 90
        0
280
         0
281
         0
  0
CLASS
  1
OBJECT_PTR
  2
CAseDLPNTableRecord
  3
"ASE-LPNTableRecord"
 90
        1
280
         0
281
         0
  0
CLASS
  1
LAYOUT
  2
AcDbLayout
  3
"AutoCAD 2000"
 90
        0
280
         0
281
         0
  0
CLASS
  1
PLOTSETTINGS
  2
AcDbPlotSettings
  3
"AutoCAD 2000"
 90
        0
280
         0
281
         0
  0
CLASS
  1
ACDBDICTIONARYWDFLT
  2
AcDbDictionaryWithDefault
  3
"AutoCAD 2000"
 90
        0
280
         0
281
         0
  0
CLASS
  1
ACDBPLACEHOLDER
  2
AcDbPlaceHolder
  3
"AutoCAD 2000"
 90
        0
280
         0
281
         0
  0
ENDSEC
  0
SECTION
  2
TABLES
  0
TABLE
  2
VPORT
  5
7
100
AcDbSymbolTable
 70
         1
  0
VPORT
  5
15
100
AcDbSymbolTableRecord
100
AcDbViewportTableRecord
  2
*ACTIVE
 70
         0
 10
0.0
 20
0.0
 11
1.0
 21
1.0
 12
1.7083745
 22
-1.398743464
 13
0.0
 23
0.0
 14
1.0
 24
1.0
 15
0.0
 25
0.0
 16
0.0
 26
0.0
 36
1.0
 17
0.0
 27
0.0
 37
0.0
 40
249.5193577628
 41
1.7320508076
 42
50.0
 43
0.0
 44
0.0
 50
0.0
 51
0.0
 71
         0
 72
       100
 73
         1
 74
         1
 75
         0
 76
         0
 77
         0
 78
         0
  0
ENDTAB
  0
TABLE
  2
LTYPE
  5
4
100
AcDbSymbolTable
 70
         6
  0
LTYPE
  5
11
100
AcDbSymbolTableRecord
100
AcDbLinetypeTableRecord
  2
BYBLOCK
 70
        64
  3

 72
        65
 73
         0
 40
0.0
  0
LTYPE
  5
12
100
AcDbSymbolTableRecord
100
AcDbLinetypeTableRecord
  2
BYLAYER
 70
        64
  3

 72
        65
 73
         0
 40
0.0
  0
LTYPE
  5
13
100
AcDbSymbolTableRecord
100
AcDbLinetypeTableRecord
  2
CONTINUOUS
 70
        64
  3
Solid line
 72
        65
 73
         0
 40
0.0
  0
LTYPE
  5
4A
100
AcDbSymbolTableRecord
100
AcDbLinetypeTableRecord
  2
CENTER
 70
        64
  3
Center ____ _ ____ _ ____ _ ____ _ ____ _ ____
 72
        65
 73
         4
 40
50.8
 49
31.75
 74
         0
 49
-6.35
 74
         0
 49
6.35
 74
         0
 49
-6.35
 74
         0
  0
LTYPE
  5
A4
100
AcDbSymbolTableRecord
100
AcDbLinetypeTableRecord
  2
DASHED
 70
        64
  3
Dashed __ __ __ __ __ __ __ __ __ __ __ __ __ _
 72
        65
 73
         2
 40
19.05
 49
12.7
 74
         0
 49
-6.35
 74
         0
  0
LTYPE
  5
F6
100
AcDbSymbolTableRecord
100
AcDbLinetypeTableRecord
  2
PHANTOM
 70
        64
  3
Phantom ______  __  __  ______  __  __  ______
 72
        65
 73
         6
 40
63.5
 49
31.75
 74
         0
 49
-6.35
 74
         0
 49
6.35
 74
         0
 49
-6.35
 74
         0
 49
6.35
 74
         0
 49
-6.35
 74
         0
  0
ENDTAB
  0
TABLE
  2
LAYER
  5
2
100
AcDbSymbolTable
 70
         3
  0
LAYER
  5
14
100
AcDbSymbolTableRecord
100
AcDbLayerTableRecord
  2
0
 70
         0
 62
         7
  6
CONTINUOUS
  0
LAYER
  5
1D
100
AcDbSymbolTableRecord
100
AcDbLayerTableRecord
  2
DEFPOINTS
 70
         0
 62
         7
  6
CONTINUOUS
  0
LAYER
  5
1E
100
AcDbSymbolTableRecord
100
AcDbLayerTableRecord
  2
LY_3
 70
         0
 62
         7
  6
CONTINUOUS
  0
ENDTAB
  0
TABLE
  2
STYLE
  5
3
100
AcDbSymbolTable
 70
         1
  0
STYLE
  5
17
100
AcDbSymbolTableRecord
100
AcDbTextStyleTableRecord
  2
MX_NOTE_STANDARD
 70
         0
 40
0.0
 41
1.0
 50
0.0
 71
         0
 42
3.2000000477
  3
txt.shx
  4
extfont.shx
  0
ENDTAB
  0
TABLE
  2
VIEW
  5
5
100
AcDbSymbolTable
 70
         0
  0
ENDTAB
  0
TABLE
  2
UCS
  5
6
100
AcDbSymbolTable
 70
         0
  0
ENDTAB
  0
TABLE
  2
APPID
  5
8
100
AcDbSymbolTable
 70
         1
  0
APPID
  5
16
100
AcDbSymbolTableRecord
100
AcDbRegAppTableRecord
  2
ACAD
 70
         0
  0
ENDTAB
  0
TABLE
  2
DIMSTYLE
  5
9
100
AcDbSymbolTable
 70
         1
  0
DIMSTYLE
105
18
100
AcDbSymbolTableRecord
100
AcDbDimStyleTableRecord
  2
MXDIMSTYLE
 70
         0
  3

  4

  5

  6
_OPEN30
  7
_OPEN30
 40
1.0
 41
2.5
 42
0.0
 43
3.75
 44
2.5
 45
0.0
 46
0.0
 47
0.0
 48
0.0
 71
         0
 72
         0
 73
         0
 74
         0
 75
         0
 76
         0
 77
         1
 78
         8
140
3.2000000477
141
2.5
142
0.0
143
0.0393700787
144
1.0
145
0.0
146
1.0
147
1.0
170
         0
171
         4
172
         1
173
         1
174
         0
175
         0
176
         0
177
         0
178
         0
270
         2
271
         2
272
         2
273
         2
274
         4
275
         0
280
         0
281
         0
282
         0
283
         0
284
         0
285
         0
286
         0
287
         3
288
         0
340
17
  0
ENDTAB
  0
TABLE
  2
BLOCK_RECORD
  5
1
100
AcDbSymbolTable
 70
         1
  0
BLOCK_RECORD
  5
A
100
AcDbSymbolTableRecord
100
AcDbBlockTableRecord
  2
*MODEL_SPACE
  0
BLOCK_RECORD
  5
B
100
AcDbSymbolTableRecord
100
AcDbBlockTableRecord
  2
*PAPER_SPACE
  0
BLOCK_RECORD
  5
1F
100
AcDbSymbolTableRecord
100
AcDbBlockTableRecord
  2
_OPEN30
  0
ENDTAB
  0
ENDSEC
  0
SECTION
  2
BLOCKS
  0
BLOCK
  5
D
100
AcDbEntity
  8
0
100
AcDbBlockBegin
  2
*MODEL_SPACE
 70
         0
 10
0.0
 20
0.0
 30
0.0
  3
*MODEL_SPACE
  1

  0
ENDBLK
  5
E
100
AcDbEntity
  8
0
100
AcDbBlockEnd
  0
BLOCK
  5
F
100
AcDbEntity
 67
         1
  8
0
100
AcDbBlockBegin
  2
*PAPER_SPACE
 70
         0
 10
0.0
 20
0.0
 30
0.0
  3
*PAPER_SPACE
  1

  0
ENDBLK
  5
10
100
AcDbEntity
 67
         1
  8
0
100
AcDbBlockEnd
  0
BLOCK
  5
20
100
AcDbEntity
  8
0
  6
ByBlock
 62
         0
100
AcDbBlockBegin
  2
_OPEN30
 70
         2
 10
0.0
 20
0.0
 30
0.0
  3
_OPEN30
  1

  0
LINE
  5
21
100
AcDbEntity
  8
0
  6
ByBlock
 62
         0
100
AcDbLine
 10
-1.0
 20
0.267949
 30
0.0
 11
0.0
 21
0.0
 31
0.0
  0
LINE
  5
22
100
AcDbEntity
  8
0
  6
ByBlock
 62
         0
100
AcDbLine
 10
0.0
 20
0.0
 30
0.0
 11
-1.0
 21
-0.267949
 31
0.0
  0
LINE
  5
23
100
AcDbEntity
  8
0
  6
ByBlock
 62
         0
100
AcDbLine
 10
0.0
 20
0.0
 30
0.0
 11
-1.0
 21
0.0
 31
0.0
  0
ENDBLK
  5
24
100
AcDbEntity
  8
0
  6
ByBlock
 62
         0
100
AcDbBlockEnd
  0
ENDSEC
  0
SECTION
  2
ENTITIES
  0
MTEXT
  5
25
100
AcDbEntity
  8
LY_3
  6
CONTINUOUS
 62
       110
100
AcDbMText
 10
-147.446440963
 20
117.7423578659
 30
0.0
 40
13.1499996185
 41
0.0
 71
         1
 72
         1
  1
\W1.050;\A1;TSUBAKI
  0
POINT
  5
26
100
AcDbEntity
  8
LY_3
  6
CONTINUOUS
 62
        20
100
AcDbPoint
 10
-28.900345
 20
-63.978699
 30
0.0
  0
POINT
  5
27
100
AcDbEntity
  8
LY_3
  6
CONTINUOUS
 62
        20
100
AcDbPoint
 10
53.099655
 20
-63.978699
 30
0.0
  0
POINT
  5
28
100
AcDbEntity
  8
LY_3
  6
CONTINUOUS
 62
        20
100
AcDbPoint
 10
-123.682816
 20
-63.978699
 30
0.0
  0
POINT
  5
29
100
AcDbEntity
  8
LY_3
  6
CONTINUOUS
 62
        20
100
AcDbPoint
 10
165.099573
 20
-63.978699
 30
0.0
  0
LINE
  5
2A
100
AcDbEntity
  8
LY_3
  6
CONTINUOUS
 62
       251
100
AcDbLine
 10
53.099655
 20
-41.478714
 30
0.0
 11
53.099655
 21
-48.978699
 31
0.0
  0
LINE
  5
2B
100
AcDbEntity
  8
LY_3
  6
CONTINUOUS
 62
       251
100
AcDbLine
 10
-28.900345
 20
-41.478714
 30
0.0
 11
-28.900345
 21
-48.978699
 31
0.0
  0
LINE
  5
2C
100
AcDbEntity
  8
LY_3
  6
CONTINUOUS
 62
       251
100
AcDbLine
 10
-28.900345
 20
-41.478714
 30
0.0
 11
-1.255356
 21
-41.478714
 31
0.0
  0
LINE
  5
2D
100
AcDbEntity
  8
LY_3
  6
CONTINUOUS
 62
       251
100
AcDbLine
 10
-1.255356
 20
-90.826691
 30
0.0
 11
25.444641
 21
-90.826691
 31
0.0
  0
LINE
  5
2E
100
AcDbEntity
  8
LY_3
  6
CONTINUOUS
 62
       251
100
AcDbLine
 10
25.444641
 20
-86.478699
 30
0.0
 11
53.099655
 21
-86.478699
 31
0.0
  0
LINE
  5
2F
100
AcDbEntity
  8
LY_3
  6
CONTINUOUS
 62
       251
100
AcDbLine
 10
-118.682816
 20
-45.678711
 30
0.0
 11
-118.682816
 21
-49.836578
 31
0.0
  0
LINE
  5
30
100
AcDbEntity
  8
LY_3
  6
CONTINUOUS
 62
       251
100
AcDbLine
 10
-128.682816
 20
-45.678711
 30
0.0
 11
-128.682816
 21
-49.836578
 31
0.0
  0
LINE
  5
31
100
AcDbEntity
  8
LY_3
  6
CONTINUOUS
 62
       251
100
AcDbLine
 10
-28.900345
 20
-78.978699
 30
0.0
 11
53.099655
 21
-78.978699
 31
0.0
  0
LINE
  5
32
100
AcDbEntity
  8
LY_3
  6
CONTINUOUS
 62
       251
100
AcDbLine
 10
-128.682816
 20
-45.678711
 30
0.0
 11
-118.682816
 21
-45.678711
 31
0.0
  0
LINE
  5
33
100
AcDbEntity
  8
LY_3
  6
CONTINUOUS
 62
       251
100
AcDbLine
 10
-28.900345
 20
-45.678711
 30
0.0
 11
53.099655
 21
-45.678711
 31
0.0
  0
LINE
  5
34
100
AcDbEntity
  8
LY_3
  6
CONTINUOUS
 62
       251
100
AcDbLine
 10
-27.905365
 20
-13.978714
 30
0.0
 11
-27.905365
 21
-41.478714
 31
0.0
  0
LINE
  5
35
100
AcDbEntity
  8
LY_3
  6
CONTINUOUS
 62
       251
100
AcDbLine
 10
-27.905365
 20
-13.978714
 30
0.0
 11
52.094635
 21
-13.978714
 31
0.0
  0
LINE
  5
36
100
AcDbEntity
  8
LY_3
  6
CONTINUOUS
 62
       251
100
AcDbLine
 10
-27.905365
 20
-113.978683
 30
0.0
 11
52.094635
 21
-113.978683
 31
0.0
  0
LINE
  5
37
100
AcDbEntity
  8
LY_3
  6
CONTINUOUS
 62
       251
100
AcDbLine
 10
-27.905365
 20
-26.478714
 30
0.0
 11
-19.005356
 21
-26.478714
 31
0.0
  0
LINE
  5
38
100
AcDbEntity
  8
LY_3
  6
CONTINUOUS
 62
       251
100
AcDbLine
 10
-27.905365
 20
-101.478683
 30
0.0
 11
-19.005356
 21
-101.478683
 31
0.0
  0
LINE
  5
39
100
AcDbEntity
  8
LY_3
  6
CONTINUOUS
 62
       251
100
AcDbLine
 10
-0.755356
 20
-30.844208
 30
0.0
 11
24.944641
 21
-30.844208
 31
0.0
  0
LINE
  5
3A
100
AcDbEntity
  8
LY_3
  6
CONTINUOUS
 62
       251
100
AcDbLine
 10
-0.755356
 20
-97.113174
 30
0.0
 11
24.944641
 21
-97.113174
 31
0.0
  0
LINE
  5
3B
100
AcDbEntity
  8
LY_3
  6
CONTINUOUS
 62
       251
100
AcDbLine
 10
24.944641
 20
-26.478714
 30
0.0
 11
24.944641
 21
-37.11821
 31
0.0
  0
LINE
  5
3C
100
AcDbEntity
  8
LY_3
  6
CONTINUOUS
 62
       251
100
AcDbLine
 10
-0.755356
 20
-26.478714
 30
0.0
 11
-0.755356
 21
-37.11821
 31
0.0
  0
LINE
  5
3D
100
AcDbEntity
  8
LY_3
  6
CONTINUOUS
 62
       251
100
AcDbLine
 10
-0.755356
 20
-90.826691
 30
0.0
 11
-0.755356
 21
-101.478683
 31
0.0
  0
LINE
  5
3E
100
AcDbEntity
  8
LY_3
  6
CONTINUOUS
 62
       251
100
AcDbLine
 10
24.944641
 20
-90.826691
 30
0.0
 11
24.944641
 21
-101.478683
 31
0.0
  0
LINE
  5
3F
100
AcDbEntity
  8
LY_3
  6
CONTINUOUS
 62
       251
100
AcDbLine
 10
-27.905365
 20
-86.478699
 30
0.0
 11
-27.905365
 21
-113.978683
 31
0.0
  0
LINE
  5
40
100
AcDbEntity
  8
LY_3
  6
CONTINUOUS
 62
       251
100
AcDbLine
 10
24.944641
 20
-26.478714
 30
0.0
 11
41.454666
 21
-26.478714
 31
0.0
  0
LINE
  5
41
100
AcDbEntity
  8
LY_3
  6
CONTINUOUS
 62
       251
100
AcDbLine
 10
24.944641
 20
-101.478683
 30
0.0
 11
41.444641
 21
-101.478683
 31
0.0
  0
LINE
  5
42
100
AcDbEntity
  8
LY_3
  6
CONTINUOUS
 62
       251
100
AcDbLine
 10
-19.005356
 20
-25.278717
 30
0.0
 11
-17.255356
 21
-25.278717
 31
0.0
  0
LINE
  5
43
100
AcDbEntity
  8
LY_3
  6
CONTINUOUS
 62
       251
100
AcDbLine
 10
-19.005356
 20
-102.67868
 30
0.0
 11
-17.255356
 21
-102.67868
 31
0.0
  0
LINE
  5
44
100
AcDbEntity
  8
LY_3
  6
CONTINUOUS
 62
       251
100
AcDbLine
 10
41.444641
 20
-102.67868
 30
0.0
 11
43.194641
 21
-102.67868
 31
0.0
  0
LINE
  5
45
100
AcDbEntity
  8
LY_3
  6
CONTINUOUS
 62
       251
100
AcDbLine
 10
41.454666
 20
-25.278717
 30
0.0
 11
43.194641
 21
-25.278717
 31
0.0
  0
LINE
  5
46
100
AcDbEntity
  8
LY_3
  6
CONTINUOUS
 62
       251
100
AcDbLine
 10
-17.205353
 20
-101.478683
 30
0.0
 11
-0.755356
 21
-101.478683
 31
0.0
  0
LINE
  5
47
100
AcDbEntity
  8
LY_3
  6
CONTINUOUS
 62
       251
100
AcDbLine
 10
43.194641
 20
-101.478683
 30
0.0
 11
52.094635
 21
-101.478683
 31
0.0
  0
LINE
  5
48
100
AcDbEntity
  8
LY_3
  6
CONTINUOUS
 62
       251
100
AcDbLine
 10
43.194641
 20
-26.478714
 30
0.0
 11
52.094635
 21
-26.478714
 31
0.0
  0
LINE
  5
49
100
AcDbEntity
  8
LY_3
  6
CONTINUOUS
 62
       251
100
AcDbLine
 10
-17.255356
 20
-26.478714
 30
0.0
 11
-0.755356
 21
-26.478714
 31
0.0
  0
LINE
  5
4B
100
AcDbEntity
  8
LY_3
  6
CENTER
 62
         7
100
AcDbLine
 10
-81.24764
 20
-39.478702
 30
0.0
 11
-89.907894
 21
-44.478701
 31
0.0
  0
LINE
  5
4C
100
AcDbEntity
  8
LY_3
  6
CENTER
 62
         7
100
AcDbLine
 10
-123.682816
 20
-14.978729
 30
0.0
 11
-123.682816
 21
-24.978683
 31
0.0
  0
LINE
  5
4D
100
AcDbEntity
  8
LY_3
  6
CENTER
 62
         7
100
AcDbLine
 10
-166.118068
 20
-39.478689
 30
0.0
 11
-157.457814
 21
-44.478689
 31
0.0
  0
LINE
  5
4E
100
AcDbEntity
  8
LY_3
  6
CENTER
 62
         7
100
AcDbLine
 10
-166.118073
 20
-88.478646
 30
0.0
 11
-157.457832
 21
-83.478654
 31
0.0
  0
LINE
  5
4F
100
AcDbEntity
  8
LY_3
  6
CENTER
 62
         7
100
AcDbLine
 10
-123.682866
 20
-112.978626
 30
0.0
 11
-123.682866
 21
-102.978626
 31
0.0
  0
LINE
  5
50
100
AcDbEntity
  8
LY_3
  6
CENTER
 62
         7
100
AcDbLine
 10
-81.247629
 20
-88.478683
 30
0.0
 11
-89.90787
 21
-83.47869
 31
0.0
  0
LINE
  5
51
100
AcDbEntity
  8
LY_3
  6
CONTINUOUS
 62
       251
100
AcDbLine
 10
-1.255356
 20
-26.478714
 30
0.0
 11
-1.255356
 21
-41.478714
 31
0.0
  0
LINE
  5
52
100
AcDbEntity
  8
LY_3
  6
CONTINUOUS
 62
       251
100
AcDbLine
 10
25.444641
 20
-86.478699
 30
0.0
 11
25.444641
 21
-101.478683
 31
0.0
  0
LINE
  5
53
100
AcDbEntity
  8
LY_3
  6
CONTINUOUS
 62
       251
100
AcDbLine
 10
-1.255356
 20
-86.478699
 30
0.0
 11
-1.255356
 21
-101.478683
 31
0.0
  0
LINE
  5
54
100
AcDbEntity
  8
LY_3
  6
CONTINUOUS
 62
       251
100
AcDbLine
 10
-19.005356
 20
-29.288727
 30
0.0
 11
-17.255356
 21
-29.288727
 31
0.0
  0
LINE
  5
55
100
AcDbEntity
  8
LY_3
  6
CONTINUOUS
 62
       251
100
AcDbLine
 10
41.454666
 20
-29.288727
 30
0.0
 11
43.194641
 21
-29.288727
 31
0.0
  0
LINE
  5
56
100
AcDbEntity
  8
LY_3
  6
CONTINUOUS
 62
       251
100
AcDbLine
 10
41.444641
 20
-98.668671
 30
0.0
 11
43.194641
 21
-98.668671
 31
0.0
  0
LINE
  5
57
100
AcDbEntity
  8
LY_3
  6
CONTINUOUS
 62
       251
100
AcDbLine
 10
-19.005356
 20
-98.668671
 30
0.0
 11
-17.255356
 21
-98.668671
 31
0.0
  0
LINE
  5
58
100
AcDbEntity
  8
LY_3
  6
CONTINUOUS
 62
       251
100
AcDbLine
 10
-2.085342
 20
-30.043259
 30
0.0
 11
-2.085342
 21
-34.866669
 31
0.0
  0
LINE
  5
59
100
AcDbEntity
  8
LY_3
  6
CONTINUOUS
 62
       251
100
AcDbLine
 10
-5.748352
 20
-31.378708
 30
0.0
 11
-1.255356
 21
-31.378708
 31
0.0
  0
LINE
  5
5A
100
AcDbEntity
  8
LY_3
  6
CONTINUOUS
 62
       251
100
AcDbLine
 10
-17.255356
 20
-31.378708
 30
0.0
 11
-12.762344
 21
-31.378708
 31
0.0
  0
LINE
  5
5B
100
AcDbEntity
  8
LY_3
  6
CONTINUOUS
 62
       251
100
AcDbLine
 10
-16.425354
 20
-30.043259
 30
0.0
 11
-16.425354
 21
-34.866669
 31
0.0
  0
LINE
  5
5C
100
AcDbEntity
  8
LY_3
  6
CONTINUOUS
 62
       251
100
AcDbLine
 10
-17.255356
 20
-25.278717
 30
0.0
 11
-17.255356
 21
-41.478714
 31
0.0
  0
LINE
  5
5D
100
AcDbEntity
  8
LY_3
  6
CONTINUOUS
 62
       251
100
AcDbLine
 10
-5.748352
 20
-96.578705
 30
0.0
 11
-1.255356
 21
-96.578705
 31
0.0
  0
LINE
  5
5E
100
AcDbEntity
  8
LY_3
  6
CONTINUOUS
 62
       251
100
AcDbLine
 10
-17.255356
 20
-96.578705
 30
0.0
 11
-12.762344
 21
-96.578705
 31
0.0
  0
LINE
  5
5F
100
AcDbEntity
  8
LY_3
  6
CONTINUOUS
 62
       251
100
AcDbLine
 10
-17.255356
 20
-102.67868
 30
0.0
 11
-17.255356
 21
-86.478699
 31
0.0
  0
LINE
  5
60
100
AcDbEntity
  8
LY_3
  6
CONTINUOUS
 62
       251
100
AcDbLine
 10
-5.748352
 20
-91.378693
 30
0.0
 11
-1.255356
 21
-91.378693
 31
0.0
  0
LINE
  5
61
100
AcDbEntity
  8
LY_3
  6
CONTINUOUS
 62
       251
100
AcDbLine
 10
-17.255356
 20
-91.378693
 30
0.0
 11
-12.762344
 21
-91.378693
 31
0.0
  0
LINE
  5
62
100
AcDbEntity
  8
LY_3
  6
CONTINUOUS
 62
       251
100
AcDbLine
 10
-5.748352
 20
-36.578705
 30
0.0
 11
-1.255356
 21
-36.578705
 31
0.0
  0
LINE
  5
63
100
AcDbEntity
  8
LY_3
  6
CONTINUOUS
 62
       251
100
AcDbLine
 10
36.951645
 20
-31.378708
 30
0.0
 11
41.454666
 21
-31.378708
 31
0.0
  0
LINE
  5
64
100
AcDbEntity
  8
LY_3
  6
CONTINUOUS
 62
       251
100
AcDbLine
 10
25.444641
 20
-31.378708
 30
0.0
 11
29.937653
 21
-31.378708
 31
0.0
  0
LINE
  5
65
100
AcDbEntity
  8
LY_3
  6
CONTINUOUS
 62
       251
100
AcDbLine
 10
36.951645
 20
-96.578705
 30
0.0
 11
41.444641
 21
-96.578705
 31
0.0
  0
LINE
  5
66
100
AcDbEntity
  8
LY_3
  6
CONTINUOUS
 62
       251
100
AcDbLine
 10
25.444641
 20
-96.578705
 30
0.0
 11
29.937653
 21
-96.578705
 31
0.0
  0
LINE
  5
67
100
AcDbEntity
  8
LY_3
  6
CONTINUOUS
 62
       251
100
AcDbLine
 10
41.444641
 20
-102.67868
 30
0.0
 11
41.444641
 21
-86.478699
 31
0.0
  0
LINE
  5
68
100
AcDbEntity
  8
LY_3
  6
CONTINUOUS
 62
       251
100
AcDbLine
 10
36.951645
 20
-91.378693
 30
0.0
 11
41.444641
 21
-91.378693
 31
0.0
  0
LINE
  5
69
100
AcDbEntity
  8
LY_3
  6
CONTINUOUS
 62
       251
100
AcDbLine
 10
25.444641
 20
-91.378693
 30
0.0
 11
29.937653
 21
-91.378693
 31
0.0
  0
LINE
  5
6A
100
AcDbEntity
  8
LY_3
  6
CONTINUOUS
 62
       251
100
AcDbLine
 10
25.444641
 20
-36.578705
 30
0.0
 11
29.937653
 21
-36.578705
 31
0.0
  0
LINE
  5
6B
100
AcDbEntity
  8
LY_3
  6
CONTINUOUS
 62
       251
100
AcDbLine
 10
36.951645
 20
-36.578705
 30
0.0
 11
41.454666
 21
-36.578705
 31
0.0
  0
LINE
  5
6C
100
AcDbEntity
  8
LY_3
  6
CONTINUOUS
 62
       251
100
AcDbLine
 10
-1.255356
 20
-37.11821
 30
0.0
 11
25.444641
 21
-37.11821
 31
0.0
  0
LINE
  5
6D
100
AcDbEntity
  8
LY_3
  6
CONTINUOUS
 62
       251
100
AcDbLine
 10
1.754639
 20
-35.212006
 30
0.0
 11
1.754639
 21
-37.11821
 31
0.0
  0
LINE
  5
6E
100
AcDbEntity
  8
LY_3
  6
CONTINUOUS
 62
       251
100
AcDbLine
 10
22.434631
 20
-35.212006
 30
0.0
 11
22.434631
 21
-37.11821
 31
0.0
  0
LINE
  5
6F
100
AcDbEntity
  8
LY_3
  6
CONTINUOUS
 62
       251
100
AcDbLine
 10
-0.755253
 20
-34.468002
 30
0.0
 11
0.627234
 21
-34.249038
 31
0.0
  0
LINE
  5
70
100
AcDbEntity
  8
LY_3
  6
CONTINUOUS
 62
       251
100
AcDbLine
 10
23.562235
 20
-34.24902
 30
0.0
 11
24.944721
 21
-34.467984
 31
0.0
  0
LINE
  5
71
100
AcDbEntity
  8
LY_3
  6
CONTINUOUS
 62
       251
100
AcDbLine
 10
22.434708
 20
-92.745361
 30
0.0
 11
22.434708
 21
-90.839142
 31
0.0
  0
LINE
  5
72
100
AcDbEntity
  8
LY_3
  6
CONTINUOUS
 62
       251
100
AcDbLine
 10
1.754715
 20
-92.745361
 30
0.0
 11
1.754715
 21
-90.839142
 31
0.0
  0
LINE
  5
73
100
AcDbEntity
  8
LY_3
  6
CONTINUOUS
 62
       251
100
AcDbLine
 10
24.944734
 20
-93.489369
 30
0.0
 11
23.562248
 21
-93.708333
 31
0.0
  0
LINE
  5
74
100
AcDbEntity
  8
LY_3
  6
CONTINUOUS
 62
       251
100
AcDbLine
 10
0.627225
 20
-93.708285
 30
0.0
 11
-0.755261
 21
-93.489321
 31
0.0
  0
LINE
  5
75
100
AcDbEntity
  8
LY_3
  6
CONTINUOUS
 62
       251
100
AcDbLine
 10
25.444641
 20
-41.478714
 30
0.0
 11
53.099655
 21
-41.478714
 31
0.0
  0
LINE
  5
76
100
AcDbEntity
  8
LY_3
  6
CONTINUOUS
 62
       251
100
AcDbLine
 10
-17.255356
 20
-36.578705
 30
0.0
 11
-12.76236
 21
-36.578705
 31
0.0
  0
LINE
  5
77
100
AcDbEntity
  8
LY_3
  6
CONTINUOUS
 62
       251
100
AcDbLine
 10
41.454666
 20
-41.478714
 30
0.0
 11
41.454666
 21
-25.278717
 31
0.0
  0
LINE
  5
78
100
AcDbEntity
  8
LY_3
  6
CONTINUOUS
 62
       251
100
AcDbLine
 10
-28.900345
 20
-86.478699
 30
0.0
 11
-1.255356
 21
-86.478699
 31
0.0
  0
LINE
  5
79
100
AcDbEntity
  8
LY_3
  6
CONTINUOUS
 62
         7
100
AcDbLine
 10
-11.89534
 20
-111.978622
 30
0.0
 11
-27.89534
 21
-111.978622
 31
0.0
  0
LINE
  5
7A
100
AcDbEntity
  8
LY_3
  6
CONTINUOUS
 62
         7
100
AcDbLine
 10
-11.89534
 20
-103.978622
 30
0.0
 11
-27.89534
 21
-103.978622
 31
0.0
  0
LINE
  5
7B
100
AcDbEntity
  8
LY_3
  6
CONTINUOUS
 62
       251
100
AcDbLine
 10
-11.89534
 20
-103.978622
 30
0.0
 11
-11.89534
 21
-111.978622
 31
0.0
  0
LINE
  5
7C
100
AcDbEntity
  8
LY_3
  6
CONTINUOUS
 62
       251
100
AcDbLine
 10
-5.595352
 20
-104.52861
 30
0.0
 11
-5.595352
 21
-111.428619
 31
0.0
  0
LINE
  5
7D
100
AcDbEntity
  8
LY_3
  6
CONTINUOUS
 62
       251
100
AcDbLine
 10
-5.595352
 20
-111.428619
 30
0.0
 11
-27.89534
 21
-111.428619
 31
0.0
  0
LINE
  5
7E
100
AcDbEntity
  8
LY_3
  6
CONTINUOUS
 62
       251
100
AcDbLine
 10
-5.595352
 20
-104.52861
 30
0.0
 11
-27.89534
 21
-104.52861
 31
0.0
  0
LINE
  5
7F
100
AcDbEntity
  8
LY_3
  6
CONTINUOUS
 62
       251
100
AcDbLine
 10
-5.595244
 20
-111.42866
 30
0.0
 11
-3.522274
 21
-107.978658
 31
0.0
  0
LINE
  5
80
100
AcDbEntity
  8
LY_3
  6
CONTINUOUS
 62
       251
100
AcDbLine
 10
-3.522331
 20
-107.978615
 30
0.0
 11
-5.595285
 21
-104.52864
 31
0.0
  0
LINE
  5
81
100
AcDbEntity
  8
LY_3
  6
CONTINUOUS
 62
         7
100
AcDbLine
 10
-27.895279
 20
-15.978746
 30
0.0
 11
-11.895279
 21
-15.978746
 31
0.0
  0
LINE
  5
82
100
AcDbEntity
  8
LY_3
  6
CONTINUOUS
 62
         7
100
AcDbLine
 10
-27.895279
 20
-23.978729
 30
0.0
 11
-11.895279
 21
-23.978729
 31
0.0
  0
LINE
  5
83
100
AcDbEntity
  8
LY_3
  6
CONTINUOUS
 62
       251
100
AcDbLine
 10
-11.895279
 20
-15.978762
 30
0.0
 11
-11.895279
 21
-23.978745
 31
0.0
  0
LINE
  5
84
100
AcDbEntity
  8
LY_3
  6
CONTINUOUS
 62
       251
100
AcDbLine
 10
-5.595291
 20
-16.528763
 30
0.0
 11
-5.595291
 21
-23.428757
 31
0.0
  0
LINE
  5
85
100
AcDbEntity
  8
LY_3
  6
CONTINUOUS
 62
       251
100
AcDbLine
 10
-27.895279
 20
-16.528748
 30
0.0
 11
-5.595291
 21
-16.528748
 31
0.0
  0
LINE
  5
86
100
AcDbEntity
  8
LY_3
  6
CONTINUOUS
 62
       251
100
AcDbLine
 10
-27.895279
 20
-23.428741
 30
0.0
 11
-5.595291
 21
-23.428741
 31
0.0
  0
LINE
  5
87
100
AcDbEntity
  8
LY_3
  6
CONTINUOUS
 62
       251
100
AcDbLine
 10
-3.522249
 20
-19.978758
 30
0.0
 11
-5.59522
 21
-16.528756
 31
0.0
  0
LINE
  5
88
100
AcDbEntity
  8
LY_3
  6
CONTINUOUS
 62
       251
100
AcDbLine
 10
-5.59526
 20
-23.428753
 30
0.0
 11
-3.522313
 21
-19.97879
 31
0.0
  0
LINE
  5
89
100
AcDbEntity
  8
LY_3
  6
CONTINUOUS
 62
       251
100
AcDbLine
 10
-28.900345
 20
-48.978699
 30
0.0
 11
53.099655
 21
-48.978699
 31
0.0
  0
LINE
  5
8A
100
AcDbEntity
  8
LY_3
  6
CONTINUOUS
 62
       251
100
AcDbLine
 10
53.099655
 20
-78.978699
 30
0.0
 11
53.099655
 21
-86.478699
 31
0.0
  0
LINE
  5
8B
100
AcDbEntity
  8
LY_3
  6
CONTINUOUS
 62
       251
100
AcDbLine
 10
-28.900345
 20
-78.978699
 30
0.0
 11
-28.900345
 21
-86.478699
 31
0.0
  0
LINE
  5
8C
100
AcDbEntity
  8
LY_3
  6
CONTINUOUS
 62
       251
100
AcDbLine
 10
25.454666
 20
-41.478714
 30
0.0
 11
25.454666
 21
-26.478714
 31
0.0
  0
LINE
  5
8D
100
AcDbEntity
  8
LY_3
  6
CONTINUOUS
 62
       251
100
AcDbLine
 10
43.194641
 20
-25.278717
 30
0.0
 11
43.194641
 21
-41.478714
 31
0.0
  0
LINE
  5
8E
100
AcDbEntity
  8
LY_3
  6
CONTINUOUS
 62
       251
100
AcDbLine
 10
43.194641
 20
-86.478699
 30
0.0
 11
43.194641
 21
-102.67868
 31
0.0
  0
LINE
  5
8F
100
AcDbEntity
  8
LY_3
  6
CONTINUOUS
 62
       251
100
AcDbLine
 10
-19.005356
 20
-86.478699
 30
0.0
 11
-19.005356
 21
-102.67868
 31
0.0
  0
LINE
  5
90
100
AcDbEntity
  8
LY_3
  6
CONTINUOUS
 62
       251
100
AcDbLine
 10
-19.005356
 20
-25.278717
 30
0.0
 11
-19.005356
 21
-41.478714
 31
0.0
  0
LINE
  5
91
100
AcDbEntity
  8
LY_3
  6
CONTINUOUS
 62
       251
100
AcDbLine
 10
26.284653
 20
-34.866669
 30
0.0
 11
26.284653
 21
-30.043259
 31
0.0
  0
LINE
  5
92
100
AcDbEntity
  8
LY_3
  6
CONTINUOUS
 62
       251
100
AcDbLine
 10
40.624664
 20
-34.866669
 30
0.0
 11
40.624664
 21
-30.043259
 31
0.0
  0
LINE
  5
93
100
AcDbEntity
  8
LY_3
  6
CONTINUOUS
 62
       251
100
AcDbLine
 10
-2.085342
 20
-93.090714
 30
0.0
 11
-2.085342
 21
-97.914124
 31
0.0
  0
LINE
  5
94
100
AcDbEntity
  8
LY_3
  6
CONTINUOUS
 62
       251
100
AcDbLine
 10
-16.425354
 20
-93.090714
 30
0.0
 11
-16.425354
 21
-97.914124
 31
0.0
  0
LINE
  5
95
100
AcDbEntity
  8
LY_3
  6
CONTINUOUS
 62
       251
100
AcDbLine
 10
26.284653
 20
-97.914124
 30
0.0
 11
26.284653
 21
-93.090714
 31
0.0
  0
LINE
  5
96
100
AcDbEntity
  8
LY_3
  6
CONTINUOUS
 62
       251
100
AcDbLine
 10
40.624664
 20
-97.914124
 30
0.0
 11
40.624664
 21
-93.090714
 31
0.0
  0
LINE
  5
97
100
AcDbEntity
  8
LY_3
  6
CONTINUOUS
 62
       251
100
AcDbLine
 10
52.099637
 20
-10.478716
 30
0.0
 11
52.099637
 21
-15.978746
 31
0.0
  0
LINE
  5
98
100
AcDbEntity
  8
LY_3
  6
CONTINUOUS
 62
       251
100
AcDbLine
 10
61.399632
 20
-48.978722
 30
0.0
 11
77.399632
 21
-48.978722
 31
0.0
  0
LINE
  5
99
100
AcDbEntity
  8
LY_3
  6
CONTINUOUS
 62
       251
100
AcDbLine
 10
45.399633
 20
-35.478722
 30
0.0
 11
61.399632
 21
-35.478722
 31
0.0
  0
LINE
  5
9A
100
AcDbEntity
  8
LY_3
  6
CONTINUOUS
 62
       251
100
AcDbLine
 10
52.099637
 20
-10.478716
 30
0.0
 11
70.89963
 21
-10.478716
 31
0.0
  0
LINE
  5
9B
100
AcDbEntity
  8
LY_3
  6
CONTINUOUS
 62
       251
100
AcDbLine
 10
72.749641
 20
-8.034229
 30
0.0
 11
72.749641
 21
-28.923204
 31
0.0
  0
LINE
  5
9C
100
AcDbEntity
  8
LY_3
  6
CONTINUOUS
 62
       251
100
AcDbLine
 10
77.399632
 20
-28.923204
 30
0.0
 11
77.399632
 21
-99.034194
 31
0.0
  0
LINE
  5
9D
100
AcDbEntity
  8
LY_3
  6
CONTINUOUS
 62
       251
100
AcDbLine
 10
70.89963
 20
-28.923204
 30
0.0
 11
101.999599
 21
-28.923204
 31
0.0
  0
LINE
  5
9E
100
AcDbEntity
  8
LY_3
  6
CONTINUOUS
 62
       251
100
AcDbLine
 10
45.399633
 20
-26.478723
 30
0.0
 11
45.399633
 21
-41.478714
 31
0.0
  0
LINE
  5
9F
100
AcDbEntity
  8
LY_3
  6
CONTINUOUS
 62
       251
100
AcDbLine
 10
61.399632
 20
-35.478722
 30
0.0
 11
61.399632
 21
-92.478675
 31
0.0
  0
LINE
  5
A0
100
AcDbEntity
  8
LY_3
  6
CONTINUOUS
 62
       251
100
AcDbLine
 10
59.899635
 20
-11.478723
 30
0.0
 11
70.899635
 21
-11.478723
 31
0.0
  0
LINE
  5
A1
100
AcDbEntity
  8
LY_3
  6
CONTINUOUS
 62
       251
100
AcDbLine
 10
59.899635
 20
-28.478715
 30
0.0
 11
70.899635
 21
-28.478715
 31
0.0
  0
LINE
  5
A2
100
AcDbEntity
  8
LY_3
  6
CONTINUOUS
 62
       251
100
AcDbLine
 10
59.899635
 20
-11.478723
 30
0.0
 11
59.899635
 21
-28.478715
 31
0.0
  0
LINE
  5
A3
100
AcDbEntity
  8
LY_3
  6
CONTINUOUS
 62
       251
100
AcDbLine
 10
77.399632
 20
-57.478707
 30
0.0
 11
110.399608
 21
-57.478707
 31
0.0
  0
LINE
  5
A5
100
AcDbEntity
  8
LY_3
  6
DASHED
 62
         7
100
AcDbLine
 10
103.499622
 20
-15.978723
 30
0.0
 11
108.899608
 21
-15.978723
 31
0.0
  0
LINE
  5
A6
100
AcDbEntity
  8
LY_3
  6
DASHED
 62
         7
100
AcDbLine
 10
110.399608
 20
-17.478769
 30
0.0
 11
110.399608
 21
-23.348741
 31
0.0
  0
LINE
  5
A7
100
AcDbEntity
  8
LY_3
  6
DASHED
 62
         7
100
AcDbLine
 10
108.899617
 20
-15.978734
 30
0.0
 11
110.399622
 21
-17.478765
 31
0.0
  0
LINE
  5
A8
100
AcDbEntity
  8
LY_3
  6
DASHED
 62
         7
100
AcDbLine
 10
101.999599
 20
-17.478723
 30
0.0
 11
101.999599
 21
-23.348741
 31
0.0
  0
LINE
  5
A9
100
AcDbEntity
  8
LY_3
  6
DASHED
 62
         7
100
AcDbLine
 10
101.999602
 20
-17.478736
 30
0.0
 11
103.499616
 21
-15.978747
 31
0.0
  0
LINE
  5
AA
100
AcDbEntity
  8
LY_3
  6
CONTINUOUS
 62
       251
100
AcDbLine
 10
91.74963
 20
-28.228707
 30
0.0
 11
91.74963
 21
-28.978707
 31
0.0
  0
LINE
  5
AB
100
AcDbEntity
  8
LY_3
  6
DASHED
 62
         7
100
AcDbLine
 10
120.099597
 20
-17.478723
 30
0.0
 11
120.099597
 21
-23.348741
 31
0.0
  0
LINE
  5
AC
100
AcDbEntity
  8
LY_3
  6
CONTINUOUS
 62
       251
100
AcDbLine
 10
165.099573
 20
-28.978707
 30
0.0
 11
165.099573
 21
-98.97869
 31
0.0
  0
LINE
  5
AD
100
AcDbEntity
  8
LY_3
  6
CONTINUOUS
 62
       251
100
AcDbLine
 10
128.499583
 20
-28.978707
 30
0.0
 11
165.099573
 21
-28.978707
 31
0.0
  0
LINE
  5
AE
100
AcDbEntity
  8
LY_3
  6
DASHED
 62
         7
100
AcDbLine
 10
128.499583
 20
-17.478769
 30
0.0
 11
128.499583
 21
-23.348741
 31
0.0
  0
LINE
  5
AF
100
AcDbEntity
  8
LY_3
  6
DASHED
 62
         7
100
AcDbLine
 10
121.599597
 20
-15.978723
 30
0.0
 11
126.999583
 21
-15.978723
 31
0.0
  0
LINE
  5
B0
100
AcDbEntity
  8
LY_3
  6
DASHED
 62
         7
100
AcDbLine
 10
120.099598
 20
-17.478724
 30
0.0
 11
121.599584
 21
-15.978739
 31
0.0
  0
LINE
  5
B1
100
AcDbEntity
  8
LY_3
  6
DASHED
 62
         7
100
AcDbLine
 10
126.999569
 20
-15.978738
 30
0.0
 11
128.499569
 21
-17.478767
 31
0.0
  0
LINE
  5
B2
100
AcDbEntity
  8
LY_3
  6
CENTER
 62
         7
100
AcDbLine
 10
144.099573
 20
-25.173249
 30
0.0
 11
144.099573
 21
-44.458924
 31
0.0
  0
LINE
  5
B3
100
AcDbEntity
  8
LY_3
  6
CONTINUOUS
 62
       251
100
AcDbLine
 10
129.064578
 20
-10.768732
 30
0.0
 11
129.064578
 21
-25.768708
 31
0.0
  0
LINE
  5
B4
100
AcDbEntity
  8
LY_3
  6
CONTINUOUS
 62
       251
100
AcDbLine
 10
119.534579
 20
-13.188745
 30
0.0
 11
129.064578
 21
-13.188745
 31
0.0
  0
LINE
  5
B5
100
AcDbEntity
  8
LY_3
  6
CONTINUOUS
 62
       251
100
AcDbLine
 10
119.534579
 20
-23.348741
 30
0.0
 11
129.064578
 21
-23.348741
 31
0.0
  0
LINE
  5
B6
100
AcDbEntity
  8
LY_3
  6
CONTINUOUS
 62
       251
100
AcDbLine
 10
131.349551
 20
-10.768732
 30
0.0
 11
131.349551
 21
-25.768708
 31
0.0
  0
LINE
  5
B7
100
AcDbEntity
  8
LY_3
  6
CONTINUOUS
 62
       251
100
AcDbLine
 10
133.349566
 20
-11.768716
 30
0.0
 11
133.349566
 21
-24.768724
 31
0.0
  0
LINE
  5
B8
100
AcDbEntity
  8
LY_3
  6
CONTINUOUS
 62
       251
100
AcDbLine
 10
131.349551
 20
-11.768716
 30
0.0
 11
133.349566
 21
-11.768716
 31
0.0
  0
LINE
  5
B9
100
AcDbEntity
  8
LY_3
  6
CONTINUOUS
 62
       251
100
AcDbLine
 10
131.349551
 20
-24.768724
 30
0.0
 11
133.349566
 21
-24.768724
 31
0.0
  0
LINE
  5
BA
100
AcDbEntity
  8
LY_3
  6
CONTINUOUS
 62
       251
100
AcDbLine
 10
129.064578
 20
-10.768732
 30
0.0
 11
131.349551
 21
-10.768732
 31
0.0
  0
LINE
  5
BB
100
AcDbEntity
  8
LY_3
  6
CONTINUOUS
 62
       251
100
AcDbLine
 10
129.064578
 20
-25.768708
 30
0.0
 11
131.349551
 21
-25.768708
 31
0.0
  0
LINE
  5
BC
100
AcDbEntity
  8
LY_3
  6
CONTINUOUS
 62
       251
100
AcDbLine
 10
119.534602
 20
-25.768708
 30
0.0
 11
119.534602
 21
-10.768732
 31
0.0
  0
LINE
  5
BD
100
AcDbEntity
  8
LY_3
  6
CONTINUOUS
 62
       251
100
AcDbLine
 10
117.249606
 20
-25.768708
 30
0.0
 11
117.249606
 21
-10.768732
 31
0.0
  0
LINE
  5
BE
100
AcDbEntity
  8
LY_3
  6
CONTINUOUS
 62
       251
100
AcDbLine
 10
115.249614
 20
-24.768724
 30
0.0
 11
115.249614
 21
-11.768716
 31
0.0
  0
LINE
  5
BF
100
AcDbEntity
  8
LY_3
  6
CONTINUOUS
 62
       251
100
AcDbLine
 10
117.249606
 20
-10.768732
 30
0.0
 11
119.534602
 21
-10.768732
 31
0.0
  0
LINE
  5
C0
100
AcDbEntity
  8
LY_3
  6
CONTINUOUS
 62
       251
100
AcDbLine
 10
117.249606
 20
-25.768708
 30
0.0
 11
119.534602
 21
-25.768708
 31
0.0
  0
LINE
  5
C1
100
AcDbEntity
  8
LY_3
  6
CONTINUOUS
 62
       251
100
AcDbLine
 10
136.399531
 20
-15.723726
 30
0.0
 11
133.349566
 21
-15.723726
 31
0.0
  0
LINE
  5
C2
100
AcDbEntity
  8
LY_3
  6
CONTINUOUS
 62
       251
100
AcDbLine
 10
136.399531
 20
-20.813737
 30
0.0
 11
133.349566
 21
-20.813737
 31
0.0
  0
LINE
  5
C3
100
AcDbEntity
  8
LY_3
  6
CONTINUOUS
 62
       251
100
AcDbLine
 10
101.434627
 20
-25.768708
 30
0.0
 11
101.434627
 21
-10.768732
 31
0.0
  0
LINE
  5
C4
100
AcDbEntity
  8
LY_3
  6
CONTINUOUS
 62
       251
100
AcDbLine
 10
101.434627
 20
-13.188745
 30
0.0
 11
110.964626
 21
-13.188745
 31
0.0
  0
LINE
  5
C5
100
AcDbEntity
  8
LY_3
  6
CONTINUOUS
 62
       251
100
AcDbLine
 10
101.434627
 20
-23.348741
 30
0.0
 11
110.964626
 21
-23.348741
 31
0.0
  0
LINE
  5
C6
100
AcDbEntity
  8
LY_3
  6
CONTINUOUS
 62
       251
100
AcDbLine
 10
99.149631
 20
-25.768708
 30
0.0
 11
99.149631
 21
-10.768732
 31
0.0
  0
LINE
  5
C7
100
AcDbEntity
  8
LY_3
  6
CONTINUOUS
 62
       251
100
AcDbLine
 10
97.149639
 20
-24.768724
 30
0.0
 11
97.149639
 21
-11.768716
 31
0.0
  0
LINE
  5
C8
100
AcDbEntity
  8
LY_3
  6
CONTINUOUS
 62
       251
100
AcDbLine
 10
97.149639
 20
-11.768716
 30
0.0
 11
99.149631
 21
-11.768716
 31
0.0
  0
LINE
  5
C9
100
AcDbEntity
  8
LY_3
  6
CONTINUOUS
 62
       251
100
AcDbLine
 10
97.149639
 20
-24.768724
 30
0.0
 11
99.149631
 21
-24.768724
 31
0.0
  0
LINE
  5
CA
100
AcDbEntity
  8
LY_3
  6
CONTINUOUS
 62
       251
100
AcDbLine
 10
99.149631
 20
-10.768732
 30
0.0
 11
101.434627
 21
-10.768732
 31
0.0
  0
LINE
  5
CB
100
AcDbEntity
  8
LY_3
  6
CONTINUOUS
 62
       251
100
AcDbLine
 10
99.149631
 20
-25.768708
 30
0.0
 11
101.434627
 21
-25.768708
 31
0.0
  0
LINE
  5
CC
100
AcDbEntity
  8
LY_3
  6
CONTINUOUS
 62
       251
100
AcDbLine
 10
110.964626
 20
-10.768732
 30
0.0
 11
110.964626
 21
-25.768708
 31
0.0
  0
LINE
  5
CD
100
AcDbEntity
  8
LY_3
  6
CONTINUOUS
 62
       251
100
AcDbLine
 10
113.249599
 20
-10.768732
 30
0.0
 11
113.249599
 21
-25.768708
 31
0.0
  0
LINE
  5
CE
100
AcDbEntity
  8
LY_3
  6
CONTINUOUS
 62
       251
100
AcDbLine
 10
113.249599
 20
-11.768716
 30
0.0
 11
117.249606
 21
-11.768716
 31
0.0
  0
LINE
  5
CF
100
AcDbEntity
  8
LY_3
  6
CONTINUOUS
 62
       251
100
AcDbLine
 10
113.249599
 20
-24.768724
 30
0.0
 11
117.249606
 21
-24.768724
 31
0.0
  0
LINE
  5
D0
100
AcDbEntity
  8
LY_3
  6
CONTINUOUS
 62
       251
100
AcDbLine
 10
110.964626
 20
-10.768732
 30
0.0
 11
113.249599
 21
-10.768732
 31
0.0
  0
LINE
  5
D1
100
AcDbEntity
  8
LY_3
  6
CONTINUOUS
 62
       251
100
AcDbLine
 10
110.964626
 20
-25.768708
 30
0.0
 11
113.249599
 21
-25.768708
 31
0.0
  0
LINE
  5
D2
100
AcDbEntity
  8
LY_3
  6
CONTINUOUS
 62
       251
100
AcDbLine
 10
95.899647
 20
-15.723726
 30
0.0
 11
97.149639
 21
-15.723726
 31
0.0
  0
LINE
  5
D3
100
AcDbEntity
  8
LY_3
  6
CONTINUOUS
 62
       251
100
AcDbLine
 10
95.899647
 20
-20.813737
 30
0.0
 11
97.149639
 21
-20.813737
 31
0.0
  0
LINE
  5
D4
100
AcDbEntity
  8
LY_3
  6
CONTINUOUS
 62
       251
100
AcDbLine
 10
95.899647
 20
-15.723726
 30
0.0
 11
95.899647
 21
-20.813737
 31
0.0
  0
LINE
  5
D5
100
AcDbEntity
  8
LY_3
  6
CONTINUOUS
 62
       251
100
AcDbLine
 10
136.399531
 20
-15.723726
 30
0.0
 11
136.399531
 21
-20.813737
 31
0.0
  0
LINE
  5
D6
100
AcDbEntity
  8
LY_3
  6
CONTINUOUS
 62
       251
100
AcDbLine
 10
101.999599
 20
-23.348741
 30
0.0
 11
101.999599
 21
-28.923204
 31
0.0
  0
LINE
  5
D7
100
AcDbEntity
  8
LY_3
  6
CONTINUOUS
 62
       251
100
AcDbLine
 10
110.399608
 20
-23.348741
 30
0.0
 11
110.399608
 21
-104.608657
 31
0.0
  0
LINE
  5
D8
100
AcDbEntity
  8
LY_3
  6
CONTINUOUS
 62
       251
100
AcDbLine
 10
120.099597
 20
-23.348741
 30
0.0
 11
120.099597
 21
-104.608657
 31
0.0
  0
LINE
  5
D9
100
AcDbEntity
  8
LY_3
  6
CONTINUOUS
 62
       251
100
AcDbLine
 10
128.499583
 20
-23.348741
 30
0.0
 11
128.499583
 21
-28.978707
 31
0.0
  0
LINE
  5
DA
100
AcDbEntity
  8
LY_3
  6
CONTINUOUS
 62
       251
100
AcDbLine
 10
152.749625
 20
-3.03422
 30
0.0
 11
77.749656
 21
-3.03422
 31
0.0
  0
LINE
  5
DB
100
AcDbEntity
  8
LY_3
  6
CONTINUOUS
 62
       251
100
AcDbLine
 10
157.749628
 20
-8.034222
 30
0.0
 11
157.749628
 21
-29.034211
 31
0.0
  0
LINE
  5
DC
100
AcDbEntity
  8
LY_3
  6
DASHED
 62
         7
100
AcDbLine
 10
155.749613
 20
-6.034197
 30
0.0
 11
155.749613
 21
-11.034212
 31
0.0
  0
LINE
  5
DD
100
AcDbEntity
  8
LY_3
  6
DASHED
 62
         7
100
AcDbLine
 10
141.749598
 20
-3.03422
 30
0.0
 11
141.749598
 21
-11.034212
 31
0.0
  0
LINE
  5
DE
100
AcDbEntity
  8
LY_3
  6
DASHED
 62
         7
100
AcDbLine
 10
74.749615
 20
-11.034212
 30
0.0
 11
74.749615
 21
-6.034265
 31
0.0
  0
LINE
  5
DF
100
AcDbEntity
  8
LY_3
  6
DASHED
 62
         7
100
AcDbLine
 10
88.74963
 20
-11.034212
 30
0.0
 11
88.74963
 21
-3.03422
 31
0.0
  0
LINE
  5
E0
100
AcDbEntity
  8
LY_3
  6
CONTINUOUS
 62
       251
100
AcDbLine
 10
91.74963
 20
-8.034235
 30
0.0
 11
91.74963
 21
-28.978707
 31
0.0
  0
LINE
  5
E1
100
AcDbEntity
  8
LY_3
  6
CONTINUOUS
 62
       251
100
AcDbLine
 10
139.749628
 20
-8.034235
 30
0.0
 11
91.74963
 21
-8.034235
 31
0.0
  0
LINE
  5
E2
100
AcDbEntity
  8
LY_3
  6
CONTINUOUS
 62
       251
100
AcDbLine
 10
139.749628
 20
-8.034235
 30
0.0
 11
139.749628
 21
-11.034212
 31
0.0
  0
LINE
  5
E3
100
AcDbEntity
  8
LY_3
  6
CONTINUOUS
 62
       251
100
AcDbLine
 10
144.749621
 20
-19.096464
 30
0.0
 11
144.749621
 21
-28.978707
 31
0.0
  0
LINE
  5
E4
100
AcDbEntity
  8
LY_3
  6
CONTINUOUS
 62
       251
100
AcDbLine
 10
70.89963
 20
-10.478716
 30
0.0
 11
70.89963
 21
-28.923204
 31
0.0
  0
LINE
  5
E5
100
AcDbEntity
  8
LY_3
  6
CONTINUOUS
 62
       251
100
AcDbLine
 10
61.899634
 20
-12.278757
 30
0.0
 11
61.899634
 21
-27.678727
 31
0.0
  0
LINE
  5
E6
100
AcDbEntity
  8
LY_3
  6
CONTINUOUS
 62
       251
100
AcDbLine
 10
69.899634
 20
-13.478738
 30
0.0
 11
69.899634
 21
-26.478746
 31
0.0
  0
LINE
  5
E7
100
AcDbEntity
  8
LY_3
  6
CONTINUOUS
 62
       251
100
AcDbLine
 10
61.899634
 20
-13.478738
 30
0.0
 11
69.899634
 21
-13.478738
 31
0.0
  0
LINE
  5
E8
100
AcDbEntity
  8
LY_3
  6
CONTINUOUS
 62
       251
100
AcDbLine
 10
69.899634
 20
-26.478746
 30
0.0
 11
61.899634
 21
-26.478746
 31
0.0
  0
LINE
  5
E9
100
AcDbEntity
  8
LY_3
  6
CONTINUOUS
 62
       251
100
AcDbLine
 10
59.899635
 20
-12.278757
 30
0.0
 11
61.899634
 21
-12.278757
 31
0.0
  0
LINE
  5
EA
100
AcDbEntity
  8
LY_3
  6
CONTINUOUS
 62
       251
100
AcDbLine
 10
59.899635
 20
-27.678727
 30
0.0
 11
61.899634
 21
-27.678727
 31
0.0
  0
LINE
  5
EB
100
AcDbEntity
  8
LY_3
  6
CONTINUOUS
 62
       251
100
AcDbLine
 10
59.899633
 20
-23.978738
 30
0.0
 11
36.099638
 21
-23.978738
 31
0.0
  0
LINE
  5
EC
100
AcDbEntity
  8
LY_3
  6
CONTINUOUS
 62
       251
100
AcDbLine
 10
59.899633
 20
-15.978746
 30
0.0
 11
36.099638
 21
-15.978746
 31
0.0
  0
LINE
  5
ED
100
AcDbEntity
  8
LY_3
  6
CONTINUOUS
 62
       251
100
AcDbLine
 10
36.099638
 20
-23.978738
 30
0.0
 11
36.099638
 21
-15.978746
 31
0.0
  0
LINE
  5
EE
100
AcDbEntity
  8
LY_3
  6
CONTINUOUS
 62
       251
100
AcDbLine
 10
29.799652
 20
-23.428735
 30
0.0
 11
29.799652
 21
-16.528749
 31
0.0
  0
LINE
  5
EF
100
AcDbEntity
  8
LY_3
  6
CONTINUOUS
 62
         7
100
AcDbLine
 10
59.899635
 20
-23.428735
 30
0.0
 11
36.099638
 21
-23.428735
 31
0.0
  0
LINE
  5
F0
100
AcDbEntity
  8
LY_3
  6
CONTINUOUS
 62
         7
100
AcDbLine
 10
59.899635
 20
-16.528749
 30
0.0
 11
36.099638
 21
-16.528749
 31
0.0
  0
LINE
  5
F1
100
AcDbEntity
  8
LY_3
  6
CONTINUOUS
 62
       251
100
AcDbLine
 10
27.72668
 20
-19.978748
 30
0.0
 11
29.79965
 21
-23.428749
 31
0.0
  0
LINE
  5
F2
100
AcDbEntity
  8
LY_3
  6
CONTINUOUS
 62
       251
100
AcDbLine
 10
29.799665
 20
-16.528737
 30
0.0
 11
27.726695
 21
-19.978738
 31
0.0
  0
LINE
  5
F3
100
AcDbEntity
  8
LY_3
  6
CONTINUOUS
 62
       251
100
AcDbLine
 10
52.099637
 20
-23.978738
 30
0.0
 11
52.099637
 21
-26.478723
 31
0.0
  0
LINE
  5
F4
100
AcDbEntity
  8
LY_3
  6
CONTINUOUS
 62
       251
100
AcDbLine
 10
36.099638
 20
-16.528749
 30
0.0
 11
29.799652
 21
-16.528749
 31
0.0
  0
LINE
  5
F5
100
AcDbEntity
  8
LY_3
  6
CONTINUOUS
 62
       251
100
AcDbLine
 10
36.099638
 20
-23.428735
 30
0.0
 11
29.799652
 21
-23.428735
 31
0.0
  0
LINE
  5
F7
100
AcDbEntity
  8
LY_3
  6
PHANTOM
 62
         7
100
AcDbLine
 10
177.09955
 20
-15.723726
 30
0.0
 11
177.09955
 21
-20.813714
 31
0.0
  0
LINE
  5
F8
100
AcDbEntity
  8
LY_3
  6
PHANTOM
 62
         7
100
AcDbLine
 10
136.399531
 20
-15.723726
 30
0.0
 11
177.09955
 21
-15.723726
 31
0.0
  0
LINE
  5
F9
100
AcDbEntity
  8
LY_3
  6
PHANTOM
 62
         7
100
AcDbLine
 10
136.399531
 20
-20.813714
 30
0.0
 11
177.09955
 21
-20.813714
 31
0.0
  0
LINE
  5
FA
100
AcDbEntity
  8
LY_3
  6
CONTINUOUS
 62
       251
100
AcDbLine
 10
144.749621
 20
-27.478707
 30
0.0
 11
149.749613
 21
-27.478707
 31
0.0
  0
LINE
  5
FB
100
AcDbEntity
  8
LY_3
  6
CONTINUOUS
 62
       251
100
AcDbLine
 10
150.249605
 20
-22.978708
 30
0.0
 11
154.24959
 21
-22.978708
 31
0.0
  0
LINE
  5
FC
100
AcDbEntity
  8
LY_3
  6
CONTINUOUS
 62
       251
100
AcDbLine
 10
149.749613
 20
-27.478707
 30
0.0
 11
149.749613
 21
-28.978707
 31
0.0
  0
LINE
  5
FD
100
AcDbEntity
  8
LY_3
  6
CONTINUOUS
 62
       251
100
AcDbLine
 10
154.749605
 20
-27.478707
 30
0.0
 11
154.749605
 21
-28.978707
 31
0.0
  0
LINE
  5
FE
100
AcDbEntity
  8
LY_3
  6
CONTINUOUS
 62
       251
100
AcDbLine
 10
149.749587
 20
-27.478709
 30
0.0
 11
150.24958
 21
-22.978706
 31
0.0
  0
LINE
  5
FF
100
AcDbEntity
  8
LY_3
  6
CONTINUOUS
 62
       251
100
AcDbLine
 10
154.7496
 20
-27.478732
 30
0.0
 11
154.249585
 21
-22.978731
 31
0.0
  0
LINE
  5
100
100
AcDbEntity
  8
LY_3
  6
CONTINUOUS
 62
       251
100
AcDbLine
 10
154.749605
 20
-27.478707
 30
0.0
 11
157.749628
 21
-27.478707
 31
0.0
  0
LINE
  5
101
100
AcDbEntity
  8
LY_3
  6
PHANTOM
 62
         7
100
AcDbLine
 10
120.099597
 20
-41.478699
 30
0.0
 11
165.099573
 21
-41.478699
 31
0.0
  0
LINE
  5
102
100
AcDbEntity
  8
LY_3
  6
PHANTOM
 62
         7
100
AcDbLine
 10
120.099597
 20
-56.478699
 30
0.0
 11
165.099573
 21
-56.478699
 31
0.0
  0
LINE
  5
103
100
AcDbEntity
  8
LY_3
  6
CONTINUOUS
 62
       251
100
AcDbLine
 10
72.749641
 20
-8.034229
 30
0.0
 11
77.749656
 21
-3.03422
 31
0.0
  0
LINE
  5
104
100
AcDbEntity
  8
LY_3
  6
CONTINUOUS
 62
       251
100
AcDbLine
 10
152.749625
 20
-3.03422
 30
0.0
 11
157.749628
 21
-8.034222
 31
0.0
  0
LINE
  5
105
100
AcDbEntity
  8
LY_3
  6
CONTINUOUS
 62
       251
100
AcDbLine
 10
52.099637
 20
-117.478682
 30
0.0
 11
70.89963
 21
-117.478682
 31
0.0
  0
LINE
  5
106
100
AcDbEntity
  8
LY_3
  6
CONTINUOUS
 62
       251
100
AcDbLine
 10
45.399633
 20
-92.478675
 30
0.0
 11
61.399632
 21
-92.478675
 31
0.0
  0
LINE
  5
107
100
AcDbEntity
  8
LY_3
  6
CONTINUOUS
 62
       251
100
AcDbLine
 10
61.399632
 20
-78.978675
 30
0.0
 11
77.399632
 21
-78.978675
 31
0.0
  0
LINE
  5
108
100
AcDbEntity
  8
LY_3
  6
CONTINUOUS
 62
       251
100
AcDbLine
 10
72.749641
 20
-119.923168
 30
0.0
 11
72.749641
 21
-99.034194
 31
0.0
  0
LINE
  5
109
100
AcDbEntity
  8
LY_3
  6
CONTINUOUS
 62
       251
100
AcDbLine
 10
70.89963
 20
-99.034194
 30
0.0
 11
101.999599
 21
-99.034194
 31
0.0
  0
LINE
  5
10A
100
AcDbEntity
  8
LY_3
  6
CONTINUOUS
 62
       251
100
AcDbLine
 10
52.099637
 20
-117.478682
 30
0.0
 11
52.099637
 21
-111.978652
 31
0.0
  0
LINE
  5
10B
100
AcDbEntity
  8
LY_3
  6
CONTINUOUS
 62
       251
100
AcDbLine
 10
131.349551
 20
-117.188666
 30
0.0
 11
131.349551
 21
-102.188689
 31
0.0
  0
LINE
  5
10C
100
AcDbEntity
  8
LY_3
  6
CONTINUOUS
 62
       251
100
AcDbLine
 10
119.534579
 20
-104.608657
 30
0.0
 11
129.064578
 21
-104.608657
 31
0.0
  0
LINE
  5
10D
100
AcDbEntity
  8
LY_3
  6
CONTINUOUS
 62
       251
100
AcDbLine
 10
119.534579
 20
-114.768652
 30
0.0
 11
129.064578
 21
-114.768652
 31
0.0
  0
LINE
  5
10E
100
AcDbEntity
  8
LY_3
  6
CONTINUOUS
 62
       251
100
AcDbLine
 10
129.064578
 20
-117.188666
 30
0.0
 11
129.064578
 21
-102.188689
 31
0.0
  0
LINE
  5
10F
100
AcDbEntity
  8
LY_3
  6
DASHED
 62
         7
100
AcDbLine
 10
126.999569
 20
-111.978659
 30
0.0
 11
128.499569
 21
-110.47863
 31
0.0
  0
LINE
  5
110
100
AcDbEntity
  8
LY_3
  6
DASHED
 62
         7
100
AcDbLine
 10
120.099598
 20
-110.478673
 30
0.0
 11
121.599584
 21
-111.978659
 31
0.0
  0
LINE
  5
111
100
AcDbEntity
  8
LY_3
  6
DASHED
 62
         7
100
AcDbLine
 10
121.599597
 20
-111.978674
 30
0.0
 11
126.999583
 21
-111.978674
 31
0.0
  0
LINE
  5
112
100
AcDbEntity
  8
LY_3
  6
DASHED
 62
         7
100
AcDbLine
 10
128.499583
 20
-110.478629
 30
0.0
 11
128.499583
 21
-104.608657
 31
0.0
  0
LINE
  5
113
100
AcDbEntity
  8
LY_3
  6
CONTINUOUS
 62
       251
100
AcDbLine
 10
128.499583
 20
-98.97869
 30
0.0
 11
165.099573
 21
-98.97869
 31
0.0
  0
LINE
  5
114
100
AcDbEntity
  8
LY_3
  6
DASHED
 62
         7
100
AcDbLine
 10
120.099597
 20
-110.478674
 30
0.0
 11
120.099597
 21
-104.608657
 31
0.0
  0
LINE
  5
115
100
AcDbEntity
  8
LY_3
  6
CONTINUOUS
 62
       251
100
AcDbLine
 10
91.74963
 20
-99.72869
 30
0.0
 11
91.74963
 21
-98.97869
 31
0.0
  0
LINE
  5
116
100
AcDbEntity
  8
LY_3
  6
DASHED
 62
         7
100
AcDbLine
 10
101.999602
 20
-110.478661
 30
0.0
 11
103.499616
 21
-111.978651
 31
0.0
  0
LINE
  5
117
100
AcDbEntity
  8
LY_3
  6
DASHED
 62
         7
100
AcDbLine
 10
101.999599
 20
-110.478674
 30
0.0
 11
101.999599
 21
-104.608657
 31
0.0
  0
LINE
  5
118
100
AcDbEntity
  8
LY_3
  6
DASHED
 62
         7
100
AcDbLine
 10
108.899617
 20
-111.978663
 30
0.0
 11
110.399622
 21
-110.478632
 31
0.0
  0
LINE
  5
119
100
AcDbEntity
  8
LY_3
  6
DASHED
 62
         7
100
AcDbLine
 10
110.399608
 20
-110.478629
 30
0.0
 11
110.399608
 21
-104.608657
 31
0.0
  0
LINE
  5
11A
100
AcDbEntity
  8
LY_3
  6
DASHED
 62
         7
100
AcDbLine
 10
103.499622
 20
-111.978674
 30
0.0
 11
108.899608
 21
-111.978674
 31
0.0
  0
LINE
  5
11B
100
AcDbEntity
  8
LY_3
  6
CONTINUOUS
 62
       251
100
AcDbLine
 10
77.399632
 20
-70.478691
 30
0.0
 11
110.399608
 21
-70.478691
 31
0.0
  0
LINE
  5
11C
100
AcDbEntity
  8
LY_3
  6
CONTINUOUS
 62
       251
100
AcDbLine
 10
59.899635
 20
-116.478674
 30
0.0
 11
59.899635
 21
-99.478682
 31
0.0
  0
LINE
  5
11D
100
AcDbEntity
  8
LY_3
  6
CONTINUOUS
 62
       251
100
AcDbLine
 10
45.399633
 20
-101.478675
 30
0.0
 11
45.399633
 21
-86.478699
 31
0.0
  0
LINE
  5
11E
100
AcDbEntity
  8
LY_3
  6
CONTINUOUS
 62
       251
100
AcDbLine
 10
59.899635
 20
-99.478682
 30
0.0
 11
70.899635
 21
-99.478682
 31
0.0
  0
LINE
  5
11F
100
AcDbEntity
  8
LY_3
  6
CONTINUOUS
 62
       251
100
AcDbLine
 10
59.899635
 20
-116.478674
 30
0.0
 11
70.899635
 21
-116.478674
 31
0.0
  0
LINE
  5
120
100
AcDbEntity
  8
LY_3
  6
CONTINUOUS
 62
       251
100
AcDbLine
 10
133.349566
 20
-116.188681
 30
0.0
 11
133.349566
 21
-103.188674
 31
0.0
  0
LINE
  5
121
100
AcDbEntity
  8
LY_3
  6
CONTINUOUS
 62
       251
100
AcDbLine
 10
131.349551
 20
-116.188681
 30
0.0
 11
133.349566
 21
-116.188681
 31
0.0
  0
LINE
  5
122
100
AcDbEntity
  8
LY_3
  6
CONTINUOUS
 62
       251
100
AcDbLine
 10
131.349551
 20
-103.188674
 30
0.0
 11
133.349566
 21
-103.188674
 31
0.0
  0
LINE
  5
123
100
AcDbEntity
  8
LY_3
  6
CONTINUOUS
 62
       251
100
AcDbLine
 10
129.064578
 20
-117.188666
 30
0.0
 11
131.349551
 21
-117.188666
 31
0.0
  0
LINE
  5
124
100
AcDbEntity
  8
LY_3
  6
CONTINUOUS
 62
       251
100
AcDbLine
 10
129.064578
 20
-102.188689
 30
0.0
 11
131.349551
 21
-102.188689
 31
0.0
  0
LINE
  5
125
100
AcDbEntity
  8
LY_3
  6
CONTINUOUS
 62
       251
100
AcDbLine
 10
119.534602
 20
-102.188689
 30
0.0
 11
119.534602
 21
-117.188666
 31
0.0
  0
LINE
  5
126
100
AcDbEntity
  8
LY_3
  6
CONTINUOUS
 62
       251
100
AcDbLine
 10
117.249606
 20
-102.188689
 30
0.0
 11
117.249606
 21
-117.188666
 31
0.0
  0
LINE
  5
127
100
AcDbEntity
  8
LY_3
  6
CONTINUOUS
 62
       251
100
AcDbLine
 10
115.249614
 20
-103.188674
 30
0.0
 11
115.249614
 21
-116.188681
 31
0.0
  0
LINE
  5
128
100
AcDbEntity
  8
LY_3
  6
CONTINUOUS
 62
       251
100
AcDbLine
 10
117.249606
 20
-117.188666
 30
0.0
 11
119.534602
 21
-117.188666
 31
0.0
  0
LINE
  5
129
100
AcDbEntity
  8
LY_3
  6
CONTINUOUS
 62
       251
100
AcDbLine
 10
117.249606
 20
-102.188689
 30
0.0
 11
119.534602
 21
-102.188689
 31
0.0
  0
LINE
  5
12A
100
AcDbEntity
  8
LY_3
  6
CONTINUOUS
 62
       251
100
AcDbLine
 10
136.399531
 20
-112.233672
 30
0.0
 11
133.349566
 21
-112.233672
 31
0.0
  0
LINE
  5
12B
100
AcDbEntity
  8
LY_3
  6
CONTINUOUS
 62
       251
100
AcDbLine
 10
136.399531
 20
-107.14366
 30
0.0
 11
133.349566
 21
-107.14366
 31
0.0
  0
LINE
  5
12C
100
AcDbEntity
  8
LY_3
  6
CONTINUOUS
 62
       251
100
AcDbLine
 10
101.434627
 20
-102.188689
 30
0.0
 11
101.434627
 21
-117.188666
 31
0.0
  0
LINE
  5
12D
100
AcDbEntity
  8
LY_3
  6
CONTINUOUS
 62
       251
100
AcDbLine
 10
101.434627
 20
-114.768652
 30
0.0
 11
110.964626
 21
-114.768652
 31
0.0
  0
LINE
  5
12E
100
AcDbEntity
  8
LY_3
  6
CONTINUOUS
 62
       251
100
AcDbLine
 10
101.434627
 20
-104.608657
 30
0.0
 11
110.964626
 21
-104.608657
 31
0.0
  0
LINE
  5
12F
100
AcDbEntity
  8
LY_3
  6
CONTINUOUS
 62
       251
100
AcDbLine
 10
99.149631
 20
-102.188689
 30
0.0
 11
99.149631
 21
-117.188666
 31
0.0
  0
LINE
  5
130
100
AcDbEntity
  8
LY_3
  6
CONTINUOUS
 62
       251
100
AcDbLine
 10
97.149639
 20
-103.188674
 30
0.0
 11
97.149639
 21
-116.188681
 31
0.0
  0
LINE
  5
131
100
AcDbEntity
  8
LY_3
  6
CONTINUOUS
 62
       251
100
AcDbLine
 10
97.149639
 20
-116.188681
 30
0.0
 11
99.149631
 21
-116.188681
 31
0.0
  0
LINE
  5
132
100
AcDbEntity
  8
LY_3
  6
CONTINUOUS
 62
       251
100
AcDbLine
 10
97.149639
 20
-103.188674
 30
0.0
 11
99.149631
 21
-103.188674
 31
0.0
  0
LINE
  5
133
100
AcDbEntity
  8
LY_3
  6
CONTINUOUS
 62
       251
100
AcDbLine
 10
99.149631
 20
-117.188666
 30
0.0
 11
101.434627
 21
-117.188666
 31
0.0
  0
LINE
  5
134
100
AcDbEntity
  8
LY_3
  6
CONTINUOUS
 62
       251
100
AcDbLine
 10
99.149631
 20
-102.188689
 30
0.0
 11
101.434627
 21
-102.188689
 31
0.0
  0
LINE
  5
135
100
AcDbEntity
  8
LY_3
  6
CONTINUOUS
 62
       251
100
AcDbLine
 10
110.964626
 20
-117.188666
 30
0.0
 11
110.964626
 21
-102.188689
 31
0.0
  0
LINE
  5
136
100
AcDbEntity
  8
LY_3
  6
CONTINUOUS
 62
       251
100
AcDbLine
 10
113.249599
 20
-117.188666
 30
0.0
 11
113.249599
 21
-102.188689
 31
0.0
  0
LINE
  5
137
100
AcDbEntity
  8
LY_3
  6
CONTINUOUS
 62
       251
100
AcDbLine
 10
113.249599
 20
-116.188681
 30
0.0
 11
117.249606
 21
-116.188681
 31
0.0
  0
LINE
  5
138
100
AcDbEntity
  8
LY_3
  6
CONTINUOUS
 62
       251
100
AcDbLine
 10
113.249599
 20
-103.188674
 30
0.0
 11
117.249606
 21
-103.188674
 31
0.0
  0
LINE
  5
139
100
AcDbEntity
  8
LY_3
  6
CONTINUOUS
 62
       251
100
AcDbLine
 10
110.964626
 20
-117.188666
 30
0.0
 11
113.249599
 21
-117.188666
 31
0.0
  0
LINE
  5
13A
100
AcDbEntity
  8
LY_3
  6
CONTINUOUS
 62
       251
100
AcDbLine
 10
110.964626
 20
-102.188689
 30
0.0
 11
113.249599
 21
-102.188689
 31
0.0
  0
LINE
  5
13B
100
AcDbEntity
  8
LY_3
  6
CONTINUOUS
 62
       251
100
AcDbLine
 10
95.899647
 20
-112.233672
 30
0.0
 11
97.149639
 21
-112.233672
 31
0.0
  0
LINE
  5
13C
100
AcDbEntity
  8
LY_3
  6
CONTINUOUS
 62
       251
100
AcDbLine
 10
95.899647
 20
-107.14366
 30
0.0
 11
97.149639
 21
-107.14366
 31
0.0
  0
LINE
  5
13D
100
AcDbEntity
  8
LY_3
  6
CONTINUOUS
 62
       251
100
AcDbLine
 10
95.899647
 20
-112.233672
 30
0.0
 11
95.899647
 21
-107.14366
 31
0.0
  0
LINE
  5
13E
100
AcDbEntity
  8
LY_3
  6
CONTINUOUS
 62
       251
100
AcDbLine
 10
136.399531
 20
-112.233672
 30
0.0
 11
136.399531
 21
-107.14366
 31
0.0
  0
LINE
  5
13F
100
AcDbEntity
  8
LY_3
  6
CONTINUOUS
 62
       251
100
AcDbLine
 10
101.999599
 20
-104.608657
 30
0.0
 11
101.999599
 21
-99.034194
 31
0.0
  0
LINE
  5
140
100
AcDbEntity
  8
LY_3
  6
CONTINUOUS
 62
       251
100
AcDbLine
 10
128.499583
 20
-104.608657
 30
0.0
 11
128.499583
 21
-98.97869
 31
0.0
  0
LINE
  5
141
100
AcDbEntity
  8
LY_3
  6
CONTINUOUS
 62
       251
100
AcDbLine
 10
152.749625
 20
-124.923178
 30
0.0
 11
77.749656
 21
-124.923178
 31
0.0
  0
LINE
  5
142
100
AcDbEntity
  8
LY_3
  6
CONTINUOUS
 62
       251
100
AcDbLine
 10
157.749628
 20
-119.923175
 30
0.0
 11
157.749628
 21
-98.923186
 31
0.0
  0
LINE
  5
143
100
AcDbEntity
  8
LY_3
  6
DASHED
 62
         7
100
AcDbLine
 10
155.749613
 20
-121.923201
 30
0.0
 11
155.749613
 21
-116.923186
 31
0.0
  0
LINE
  5
144
100
AcDbEntity
  8
LY_3
  6
DASHED
 62
         7
100
AcDbLine
 10
141.749598
 20
-124.923178
 30
0.0
 11
141.749598
 21
-116.923186
 31
0.0
  0
LINE
  5
145
100
AcDbEntity
  8
LY_3
  6
DASHED
 62
         7
100
AcDbLine
 10
74.749615
 20
-116.923186
 30
0.0
 11
74.749615
 21
-121.923132
 31
0.0
  0
LINE
  5
146
100
AcDbEntity
  8
LY_3
  6
DASHED
 62
         7
100
AcDbLine
 10
88.74963
 20
-116.923186
 30
0.0
 11
88.74963
 21
-124.923178
 31
0.0
  0
LINE
  5
147
100
AcDbEntity
  8
LY_3
  6
CONTINUOUS
 62
       251
100
AcDbLine
 10
91.74963
 20
-119.923163
 30
0.0
 11
91.74963
 21
-98.97869
 31
0.0
  0
LINE
  5
148
100
AcDbEntity
  8
LY_3
  6
CONTINUOUS
 62
       251
100
AcDbLine
 10
139.749628
 20
-119.923163
 30
0.0
 11
91.74963
 21
-119.923163
 31
0.0
  0
LINE
  5
149
100
AcDbEntity
  8
LY_3
  6
CONTINUOUS
 62
       251
100
AcDbLine
 10
139.749628
 20
-119.923163
 30
0.0
 11
139.749628
 21
-116.923186
 31
0.0
  0
LINE
  5
14A
100
AcDbEntity
  8
LY_3
  6
CONTINUOUS
 62
       251
100
AcDbLine
 10
144.749621
 20
-108.860934
 30
0.0
 11
144.749621
 21
-98.97869
 31
0.0
  0
LINE
  5
14B
100
AcDbEntity
  8
LY_3
  6
CONTINUOUS
 62
       251
100
AcDbLine
 10
70.89963
 20
-117.478682
 30
0.0
 11
70.89963
 21
-99.034194
 31
0.0
  0
LINE
  5
14C
100
AcDbEntity
  8
LY_3
  6
CONTINUOUS
 62
       251
100
AcDbLine
 10
61.899634
 20
-115.678641
 30
0.0
 11
61.899634
 21
-100.27867
 31
0.0
  0
LINE
  5
14D
100
AcDbEntity
  8
LY_3
  6
CONTINUOUS
 62
       251
100
AcDbLine
 10
69.899634
 20
-114.478659
 30
0.0
 11
69.899634
 21
-101.478652
 31
0.0
  0
LINE
  5
14E
100
AcDbEntity
  8
LY_3
  6
CONTINUOUS
 62
       251
100
AcDbLine
 10
61.899634
 20
-114.478659
 30
0.0
 11
69.899634
 21
-114.478659
 31
0.0
  0
LINE
  5
14F
100
AcDbEntity
  8
LY_3
  6
CONTINUOUS
 62
       251
100
AcDbLine
 10
69.899634
 20
-101.478652
 30
0.0
 11
61.899634
 21
-101.478652
 31
0.0
  0
LINE
  5
150
100
AcDbEntity
  8
LY_3
  6
CONTINUOUS
 62
       251
100
AcDbLine
 10
59.899635
 20
-115.678641
 30
0.0
 11
61.899634
 21
-115.678641
 31
0.0
  0
LINE
  5
151
100
AcDbEntity
  8
LY_3
  6
CONTINUOUS
 62
       251
100
AcDbLine
 10
59.899635
 20
-100.27867
 30
0.0
 11
61.899634
 21
-100.27867
 31
0.0
  0
LINE
  5
152
100
AcDbEntity
  8
LY_3
  6
CONTINUOUS
 62
       251
100
AcDbLine
 10
59.899633
 20
-103.978659
 30
0.0
 11
36.099638
 21
-103.978659
 31
0.0
  0
LINE
  5
153
100
AcDbEntity
  8
LY_3
  6
CONTINUOUS
 62
       251
100
AcDbLine
 10
59.899633
 20
-111.978652
 30
0.0
 11
36.099638
 21
-111.978652
 31
0.0
  0
LINE
  5
154
100
AcDbEntity
  8
LY_3
  6
CONTINUOUS
 62
       251
100
AcDbLine
 10
36.099638
 20
-103.978659
 30
0.0
 11
36.099638
 21
-111.978652
 31
0.0
  0
LINE
  5
155
100
AcDbEntity
  8
LY_3
  6
CONTINUOUS
 62
       251
100
AcDbLine
 10
29.799652
 20
-104.528662
 30
0.0
 11
29.799652
 21
-111.428648
 31
0.0
  0
LINE
  5
156
100
AcDbEntity
  8
LY_3
  6
CONTINUOUS
 62
         7
100
AcDbLine
 10
59.899635
 20
-104.528662
 30
0.0
 11
36.099638
 21
-104.528662
 31
0.0
  0
LINE
  5
157
100
AcDbEntity
  8
LY_3
  6
CONTINUOUS
 62
         7
100
AcDbLine
 10
59.899635
 20
-111.428648
 30
0.0
 11
36.099638
 21
-111.428648
 31
0.0
  0
LINE
  5
158
100
AcDbEntity
  8
LY_3
  6
CONTINUOUS
 62
       251
100
AcDbLine
 10
27.72668
 20
-107.97865
 30
0.0
 11
29.79965
 21
-104.528648
 31
0.0
  0
LINE
  5
159
100
AcDbEntity
  8
LY_3
  6
CONTINUOUS
 62
       251
100
AcDbLine
 10
29.799665
 20
-111.428661
 30
0.0
 11
27.726695
 21
-107.978659
 31
0.0
  0
LINE
  5
15A
100
AcDbEntity
  8
LY_3
  6
CONTINUOUS
 62
       251
100
AcDbLine
 10
52.099637
 20
-103.978659
 30
0.0
 11
52.099637
 21
-101.478675
 31
0.0
  0
LINE
  5
15B
100
AcDbEntity
  8
LY_3
  6
CONTINUOUS
 62
       251
100
AcDbLine
 10
36.099638
 20
-111.428648
 30
0.0
 11
29.799652
 21
-111.428648
 31
0.0
  0
LINE
  5
15C
100
AcDbEntity
  8
LY_3
  6
CONTINUOUS
 62
       251
100
AcDbLine
 10
36.099638
 20
-104.528662
 30
0.0
 11
29.799652
 21
-104.528662
 31
0.0
  0
LINE
  5
15D
100
AcDbEntity
  8
LY_3
  6
CONTINUOUS
 62
       251
100
AcDbLine
 10
144.749621
 20
-100.47869
 30
0.0
 11
149.749613
 21
-100.47869
 31
0.0
  0
LINE
  5
15E
100
AcDbEntity
  8
LY_3
  6
CONTINUOUS
 62
       251
100
AcDbLine
 10
150.249605
 20
-104.97869
 30
0.0
 11
154.24959
 21
-104.97869
 31
0.0
  0
LINE
  5
15F
100
AcDbEntity
  8
LY_3
  6
CONTINUOUS
 62
       251
100
AcDbLine
 10
149.749613
 20
-100.47869
 30
0.0
 11
149.749613
 21
-98.97869
 31
0.0
  0
LINE
  5
160
100
AcDbEntity
  8
LY_3
  6
CONTINUOUS
 62
       251
100
AcDbLine
 10
154.749605
 20
-100.47869
 30
0.0
 11
154.749605
 21
-98.97869
 31
0.0
  0
LINE
  5
161
100
AcDbEntity
  8
LY_3
  6
CONTINUOUS
 62
       251
100
AcDbLine
 10
149.749587
 20
-100.478688
 30
0.0
 11
150.24958
 21
-104.978691
 31
0.0
  0
LINE
  5
162
100
AcDbEntity
  8
LY_3
  6
CONTINUOUS
 62
       251
100
AcDbLine
 10
154.7496
 20
-100.478666
 30
0.0
 11
154.249585
 21
-104.978666
 31
0.0
  0
LINE
  5
163
100
AcDbEntity
  8
LY_3
  6
CONTINUOUS
 62
       251
100
AcDbLine
 10
154.749605
 20
-100.47869
 30
0.0
 11
157.749628
 21
-100.47869
 31
0.0
  0
LINE
  5
164
100
AcDbEntity
  8
LY_3
  6
PHANTOM
 62
         7
100
AcDbLine
 10
120.099597
 20
-86.478699
 30
0.0
 11
165.099573
 21
-86.478699
 31
0.0
  0
LINE
  5
165
100
AcDbEntity
  8
LY_3
  6
PHANTOM
 62
         7
100
AcDbLine
 10
120.099597
 20
-71.478699
 30
0.0
 11
165.099573
 21
-71.478699
 31
0.0
  0
LINE
  5
166
100
AcDbEntity
  8
LY_3
  6
CONTINUOUS
 62
       251
100
AcDbLine
 10
72.749641
 20
-119.923168
 30
0.0
 11
77.749656
 21
-124.923178
 31
0.0
  0
LINE
  5
167
100
AcDbEntity
  8
LY_3
  6
CONTINUOUS
 62
       251
100
AcDbLine
 10
152.749625
 20
-124.923178
 30
0.0
 11
157.749628
 21
-119.923175
 31
0.0
  0
ARC
  5
168
100
AcDbEntity
  8
LY_3
  6
CONTINUOUS
 62
       251
100
AcDbCircle
 10
-123.682816
 20
-63.978699
 30
0.0
 40
15.0
100
AcDbArc
 50
109.471212
 51
70.528735
  0
CIRCLE
  5
169
100
AcDbEntity
  8
LY_3
  6
CONTINUOUS
 62
       251
100
AcDbCircle
 10
-123.682816
 20
-63.978699
 30
0.0
 40
22.5
  0
CIRCLE
  5
16A
100
AcDbEntity
  8
LY_3
  6
CONTINUOUS
 62
       251
100
AcDbCircle
 10
-123.682816
 20
-63.978699
 30
0.0
 40
37.499969
  0
CIRCLE
  5
16B
100
AcDbEntity
  8
LY_3
  6
CONTINUOUS
 62
       251
100
AcDbCircle
 10
-123.682816
 20
-63.978699
 30
0.0
 40
49.999985
  0
ARC
  5
16C
100
AcDbEntity
  8
LY_3
  6
CENTER
 62
         7
100
AcDbCircle
 10
-123.682816
 20
-63.978699
 30
0.0
 40
44.0
100
AcDbArc
 50
23.485599
 51
36.514386
  0
ARC
  5
16D
100
AcDbEntity
  8
LY_3
  6
CENTER
 62
         7
100
AcDbCircle
 10
-123.682816
 20
-63.978699
 30
0.0
 40
44.0
100
AcDbArc
 50
83.485566
 51
96.514343
  0
ARC
  5
16E
100
AcDbEntity
  8
LY_3
  6
CENTER
 62
         7
100
AcDbCircle
 10
-123.682816
 20
-63.978699
 30
0.0
 40
44.0
100
AcDbArc
 50
143.485609
 51
156.514386
  0
ARC
  5
16F
100
AcDbEntity
  8
LY_3
  6
CENTER
 62
         7
100
AcDbCircle
 10
-123.682816
 20
-63.978699
 30
0.0
 40
44.0
100
AcDbArc
 50
203.485614
 51
216.514391
  0
ARC
  5
170
100
AcDbEntity
  8
LY_3
  6
CENTER
 62
         7
100
AcDbCircle
 10
-123.682816
 20
-63.978699
 30
0.0
 40
44.0
100
AcDbArc
 50
263.485657
 51
276.514434
  0
ARC
  5
171
100
AcDbEntity
  8
LY_3
  6
CENTER
 62
         7
100
AcDbCircle
 10
-123.682816
 20
-63.978699
 30
0.0
 40
44.0
100
AcDbArc
 50
323.485566
 51
336.51435
  0
CIRCLE
  5
172
100
AcDbEntity
  8
LY_3
  6
CONTINUOUS
 62
       251
100
AcDbCircle
 10
-9.255356
 20
-33.978699
 30
0.0
 40
4.366
  0
CIRCLE
  5
173
100
AcDbEntity
  8
LY_3
  6
CONTINUOUS
 62
       251
100
AcDbCircle
 10
-9.255356
 20
-93.978699
 30
0.0
 40
4.366
  0
CIRCLE
  5
174
100
AcDbEntity
  8
LY_3
  6
CONTINUOUS
 62
       251
100
AcDbCircle
 10
33.444641
 20
-33.978699
 30
0.0
 40
4.366
  0
CIRCLE
  5
175
100
AcDbEntity
  8
LY_3
  6
CONTINUOUS
 62
       251
100
AcDbCircle
 10
33.444641
 20
-93.978699
 30
0.0
 40
4.366
  0
CIRCLE
  5
176
100
AcDbEntity
  8
LY_3
  6
CONTINUOUS
 62
       251
100
AcDbCircle
 10
23.409637
 20
-35.212006
 30
0.0
 40
0.975
  0
CIRCLE
  5
177
100
AcDbEntity
  8
LY_3
  6
CONTINUOUS
 62
       251
100
AcDbCircle
 10
0.779648
 20
-35.212006
 30
0.0
 40
0.975
  0
CIRCLE
  5
178
100
AcDbEntity
  8
LY_3
  6
CONTINUOUS
 62
       251
100
AcDbCircle
 10
0.779648
 20
-92.745377
 30
0.0
 40
0.975
  0
CIRCLE
  5
179
100
AcDbEntity
  8
LY_3
  6
CONTINUOUS
 62
       251
100
AcDbCircle
 10
23.409637
 20
-92.745377
 30
0.0
 40
0.975
  0
ARC
  5
17A
100
AcDbEntity
  8
LY_3
  6
DASHED
 62
         7
100
AcDbCircle
 10
148.749628
 20
-11.034212
 30
0.0
 40
6.999999
100
AcDbArc
 50
180.000091
 51
0.0
  0
ARC
  5
17B
100
AcDbEntity
  8
LY_3
  6
DASHED
 62
         7
100
AcDbCircle
 10
81.7496
 20
-11.034212
 30
0.0
 40
6.999999
100
AcDbArc
 50
180.000091
 51
359.999964
  0
ARC
  5
17C
100
AcDbEntity
  8
LY_3
  6
CONTINUOUS
 62
       251
100
AcDbCircle
 10
148.749628
 20
-11.034212
 30
0.0
 40
8.999998
100
AcDbArc
 50
180.000036
 51
243.612141
  0
CIRCLE
  5
17D
100
AcDbEntity
  8
LY_3
  6
CONTINUOUS
 62
       251
100
AcDbCircle
 10
148.749628
 20
-11.034212
 30
0.0
 40
3.499999
  0
CIRCLE
  5
17E
100
AcDbEntity
  8
LY_3
  6
CONTINUOUS
 62
       251
100
AcDbCircle
 10
81.7496
 20
-11.034212
 30
0.0
 40
3.499999
  0
ARC
  5
17F
100
AcDbEntity
  8
LY_3
  6
DASHED
 62
         7
100
AcDbCircle
 10
148.749628
 20
-116.923186
 30
0.0
 40
6.999999
100
AcDbArc
 50
0.0
 51
179.999909
  0
ARC
  5
180
100
AcDbEntity
  8
LY_3
  6
DASHED
 62
         7
100
AcDbCircle
 10
81.7496
 20
-116.923186
 30
0.0
 40
6.999999
100
AcDbArc
 50
0.000036
 51
179.999909
  0
ARC
  5
181
100
AcDbEntity
  8
LY_3
  6
CONTINUOUS
 62
       251
100
AcDbCircle
 10
148.749628
 20
-116.923186
 30
0.0
 40
8.999998
100
AcDbArc
 50
116.387859
 51
179.999964
  0
CIRCLE
  5
182
100
AcDbEntity
  8
LY_3
  6
CONTINUOUS
 62
       251
100
AcDbCircle
 10
148.749628
 20
-116.923186
 30
0.0
 40
3.499999
  0
CIRCLE
  5
183
100
AcDbEntity
  8
LY_3
  6
CONTINUOUS
 62
       251
100
AcDbCircle
 10
81.7496
 20
-116.923186
 30
0.0
 40
3.499999
  0
MTEXT
  5
184
100
AcDbEntity
  8
LY_3
  6
CONTINUOUS
 62
         7
100
AcDbMText
 10
-57.9033330355
 20
68.667357702
 30
0.0
 40
15.0
 41
0.0
 71
         1
 72
         1
  1
\W1.029;\A1;MZ30-C
  0
MTEXT
  5
185
100
AcDbEntity
  8
LY_3
  6
CONTINUOUS
 62
         7
100
AcDbMText
 10
-68.2430559669
 20
92.6673580596
 30
0.0
 40
13.0
 41
0.0
 71
         1
 72
         1
  1
\W1.042;\A1;CAM CLUTCH
  0
ENDSEC
  0
SECTION
  2
OBJECTS
  0
DICTIONARY
  5
19
100
AcDbDictionary
  3
ACAD_GROUP
350
1A
  3
ACAD_MLINESTYLE
350
1B
  0
DICTIONARY
  5
1A
102
{ACAD_REACTORS
330
19
102
}
100
AcDbDictionary
  0
DICTIONARY
  5
1B
102
{ACAD_REACTORS
330
19
102
}
100
AcDbDictionary
  3
STANDARD
350
1C
  0
MLINESTYLE
  5
1C
102
{ACAD_REACTORS
330
1B
102
}
100
AcDbMlineStyle
  2
Standard
 70
         0
  3

 62
         0
 51
90.0
 52
90.0
 71
         2
 49
0.5
 62
       256
  6
ByLayer
 49
-0.5
 62
       256
  6
ByLayer
  0
ENDSEC
  0
EOF
