  0
SECTION
  2
HEADER
  9
$ACADVER
  1
AC1014
  9
$ACADMAINTVER
 70
         0
  9
$DWGCODEPAGE
  3
ANSI_932
  9
$INSBASE
 10
0.0
 20
0.0
 30
0.0
  9
$EXTMIN
 10
-183.011551
 20
-167.328964
 30
0.0
  9
$EXTMAX
 10
196.123322
 20
122.1256910721
 30
0.0
  9
$LIMMIN
 10
-183.011551
 20
-167.328964
  9
$LIMMAX
 10
196.123322
 20
122.1256910721
  9
$ORTHOMODE
 70
         0
  9
$REGENMODE
 70
         1
  9
$FILLMODE
 70
         1
  9
$QTEXTMODE
 70
         0
  9
$MIRRTEXT
 70
         1
  9
$DRAGMODE
 70
         2
  9
$LTSCALE
 40
1.0
  9
$OSMODE
 70
         0
  9
$ATTMODE
 70
         1
  9
$TEXTSIZE
 40
3.2000000477
  9
$TRACEWID
 40
0.05
  9
$TEXTSTYLE
  7
MX_NOTE_STANDARD
  9
$CLAYER
  8
LY_3
  9
$CELTYPE
  6
CONTINUOUS
  9
$CECOLOR
 62
       256
  9
$CELTSCALE
 40
1.0
  9
$DELOBJ
 70
         1
  9
$DISPSILH
 70
         0
  9
$DIMSCALE
 40
1.0
  9
$DIMASZ
 40
2.5
  9
$DIMEXO
 40
0.0
  9
$DIMDLI
 40
3.75
  9
$DIMRND
 40
0.0
  9
$DIMDLE
 40
0.0
  9
$DIMEXE
 40
2.5
  9
$DIMTP
 40
0.0
  9
$DIMTM
 40
0.0
  9
$DIMTXT
 40
3.2000000477
  9
$DIMCEN
 40
2.5
  9
$DIMTSZ
 40
0.0
  9
$DIMTOL
 70
         0
  9
$DIMLIM
 70
         0
  9
$DIMTIH
 70
         0
  9
$DIMTOH
 70
         0
  9
$DIMSE1
 70
         0
  9
$DIMSE2
 70
         0
  9
$DIMTAD
 70
         1
  9
$DIMZIN
 70
         8
  9
$DIMBLK
  1

  9
$DIMASO
 70
         1
  9
$DIMSHO
 70
         1
  9
$DIMPOST
  1

  9
$DIMAPOST
  1

  9
$DIMALT
 70
         0
  9
$DIMALTD
 70
         4
  9
$DIMALTF
 40
0.0393700787
  9
$DIMLFAC
 40
1.0
  9
$DIMTOFL
 70
         1
  9
$DIMTVP
 40
0.0
  9
$DIMTIX
 70
         0
  9
$DIMSOXD
 70
         0
  9
$DIMSAH
 70
         1
  9
$DIMBLK1
  1
_OPEN30
  9
$DIMBLK2
  1
_OPEN30
  9
$DIMSTYLE
  2
MXDIMSTYLE
  9
$DIMCLRD
 70
         0
  9
$DIMCLRE
 70
         0
  9
$DIMCLRT
 70
         0
  9
$DIMTFAC
 40
1.0
  9
$DIMGAP
 40
1.0
  9
$DIMJUST
 70
         0
  9
$DIMSD1
 70
         0
  9
$DIMSD2
 70
         0
  9
$DIMTOLJ
 70
         0
  9
$DIMTZIN
 70
         0
  9
$DIMALTZ
 70
         0
  9
$DIMALTTZ
 70
         0
  9
$DIMFIT
 70
         3
  9
$DIMUPT
 70
         0
  9
$DIMUNIT
 70
         2
  9
$DIMDEC
 70
         2
  9
$DIMTDEC
 70
         2
  9
$DIMALTU
 70
         2
  9
$DIMALTTD
 70
         4
  9
$DIMTXSTY
  7
MX_NOTE_STANDARD
  9
$DIMAUNIT
 70
         0
  9
$LUNITS
 70
         2
  9
$LUPREC
 70
         4
  9
$SKETCHINC
 40
0.1
  9
$FILLETRAD
 40
0.0
  9
$AUNITS
 70
         0
  9
$AUPREC
 70
         0
  9
$MENU
  1
acad
  9
$ELEVATION
 40
0.0
  9
$PELEVATION
 40
0.0
  9
$THICKNESS
 40
0.0
  9
$LIMCHECK
 70
         0
  9
$BLIPMODE
 70
         1
  9
$CHAMFERA
 40
0.0
  9
$CHAMFERB
 40
0.0
  9
$CHAMFERC
 40
0.0
  9
$CHAMFERD
 40
0.0
  9
$SKPOLY
 70
         0
  9
$TDCREATE
 40
2456603.419502315
  9
$TDUPDATE
 40
2456603.419502315
  9
$TDINDWG
 40
0.0000000000
  9
$TDUSRTIMER
 40
0.0000000000
  9
$USRTIMER
 70
         1
  9
$ANGBASE
 50
0.0
  9
$ANGDIR
 70
         0
  9
$PDMODE
 70
         0
  9
$PDSIZE
 40
0.0
  9
$PLINEWID
 40
0.0
  9
$COORDS
 70
         1
  9
$SPLFRAME
 70
         0
  9
$SPLINETYPE
 70
         6
  9
$SPLINESEGS
 70
         8
  9
$ATTDIA
 70
         0
  9
$ATTREQ
 70
         1
  9
$HANDLING
 70
         1
  9
$HANDSEED
  5
10B
  9
$SURFTAB1
 70
         6
  9
$SURFTAB2
 70
         6
  9
$SURFTYPE
 70
         6
  9
$SURFU
 70
         6
  9
$SURFV
 70
         6
  9
$UCSNAME
  2

  9
$UCSORG
 10
0.0
 20
0.0
 30
0.0
  9
$UCSXDIR
 10
1.0
 20
0.0
 30
0.0
  9
$UCSYDIR
 10
0.0
 20
1.0
 30
0.0
  9
$PUCSNAME
  2

  9
$PUCSORG
 10
0.0
 20
0.0
 30
0.0
  9
$PUCSXDIR
 10
1.0
 20
0.0
 30
0.0
  9
$PUCSYDIR
 10
0.0
 20
1.0
 30
0.0
  9
$USERI1
 70
         0
  9
$USERI2
 70
         0
  9
$USERI3
 70
         0
  9
$USERI4
 70
         0
  9
$USERI5
 70
         0
  9
$USERR1
 40
0.0
  9
$USERR2
 40
0.0
  9
$USERR3
 40
0.0
  9
$USERR4
 40
0.0
  9
$USERR5
 40
0.0
  9
$WORLDVIEW
 70
         1
  9
$SHADEDGE
 70
         3
  9
$SHADEDIF
 70
        70
  9
$TILEMODE
 70
         1
  9
$MAXACTVP
 70
        16
  9
$PINSBASE
 10
0.0
 20
0.0
 30
0.0
  9
$PLIMCHECK
 70
         0
  9
$PEXTMIN
 10
1.0000000000E+20
 20
1.0000000000E+20
 30
1.0000000000E+20
  9
$PEXTMAX
 10
-1.0000000000E+20
 20
-1.0000000000E+20
 30
-1.0000000000E+20
  9
$PLIMMIN
 10
0.0
 20
0.0
  9
$PLIMMAX
 10
12.0
 20
9.0
  9
$UNITMODE
 70
         0
  9
$VISRETAIN
 70
         0
  9
$PLINEGEN
 70
         1
  9
$PSLTSCALE
 70
         0
  9
$TREEDEPTH
 70
      3020
  9
$PICKSTYLE
 70
         1
  9
$CMLSTYLE
  2
Standard
  9
$CMLJUST
 70
         0
  9
$CMLSCALE
 40
1.0
  9
$PROXYGRAPHICS
 70
         0
  9
$MEASUREMENT
 70
         1
  0
ENDSEC
  0
SECTION
  2
CLASSES
  0
CLASS
  1
LWPOLYLINE
  2
AcDbPolyline
  3
"AutoCAD"
 90
        0
280
         0
281
         1
  0
CLASS
  1
IMAGE
  2
AcDbRasterImage
  3
ISM
 90
      127
280
         0
281
         1
  0
CLASS
  1
OLE2FRAME
  2
AcDbOle2Frame
  3
""
 90
        0
280
         0
281
         1
  0
CLASS
  1
HATCH
  2
AcDbHatch
  3
"ACAD_SEDONA"
 90
        0
280
         0
281
         1
  0
CLASS
  1
DICTIONARYVAR
  2
AcDbDictionaryVar
  3
"AutoCAD"
 90
        0
280
         0
281
         0
  0
CLASS
  1
RASTERVARIABLES
  2
AcDbRasterVariables
  3
ISM
 90
        0
280
         0
281
         0
  0
CLASS
  1
IMAGEDEF
  2
AcDbRasterImageDef
  3
ISM
 90
        0
280
         0
281
         0
  0
CLASS
  1
IMAGEDEF_REACTOR
  2
AcDbRasterImageDefReactor
  3
ISM
 90
        1
280
         0
281
         0
  0
CLASS
  1
IDBUFFER
  2
AcDbIdBuffer
  3
"Acad"
 90
        0
280
         0
281
         0
  0
CLASS
  1
SPATIAL_FILTER
  2
AcDbSpatialFilter
  3
"Acad"
 90
        0
280
         0
281
         0
  0
CLASS
  1
XRECORD
  2
AcDbXrecord
  3
"<Built In>"
 90
        0
280
         0
281
         0
  0
CLASS
  1
SORTENTSTABLE
  2
AcDbSortentsTable
  3
"AutoCAD"
 90
        0
280
         0
281
         0
  0
CLASS
  1
LAYER_INDEX
  2
AcDbLayerIndex
  3
"Acad"
 90
        0
280
         0
281
         0
  0
CLASS
  1
SPATIAL_INDEX
  2
AcDbSpatialIndex
  3
"Acad"
 90
        0
280
         0
281
         0
  0
CLASS
  1
OBJECT_PTR
  2
CAseDLPNTableRecord
  3
"ASE-LPNTableRecord"
 90
        1
280
         0
281
         0
  0
CLASS
  1
LAYOUT
  2
AcDbLayout
  3
"AutoCAD 2000"
 90
        0
280
         0
281
         0
  0
CLASS
  1
PLOTSETTINGS
  2
AcDbPlotSettings
  3
"AutoCAD 2000"
 90
        0
280
         0
281
         0
  0
CLASS
  1
ACDBDICTIONARYWDFLT
  2
AcDbDictionaryWithDefault
  3
"AutoCAD 2000"
 90
        0
280
         0
281
         0
  0
CLASS
  1
ACDBPLACEHOLDER
  2
AcDbPlaceHolder
  3
"AutoCAD 2000"
 90
        0
280
         0
281
         0
  0
ENDSEC
  0
SECTION
  2
TABLES
  0
TABLE
  2
VPORT
  5
7
100
AcDbSymbolTable
 70
         1
  0
VPORT
  5
15
100
AcDbSymbolTableRecord
100
AcDbViewportTableRecord
  2
*ACTIVE
 70
         0
 10
0.0
 20
0.0
 11
1.0
 21
1.0
 12
6.5558855
 22
-22.601636464
 13
0.0
 23
0.0
 14
1.0
 24
1.0
 15
0.0
 25
0.0
 16
0.0
 26
0.0
 36
1.0
 17
0.0
 27
0.0
 37
0.0
 40
292.3492016228
 41
1.7320508076
 42
50.0
 43
0.0
 44
0.0
 50
0.0
 51
0.0
 71
         0
 72
       100
 73
         1
 74
         1
 75
         0
 76
         0
 77
         0
 78
         0
  0
ENDTAB
  0
TABLE
  2
LTYPE
  5
4
100
AcDbSymbolTable
 70
         5
  0
LTYPE
  5
11
100
AcDbSymbolTableRecord
100
AcDbLinetypeTableRecord
  2
BYBLOCK
 70
        64
  3

 72
        65
 73
         0
 40
0.0
  0
LTYPE
  5
12
100
AcDbSymbolTableRecord
100
AcDbLinetypeTableRecord
  2
BYLAYER
 70
        64
  3

 72
        65
 73
         0
 40
0.0
  0
LTYPE
  5
13
100
AcDbSymbolTableRecord
100
AcDbLinetypeTableRecord
  2
CONTINUOUS
 70
        64
  3
Solid line
 72
        65
 73
         0
 40
0.0
  0
LTYPE
  5
55
100
AcDbSymbolTableRecord
100
AcDbLinetypeTableRecord
  2
CENTER
 70
        64
  3
Center ____ _ ____ _ ____ _ ____ _ ____ _ ____
 72
        65
 73
         4
 40
50.8
 49
31.75
 74
         0
 49
-6.35
 74
         0
 49
6.35
 74
         0
 49
-6.35
 74
         0
  0
LTYPE
  5
BF
100
AcDbSymbolTableRecord
100
AcDbLinetypeTableRecord
  2
DASHED
 70
        64
  3
Dashed __ __ __ __ __ __ __ __ __ __ __ __ __ _
 72
        65
 73
         2
 40
19.05
 49
12.7
 74
         0
 49
-6.35
 74
         0
  0
ENDTAB
  0
TABLE
  2
LAYER
  5
2
100
AcDbSymbolTable
 70
         3
  0
LAYER
  5
14
100
AcDbSymbolTableRecord
100
AcDbLayerTableRecord
  2
0
 70
         0
 62
         7
  6
CONTINUOUS
  0
LAYER
  5
1D
100
AcDbSymbolTableRecord
100
AcDbLayerTableRecord
  2
DEFPOINTS
 70
         0
 62
         7
  6
CONTINUOUS
  0
LAYER
  5
1E
100
AcDbSymbolTableRecord
100
AcDbLayerTableRecord
  2
LY_3
 70
         0
 62
         7
  6
CONTINUOUS
  0
ENDTAB
  0
TABLE
  2
STYLE
  5
3
100
AcDbSymbolTable
 70
         1
  0
STYLE
  5
17
100
AcDbSymbolTableRecord
100
AcDbTextStyleTableRecord
  2
MX_NOTE_STANDARD
 70
         0
 40
0.0
 41
1.0
 50
0.0
 71
         0
 42
3.2000000477
  3
txt.shx
  4
extfont.shx
  0
ENDTAB
  0
TABLE
  2
VIEW
  5
5
100
AcDbSymbolTable
 70
         0
  0
ENDTAB
  0
TABLE
  2
UCS
  5
6
100
AcDbSymbolTable
 70
         0
  0
ENDTAB
  0
TABLE
  2
APPID
  5
8
100
AcDbSymbolTable
 70
         1
  0
APPID
  5
16
100
AcDbSymbolTableRecord
100
AcDbRegAppTableRecord
  2
ACAD
 70
         0
  0
ENDTAB
  0
TABLE
  2
DIMSTYLE
  5
9
100
AcDbSymbolTable
 70
         1
  0
DIMSTYLE
105
18
100
AcDbSymbolTableRecord
100
AcDbDimStyleTableRecord
  2
MXDIMSTYLE
 70
         0
  3

  4

  5

  6
_OPEN30
  7
_OPEN30
 40
1.0
 41
2.5
 42
0.0
 43
3.75
 44
2.5
 45
0.0
 46
0.0
 47
0.0
 48
0.0
 71
         0
 72
         0
 73
         0
 74
         0
 75
         0
 76
         0
 77
         1
 78
         8
140
3.2000000477
141
2.5
142
0.0
143
0.0393700787
144
1.0
145
0.0
146
1.0
147
1.0
170
         0
171
         4
172
         1
173
         1
174
         0
175
         0
176
         0
177
         0
178
         0
270
         2
271
         2
272
         2
273
         2
274
         4
275
         0
280
         0
281
         0
282
         0
283
         0
284
         0
285
         0
286
         0
287
         3
288
         0
340
17
  0
ENDTAB
  0
TABLE
  2
BLOCK_RECORD
  5
1
100
AcDbSymbolTable
 70
         1
  0
BLOCK_RECORD
  5
A
100
AcDbSymbolTableRecord
100
AcDbBlockTableRecord
  2
*MODEL_SPACE
  0
BLOCK_RECORD
  5
B
100
AcDbSymbolTableRecord
100
AcDbBlockTableRecord
  2
*PAPER_SPACE
  0
BLOCK_RECORD
  5
1F
100
AcDbSymbolTableRecord
100
AcDbBlockTableRecord
  2
_OPEN30
  0
ENDTAB
  0
ENDSEC
  0
SECTION
  2
BLOCKS
  0
BLOCK
  5
D
100
AcDbEntity
  8
0
100
AcDbBlockBegin
  2
*MODEL_SPACE
 70
         0
 10
0.0
 20
0.0
 30
0.0
  3
*MODEL_SPACE
  1

  0
ENDBLK
  5
E
100
AcDbEntity
  8
0
100
AcDbBlockEnd
  0
BLOCK
  5
F
100
AcDbEntity
 67
         1
  8
0
100
AcDbBlockBegin
  2
*PAPER_SPACE
 70
         0
 10
0.0
 20
0.0
 30
0.0
  3
*PAPER_SPACE
  1

  0
ENDBLK
  5
10
100
AcDbEntity
 67
         1
  8
0
100
AcDbBlockEnd
  0
BLOCK
  5
20
100
AcDbEntity
  8
0
  6
ByBlock
 62
         0
100
AcDbBlockBegin
  2
_OPEN30
 70
         2
 10
0.0
 20
0.0
 30
0.0
  3
_OPEN30
  1

  0
LINE
  5
21
100
AcDbEntity
  8
0
  6
ByBlock
 62
         0
100
AcDbLine
 10
-1.0
 20
0.267949
 30
0.0
 11
0.0
 21
0.0
 31
0.0
  0
LINE
  5
22
100
AcDbEntity
  8
0
  6
ByBlock
 62
         0
100
AcDbLine
 10
0.0
 20
0.0
 30
0.0
 11
-1.0
 21
-0.267949
 31
0.0
  0
LINE
  5
23
100
AcDbEntity
  8
0
  6
ByBlock
 62
         0
100
AcDbLine
 10
0.0
 20
0.0
 30
0.0
 11
-1.0
 21
0.0
 31
0.0
  0
ENDBLK
  5
24
100
AcDbEntity
  8
0
  6
ByBlock
 62
         0
100
AcDbBlockEnd
  0
ENDSEC
  0
SECTION
  2
ENTITIES
  0
MTEXT
  5
25
100
AcDbEntity
  8
LY_3
  6
CONTINUOUS
 62
       110
100
AcDbMText
 10
-147.446440963
 20
117.7423578659
 30
0.0
 40
13.1499996185
 41
0.0
 71
         1
 72
         1
  1
\W1.050;\A1;TSUBAKI
  0
POINT
  5
26
100
AcDbEntity
  8
LY_3
  6
CONTINUOUS
 62
        20
100
AcDbPoint
 10
-56.011551
 20
-67.328964
 30
0.0
  0
POINT
  5
27
100
AcDbEntity
  8
LY_3
  6
CONTINUOUS
 62
        20
100
AcDbPoint
 10
96.122803
 20
-67.328964
 30
0.0
  0
POINT
  5
28
100
AcDbEntity
  8
LY_3
  6
CONTINUOUS
 62
        20
100
AcDbPoint
 10
-183.011551
 20
-67.328964
 30
0.0
  0
LINE
  5
29
100
AcDbEntity
  8
LY_3
  6
CONTINUOUS
 62
       251
100
AcDbLine
 10
-132.261551
 20
-5.384995
 30
0.0
 11
-106.761551
 21
-5.384995
 31
0.0
  0
LINE
  5
2A
100
AcDbEntity
  8
LY_3
  6
CONTINUOUS
 62
       251
100
AcDbLine
 10
-106.761551
 20
7.671036
 30
0.0
 11
-106.761551
 21
-17.328964
 31
0.0
  0
LINE
  5
2B
100
AcDbEntity
  8
LY_3
  6
CONTINUOUS
 62
       251
100
AcDbLine
 10
-106.761551
 20
-17.328964
 30
0.0
 11
-56.011551
 21
-17.328964
 31
0.0
  0
LINE
  5
2C
100
AcDbEntity
  8
LY_3
  6
CONTINUOUS
 62
       251
100
AcDbLine
 10
-56.011551
 20
-17.328964
 30
0.0
 11
-56.011551
 21
-32.328964
 31
0.0
  0
LINE
  5
2D
100
AcDbEntity
  8
LY_3
  6
CONTINUOUS
 62
       251
100
AcDbLine
 10
-56.011551
 20
-117.328964
 30
0.0
 11
-106.761551
 21
-117.328964
 31
0.0
  0
LINE
  5
2E
100
AcDbEntity
  8
LY_3
  6
CONTINUOUS
 62
       251
100
AcDbLine
 10
-106.761551
 20
-117.328964
 30
0.0
 11
-106.761551
 21
-142.328964
 31
0.0
  0
LINE
  5
2F
100
AcDbEntity
  8
LY_3
  6
CONTINUOUS
 62
       251
100
AcDbLine
 10
-106.761551
 20
-129.272949
 30
0.0
 11
-132.261551
 21
-129.272949
 31
0.0
  0
LINE
  5
30
100
AcDbEntity
  8
LY_3
  6
CONTINUOUS
 62
       251
100
AcDbLine
 10
-132.261551
 20
-142.328964
 30
0.0
 11
-132.261551
 21
-117.328964
 31
0.0
  0
LINE
  5
31
100
AcDbEntity
  8
LY_3
  6
CONTINUOUS
 62
       251
100
AcDbLine
 10
-132.261551
 20
-117.328964
 30
0.0
 11
-183.011551
 21
-117.328964
 31
0.0
  0
LINE
  5
32
100
AcDbEntity
  8
LY_3
  6
CONTINUOUS
 62
       251
100
AcDbLine
 10
-183.011551
 20
-117.328964
 30
0.0
 11
-183.011551
 21
-102.328964
 31
0.0
  0
LINE
  5
33
100
AcDbEntity
  8
LY_3
  6
CONTINUOUS
 62
       251
100
AcDbLine
 10
-183.011551
 20
-17.328964
 30
0.0
 11
-132.261551
 21
-17.328964
 31
0.0
  0
LINE
  5
34
100
AcDbEntity
  8
LY_3
  6
CONTINUOUS
 62
       251
100
AcDbLine
 10
-132.261551
 20
-17.328964
 30
0.0
 11
-132.261551
 21
7.671036
 31
0.0
  0
LINE
  5
35
100
AcDbEntity
  8
LY_3
  6
CONTINUOUS
 62
       251
100
AcDbLine
 10
-183.011551
 20
-27.42897
 30
0.0
 11
-56.011551
 21
-27.42897
 31
0.0
  0
LINE
  5
36
100
AcDbEntity
  8
LY_3
  6
CONTINUOUS
 62
       251
100
AcDbLine
 10
-56.011551
 20
-102.328964
 30
0.0
 11
-183.011551
 21
-102.328964
 31
0.0
  0
LINE
  5
37
100
AcDbEntity
  8
LY_3
  6
CONTINUOUS
 62
       251
100
AcDbLine
 10
-181.511551
 20
32.671036
 30
0.0
 11
-57.511551
 21
32.671036
 31
0.0
  0
LINE
  5
38
100
AcDbEntity
  8
LY_3
  6
CONTINUOUS
 62
       251
100
AcDbLine
 10
-57.511551
 20
32.671036
 30
0.0
 11
-57.511551
 21
-17.328964
 31
0.0
  0
LINE
  5
39
100
AcDbEntity
  8
LY_3
  6
CONTINUOUS
 62
       251
100
AcDbLine
 10
-57.511551
 20
-167.328964
 30
0.0
 11
-181.511551
 21
-167.328964
 31
0.0
  0
LINE
  5
3A
100
AcDbEntity
  8
LY_3
  6
CONTINUOUS
 62
       251
100
AcDbLine
 10
-181.511551
 20
-167.328964
 30
0.0
 11
-181.511551
 21
-117.328964
 31
0.0
  0
LINE
  5
3B
100
AcDbEntity
  8
LY_3
  6
CONTINUOUS
 62
       251
100
AcDbLine
 10
-181.511551
 20
7.671036
 30
0.0
 11
-158.111588
 21
7.671036
 31
0.0
  0
LINE
  5
3C
100
AcDbEntity
  8
LY_3
  6
CONTINUOUS
 62
       251
100
AcDbLine
 10
-156.28154
 20
7.671036
 30
0.0
 11
-132.261551
 21
7.671036
 31
0.0
  0
LINE
  5
3D
100
AcDbEntity
  8
LY_3
  6
CONTINUOUS
 62
       251
100
AcDbLine
 10
-80.911545
 20
7.671036
 30
0.0
 11
-57.511551
 21
7.671036
 31
0.0
  0
LINE
  5
3E
100
AcDbEntity
  8
LY_3
  6
CONTINUOUS
 62
       251
100
AcDbLine
 10
-57.511551
 20
-142.328964
 30
0.0
 11
-80.911514
 21
-142.328964
 31
0.0
  0
LINE
  5
3F
100
AcDbEntity
  8
LY_3
  6
CONTINUOUS
 62
       251
100
AcDbLine
 10
-158.111557
 20
-142.328964
 30
0.0
 11
-181.511551
 21
-142.328964
 31
0.0
  0
LINE
  5
40
100
AcDbEntity
  8
LY_3
  6
CONTINUOUS
 62
       251
100
AcDbLine
 10
-57.51152
 20
-161.678963
 30
0.0
 11
-85.01152
 21
-161.678963
 31
0.0
  0
LINE
  5
41
100
AcDbEntity
  8
LY_3
  6
CONTINUOUS
 62
       251
100
AcDbLine
 10
-158.111557
 20
9.57103
 30
0.0
 11
-156.28154
 21
9.57103
 31
0.0
  0
LINE
  5
42
100
AcDbEntity
  8
LY_3
  6
CONTINUOUS
 62
       251
100
AcDbLine
 10
-82.741531
 20
9.57103
 30
0.0
 11
-80.911545
 21
9.57103
 31
0.0
  0
LINE
  5
43
100
AcDbEntity
  8
LY_3
  6
CONTINUOUS
 62
       251
100
AcDbLine
 10
-80.911545
 20
-144.228958
 30
0.0
 11
-82.741531
 21
-144.228958
 31
0.0
  0
LINE
  5
44
100
AcDbEntity
  8
LY_3
  6
CONTINUOUS
 62
       251
100
AcDbLine
 10
-156.28154
 20
-144.228958
 30
0.0
 11
-158.111557
 21
-144.228958
 31
0.0
  0
LINE
  5
45
100
AcDbEntity
  8
LY_3
  6
CONTINUOUS
 62
       251
100
AcDbLine
 10
-158.111557
 20
9.57103
 30
0.0
 11
-158.111557
 21
-17.328964
 31
0.0
  0
LINE
  5
46
100
AcDbEntity
  8
LY_3
  6
CONTINUOUS
 62
       251
100
AcDbLine
 10
-80.911545
 20
9.57103
 30
0.0
 11
-80.911545
 21
-17.328964
 31
0.0
  0
LINE
  5
47
100
AcDbEntity
  8
LY_3
  6
CONTINUOUS
 62
       251
100
AcDbLine
 10
-87.62529
 20
-157.328979
 30
0.0
 11
-85.011544
 21
-152.978975
 31
0.0
  0
LINE
  5
48
100
AcDbEntity
  8
LY_3
  6
CONTINUOUS
 62
       251
100
AcDbLine
 10
-132.261551
 20
4.108536
 30
0.0
 11
-106.761551
 21
4.108536
 31
0.0
  0
LINE
  5
49
100
AcDbEntity
  8
LY_3
  6
CONTINUOUS
 62
       251
100
AcDbLine
 10
-106.761551
 20
7.671036
 30
0.0
 11
-82.741531
 21
7.671036
 31
0.0
  0
LINE
  5
4A
100
AcDbEntity
  8
LY_3
  6
CONTINUOUS
 62
       251
100
AcDbLine
 10
-132.261551
 20
-142.328964
 30
0.0
 11
-156.28154
 21
-142.328964
 31
0.0
  0
LINE
  5
4B
100
AcDbEntity
  8
LY_3
  6
CONTINUOUS
 62
       251
100
AcDbLine
 10
-106.761551
 20
-138.766464
 30
0.0
 11
-132.261551
 21
-138.766464
 31
0.0
  0
LINE
  5
4C
100
AcDbEntity
  8
LY_3
  6
CONTINUOUS
 62
       251
100
AcDbLine
 10
-82.741531
 20
-142.328964
 30
0.0
 11
-106.761551
 21
-142.328964
 31
0.0
  0
LINE
  5
4D
100
AcDbEntity
  8
LY_3
  6
CONTINUOUS
 62
       251
100
AcDbLine
 10
-181.511551
 20
-17.328964
 30
0.0
 11
-181.511551
 21
32.671036
 31
0.0
  0
LINE
  5
4E
100
AcDbEntity
  8
LY_3
  6
CONTINUOUS
 62
       251
100
AcDbLine
 10
-158.111557
 20
-117.328964
 30
0.0
 11
-158.111557
 21
-144.228943
 31
0.0
  0
LINE
  5
4F
100
AcDbEntity
  8
LY_3
  6
CONTINUOUS
 62
       251
100
AcDbLine
 10
-57.51152
 20
-152.978964
 30
0.0
 11
-85.01152
 21
-152.978964
 31
0.0
  0
LINE
  5
50
100
AcDbEntity
  8
LY_3
  6
CONTINUOUS
 62
       251
100
AcDbLine
 10
-80.911545
 20
-117.328964
 30
0.0
 11
-80.911545
 21
-144.228943
 31
0.0
  0
LINE
  5
51
100
AcDbEntity
  8
LY_3
  6
CONTINUOUS
 62
       251
100
AcDbLine
 10
-57.511551
 20
-117.328964
 30
0.0
 11
-57.511551
 21
-167.328964
 31
0.0
  0
LINE
  5
52
100
AcDbEntity
  8
LY_3
  6
CONTINUOUS
 62
       251
100
AcDbLine
 10
-176.011551
 20
24.671036
 30
0.0
 11
-157.011551
 21
24.671036
 31
0.0
  0
LINE
  5
53
100
AcDbEntity
  8
LY_3
  6
CONTINUOUS
 62
       251
100
AcDbLine
 10
-176.011551
 20
32.671036
 30
0.0
 11
-176.011551
 21
24.671036
 31
0.0
  0
LINE
  5
54
100
AcDbEntity
  8
LY_3
  6
CONTINUOUS
 62
       251
100
AcDbLine
 10
-157.011551
 20
32.671036
 30
0.0
 11
-157.011551
 21
24.671036
 31
0.0
  0
LINE
  5
56
100
AcDbEntity
  8
LY_3
  6
CENTER
 62
         7
100
AcDbLine
 10
-166.511551
 20
34.46077
 30
0.0
 11
-166.511551
 21
5.407535
 31
0.0
  0
LINE
  5
57
100
AcDbEntity
  8
LY_3
  6
CONTINUOUS
 62
       251
100
AcDbLine
 10
-167.311539
 20
30.643814
 30
0.0
 11
-167.311539
 21
28.270981
 31
0.0
  0
LINE
  5
58
100
AcDbEntity
  8
LY_3
  6
CONTINUOUS
 62
       251
100
AcDbLine
 10
-165.711533
 20
30.643814
 30
0.0
 11
-165.711533
 21
28.270981
 31
0.0
  0
LINE
  5
59
100
AcDbEntity
  8
LY_3
  6
CONTINUOUS
 62
       251
100
AcDbLine
 10
-167.311539
 20
28.270981
 30
0.0
 11
-165.711533
 21
28.270981
 31
0.0
  0
LINE
  5
5A
100
AcDbEntity
  8
LY_3
  6
CONTINUOUS
 62
       251
100
AcDbLine
 10
-56.011551
 20
-32.328964
 30
0.0
 11
-183.011551
 21
-32.328964
 31
0.0
  0
LINE
  5
5B
100
AcDbEntity
  8
LY_3
  6
CONTINUOUS
 62
         7
100
AcDbLine
 10
-169.831528
 20
24.671036
 30
0.0
 11
-169.831528
 21
7.671036
 31
0.0
  0
LINE
  5
5C
100
AcDbEntity
  8
LY_3
  6
CONTINUOUS
 62
         7
100
AcDbLine
 10
-163.191544
 20
24.671036
 30
0.0
 11
-163.191544
 21
7.671036
 31
0.0
  0
LINE
  5
5D
100
AcDbEntity
  8
LY_3
  6
CONTINUOUS
 62
       251
100
AcDbLine
 10
-170.511551
 20
24.671036
 30
0.0
 11
-170.511551
 21
7.671036
 31
0.0
  0
LINE
  5
5E
100
AcDbEntity
  8
LY_3
  6
CONTINUOUS
 62
       251
100
AcDbLine
 10
-162.511551
 20
24.671036
 30
0.0
 11
-162.511551
 21
7.671036
 31
0.0
  0
LINE
  5
5F
100
AcDbEntity
  8
LY_3
  6
CONTINUOUS
 62
       251
100
AcDbLine
 10
-85.01152
 20
-152.978964
 30
0.0
 11
-85.01152
 21
-161.678963
 31
0.0
  0
LINE
  5
60
100
AcDbEntity
  8
LY_3
  6
CONTINUOUS
 62
         7
100
AcDbLine
 10
-181.511551
 20
-152.328964
 30
0.0
 11
-161.511551
 21
-152.328964
 31
0.0
  0
LINE
  5
61
100
AcDbEntity
  8
LY_3
  6
CONTINUOUS
 62
         7
100
AcDbLine
 10
-181.511551
 20
-162.328964
 30
0.0
 11
-161.511551
 21
-162.328964
 31
0.0
  0
LINE
  5
62
100
AcDbEntity
  8
LY_3
  6
CONTINUOUS
 62
       251
100
AcDbLine
 10
-161.511551
 20
-152.328964
 30
0.0
 11
-161.511551
 21
-162.328964
 31
0.0
  0
LINE
  5
63
100
AcDbEntity
  8
LY_3
  6
CONTINUOUS
 62
       251
100
AcDbLine
 10
-154.011551
 20
-152.978964
 30
0.0
 11
-154.011551
 21
-161.678963
 31
0.0
  0
LINE
  5
64
100
AcDbEntity
  8
LY_3
  6
CONTINUOUS
 62
       251
100
AcDbLine
 10
-181.511551
 20
-152.978964
 30
0.0
 11
-154.011551
 21
-152.978964
 31
0.0
  0
LINE
  5
65
100
AcDbEntity
  8
LY_3
  6
CONTINUOUS
 62
       251
100
AcDbLine
 10
-181.511551
 20
-161.678963
 30
0.0
 11
-154.011551
 21
-161.678963
 31
0.0
  0
LINE
  5
66
100
AcDbEntity
  8
LY_3
  6
CONTINUOUS
 62
       251
100
AcDbLine
 10
-77.51152
 20
-152.328964
 30
0.0
 11
-77.51152
 21
-162.328964
 31
0.0
  0
LINE
  5
67
100
AcDbEntity
  8
LY_3
  6
CONTINUOUS
 62
         7
100
AcDbLine
 10
-57.51152
 20
-152.328964
 30
0.0
 11
-77.51152
 21
-152.328964
 31
0.0
  0
LINE
  5
68
100
AcDbEntity
  8
LY_3
  6
CONTINUOUS
 62
       251
100
AcDbLine
 10
-151.397781
 20
-157.328979
 30
0.0
 11
-154.011528
 21
-152.978975
 31
0.0
  0
LINE
  5
69
100
AcDbEntity
  8
LY_3
  6
CONTINUOUS
 62
       251
100
AcDbLine
 10
-154.011519
 20
-161.67894
 30
0.0
 11
-151.397789
 21
-157.328963
 31
0.0
  0
LINE
  5
6A
100
AcDbEntity
  8
LY_3
  6
CONTINUOUS
 62
         7
100
AcDbLine
 10
-57.51152
 20
-162.328964
 30
0.0
 11
-77.51152
 21
-162.328964
 31
0.0
  0
LINE
  5
6B
100
AcDbEntity
  8
LY_3
  6
CONTINUOUS
 62
       251
100
AcDbLine
 10
-85.011552
 20
-161.67894
 30
0.0
 11
-87.625282
 21
-157.328963
 31
0.0
  0
LINE
  5
6C
100
AcDbEntity
  8
LY_3
  6
CONTINUOUS
 62
       251
100
AcDbLine
 10
-156.28154
 20
9.57103
 30
0.0
 11
-156.28154
 21
-17.328964
 31
0.0
  0
LINE
  5
6D
100
AcDbEntity
  8
LY_3
  6
CONTINUOUS
 62
       251
100
AcDbLine
 10
-158.111557
 20
3.221024
 30
0.0
 11
-156.28154
 21
3.221024
 31
0.0
  0
LINE
  5
6E
100
AcDbEntity
  8
LY_3
  6
CONTINUOUS
 62
       251
100
AcDbLine
 10
-156.28154
 20
-117.328964
 30
0.0
 11
-156.28154
 21
-144.228958
 31
0.0
  0
LINE
  5
6F
100
AcDbEntity
  8
LY_3
  6
CONTINUOUS
 62
       251
100
AcDbLine
 10
-82.741531
 20
3.221024
 30
0.0
 11
-80.911545
 21
3.221024
 31
0.0
  0
LINE
  5
70
100
AcDbEntity
  8
LY_3
  6
CONTINUOUS
 62
       251
100
AcDbLine
 10
-82.741531
 20
9.57103
 30
0.0
 11
-82.741531
 21
-17.328964
 31
0.0
  0
LINE
  5
71
100
AcDbEntity
  8
LY_3
  6
CONTINUOUS
 62
       251
100
AcDbLine
 10
-82.741531
 20
-117.328964
 30
0.0
 11
-82.741531
 21
-144.228958
 31
0.0
  0
LINE
  5
72
100
AcDbEntity
  8
LY_3
  6
CONTINUOUS
 62
       251
100
AcDbLine
 10
-158.111557
 20
-137.87896
 30
0.0
 11
-156.28154
 21
-137.87896
 31
0.0
  0
LINE
  5
73
100
AcDbEntity
  8
LY_3
  6
CONTINUOUS
 62
       251
100
AcDbLine
 10
-82.741531
 20
-137.87896
 30
0.0
 11
-80.911545
 21
-137.87896
 31
0.0
  0
LINE
  5
74
100
AcDbEntity
  8
LY_3
  6
CONTINUOUS
 62
       251
100
AcDbLine
 10
-127.661629
 20
0.106979
 30
0.0
 11
-127.661629
 21
-2.559998
 31
0.0
  0
LINE
  5
75
100
AcDbEntity
  8
LY_3
  6
CONTINUOUS
 62
       251
100
AcDbLine
 10
-129.76162
 20
4.110992
 30
0.0
 11
-129.76162
 21
1.106979
 31
0.0
  0
LINE
  5
76
100
AcDbEntity
  8
LY_3
  6
CONTINUOUS
 62
       251
100
AcDbLine
 10
-129.76162
 20
1.106979
 30
0.0
 11
-128.661644
 21
1.106979
 31
0.0
  0
LINE
  5
77
100
AcDbEntity
  8
LY_3
  6
CONTINUOUS
 62
       251
100
AcDbLine
 10
-132.311623
 20
-2.559998
 30
0.0
 11
-127.661629
 21
-2.559998
 31
0.0
  0
LINE
  5
78
100
AcDbEntity
  8
LY_3
  6
CONTINUOUS
 62
       251
100
AcDbLine
 10
-129.76162
 20
-2.559998
 30
0.0
 11
-129.76162
 21
-5.384995
 31
0.0
  0
LINE
  5
79
100
AcDbEntity
  8
LY_3
  6
CONTINUOUS
 62
       251
100
AcDbLine
 10
-127.661629
 20
-132.097916
 30
0.0
 11
-127.661629
 21
-134.443924
 31
0.0
  0
LINE
  5
7A
100
AcDbEntity
  8
LY_3
  6
CONTINUOUS
 62
       251
100
AcDbLine
 10
-129.76162
 20
-129.272919
 30
0.0
 11
-129.76162
 21
-132.097916
 31
0.0
  0
LINE
  5
7B
100
AcDbEntity
  8
LY_3
  6
CONTINUOUS
 62
       251
100
AcDbLine
 10
-128.661644
 20
-135.443939
 30
0.0
 11
-129.76162
 21
-135.443939
 31
0.0
  0
LINE
  5
7C
100
AcDbEntity
  8
LY_3
  6
CONTINUOUS
 62
       251
100
AcDbLine
 10
-129.76162
 20
-135.443939
 30
0.0
 11
-129.76162
 21
-138.766434
 31
0.0
  0
LINE
  5
7D
100
AcDbEntity
  8
LY_3
  6
CONTINUOUS
 62
       251
100
AcDbLine
 10
-111.361748
 20
-2.559998
 30
0.0
 11
-111.361748
 21
0.106979
 31
0.0
  0
LINE
  5
7E
100
AcDbEntity
  8
LY_3
  6
CONTINUOUS
 62
       251
100
AcDbLine
 10
-109.261757
 20
1.106979
 30
0.0
 11
-109.261757
 21
4.110992
 31
0.0
  0
LINE
  5
7F
100
AcDbEntity
  8
LY_3
  6
CONTINUOUS
 62
       251
100
AcDbLine
 10
-110.361732
 20
1.106979
 30
0.0
 11
-109.261757
 21
1.106979
 31
0.0
  0
LINE
  5
80
100
AcDbEntity
  8
LY_3
  6
CONTINUOUS
 62
       251
100
AcDbLine
 10
-111.361748
 20
-2.559998
 30
0.0
 11
-109.261757
 21
-2.559998
 31
0.0
  0
LINE
  5
81
100
AcDbEntity
  8
LY_3
  6
CONTINUOUS
 62
       251
100
AcDbLine
 10
-109.261757
 20
-5.384995
 30
0.0
 11
-109.261757
 21
-2.559998
 31
0.0
  0
LINE
  5
82
100
AcDbEntity
  8
LY_3
  6
CONTINUOUS
 62
       251
100
AcDbLine
 10
-111.361748
 20
-134.443924
 30
0.0
 11
-111.361748
 21
-131.272934
 31
0.0
  0
LINE
  5
83
100
AcDbEntity
  8
LY_3
  6
CONTINUOUS
 62
       251
100
AcDbLine
 10
-109.261757
 20
-131.272934
 30
0.0
 11
-109.261757
 21
-129.272919
 31
0.0
  0
LINE
  5
84
100
AcDbEntity
  8
LY_3
  6
CONTINUOUS
 62
       251
100
AcDbLine
 10
-109.261757
 20
-131.272934
 30
0.0
 11
-111.361748
 21
-131.272934
 31
0.0
  0
LINE
  5
85
100
AcDbEntity
  8
LY_3
  6
CONTINUOUS
 62
       251
100
AcDbLine
 10
-109.261757
 20
-135.443939
 30
0.0
 11
-110.361732
 21
-135.443939
 31
0.0
  0
LINE
  5
86
100
AcDbEntity
  8
LY_3
  6
CONTINUOUS
 62
       251
100
AcDbLine
 10
-109.261757
 20
-138.766434
 30
0.0
 11
-109.261757
 21
-135.443939
 31
0.0
  0
LINE
  5
87
100
AcDbEntity
  8
LY_3
  6
CONTINUOUS
 62
       251
100
AcDbLine
 10
-109.261757
 20
-4.828979
 30
0.0
 11
-106.711708
 21
-4.828979
 31
0.0
  0
LINE
  5
88
100
AcDbEntity
  8
LY_3
  6
CONTINUOUS
 62
       251
100
AcDbLine
 10
-106.711708
 20
-129.828934
 30
0.0
 11
-109.261757
 21
-129.828934
 31
0.0
  0
LINE
  5
89
100
AcDbEntity
  8
LY_3
  6
CONTINUOUS
 62
       251
100
AcDbLine
 10
-127.661629
 20
-132.097916
 30
0.0
 11
-132.311623
 21
-132.097916
 31
0.0
  0
LINE
  5
8A
100
AcDbEntity
  8
LY_3
  6
CONTINUOUS
 62
       251
100
AcDbLine
 10
-70.311539
 20
7.671036
 30
0.0
 11
-70.311539
 21
-17.328964
 31
0.0
  0
LINE
  5
8B
100
AcDbEntity
  8
LY_3
  6
CONTINUOUS
 62
       251
100
AcDbLine
 10
-59.311539
 20
-17.328964
 30
0.0
 11
-59.311539
 21
7.671036
 31
0.0
  0
LINE
  5
8C
100
AcDbEntity
  8
LY_3
  6
CONTINUOUS
 62
       251
100
AcDbLine
 10
-68.661539
 20
3.921036
 30
0.0
 11
-60.961539
 21
3.921036
 31
0.0
  0
LINE
  5
8D
100
AcDbEntity
  8
LY_3
  6
CONTINUOUS
 62
       251
100
AcDbLine
 10
-60.961538
 20
3.921036
 30
0.0
 11
-60.961538
 21
-9.328979
 31
0.0
  0
LINE
  5
8E
100
AcDbEntity
  8
LY_3
  6
CONTINUOUS
 62
       251
100
AcDbLine
 10
-60.961525
 20
-9.329039
 30
0.0
 11
-66.51652
 21
-17.329015
 31
0.0
  0
LINE
  5
8F
100
AcDbEntity
  8
LY_3
  6
CONTINUOUS
 62
       251
100
AcDbLine
 10
-66.516568
 20
-17.328907
 30
0.0
 11
-68.331565
 21
-13.578926
 31
0.0
  0
LINE
  5
90
100
AcDbEntity
  8
LY_3
  6
CONTINUOUS
 62
       251
100
AcDbLine
 10
-70.311539
 20
-142.328964
 30
0.0
 11
-70.311539
 21
-117.328964
 31
0.0
  0
LINE
  5
91
100
AcDbEntity
  8
LY_3
  6
CONTINUOUS
 62
       251
100
AcDbLine
 10
-59.311539
 20
-117.328964
 30
0.0
 11
-59.311539
 21
-142.328964
 31
0.0
  0
LINE
  5
92
100
AcDbEntity
  8
LY_3
  6
CONTINUOUS
 62
       251
100
AcDbLine
 10
-68.661539
 20
-138.578964
 30
0.0
 11
-60.961539
 21
-138.578964
 31
0.0
  0
LINE
  5
93
100
AcDbEntity
  8
LY_3
  6
CONTINUOUS
 62
       251
100
AcDbLine
 10
-60.961538
 20
-138.578964
 30
0.0
 11
-60.961538
 21
-125.328949
 31
0.0
  0
LINE
  5
94
100
AcDbEntity
  8
LY_3
  6
CONTINUOUS
 62
       251
100
AcDbLine
 10
-60.961525
 20
-125.32889
 30
0.0
 11
-66.51652
 21
-117.328913
 31
0.0
  0
LINE
  5
95
100
AcDbEntity
  8
LY_3
  6
CONTINUOUS
 62
       251
100
AcDbLine
 10
-66.516568
 20
-117.329021
 30
0.0
 11
-68.331565
 21
-121.079003
 31
0.0
  0
LINE
  5
96
100
AcDbEntity
  8
LY_3
  6
CONTINUOUS
 62
       251
100
AcDbLine
 10
-168.711533
 20
-142.328964
 30
0.0
 11
-168.711533
 21
-117.328964
 31
0.0
  0
LINE
  5
97
100
AcDbEntity
  8
LY_3
  6
CONTINUOUS
 62
       251
100
AcDbLine
 10
-168.711533
 20
-117.328964
 30
0.0
 11
-179.711533
 21
-117.328964
 31
0.0
  0
LINE
  5
98
100
AcDbEntity
  8
LY_3
  6
CONTINUOUS
 62
       251
100
AcDbLine
 10
-179.711533
 20
-117.328964
 30
0.0
 11
-179.711533
 21
-142.328964
 31
0.0
  0
LINE
  5
99
100
AcDbEntity
  8
LY_3
  6
CONTINUOUS
 62
       251
100
AcDbLine
 10
-179.711533
 20
-142.328964
 30
0.0
 11
-168.711533
 21
-142.328964
 31
0.0
  0
LINE
  5
9A
100
AcDbEntity
  8
LY_3
  6
CONTINUOUS
 62
       251
100
AcDbLine
 10
-170.361532
 20
-138.578964
 30
0.0
 11
-178.061532
 21
-138.578964
 31
0.0
  0
LINE
  5
9B
100
AcDbEntity
  8
LY_3
  6
CONTINUOUS
 62
       251
100
AcDbLine
 10
-178.061533
 20
-138.578964
 30
0.0
 11
-178.061533
 21
-125.328949
 31
0.0
  0
LINE
  5
9C
100
AcDbEntity
  8
LY_3
  6
CONTINUOUS
 62
       251
100
AcDbLine
 10
-178.061547
 20
-125.32889
 30
0.0
 11
-172.506551
 21
-117.328913
 31
0.0
  0
LINE
  5
9D
100
AcDbEntity
  8
LY_3
  6
CONTINUOUS
 62
       251
100
AcDbLine
 10
-172.506504
 20
-117.329021
 30
0.0
 11
-170.691506
 21
-121.079003
 31
0.0
  0
LINE
  5
9E
100
AcDbEntity
  8
LY_3
  6
CONTINUOUS
 62
       251
100
AcDbLine
 10
-168.711533
 20
7.671036
 30
0.0
 11
-168.711533
 21
-17.328964
 31
0.0
  0
LINE
  5
9F
100
AcDbEntity
  8
LY_3
  6
CONTINUOUS
 62
       251
100
AcDbLine
 10
-179.711533
 20
-17.328964
 30
0.0
 11
-179.711533
 21
7.671036
 31
0.0
  0
LINE
  5
A0
100
AcDbEntity
  8
LY_3
  6
CONTINUOUS
 62
       251
100
AcDbLine
 10
-170.361532
 20
3.921036
 30
0.0
 11
-178.061532
 21
3.921036
 31
0.0
  0
LINE
  5
A1
100
AcDbEntity
  8
LY_3
  6
CONTINUOUS
 62
       251
100
AcDbLine
 10
-178.061533
 20
3.921036
 30
0.0
 11
-178.061533
 21
-9.328979
 31
0.0
  0
LINE
  5
A2
100
AcDbEntity
  8
LY_3
  6
CONTINUOUS
 62
       251
100
AcDbLine
 10
-178.061547
 20
-9.329039
 30
0.0
 11
-172.506551
 21
-17.329015
 31
0.0
  0
LINE
  5
A3
100
AcDbEntity
  8
LY_3
  6
CONTINUOUS
 62
       251
100
AcDbLine
 10
-172.506504
 20
-17.328907
 30
0.0
 11
-170.691506
 21
-13.578926
 31
0.0
  0
LINE
  5
A4
100
AcDbEntity
  8
LY_3
  6
CONTINUOUS
 62
       251
100
AcDbLine
 10
-183.011551
 20
-32.328964
 30
0.0
 11
-183.011551
 21
-17.328964
 31
0.0
  0
LINE
  5
A5
100
AcDbEntity
  8
LY_3
  6
CONTINUOUS
 62
       251
100
AcDbLine
 10
-56.011551
 20
-102.328964
 30
0.0
 11
-56.011551
 21
-117.328964
 31
0.0
  0
LINE
  5
A6
100
AcDbEntity
  8
LY_3
  6
CONTINUOUS
 62
       251
100
AcDbLine
 10
-106.761551
 20
-0.328964
 30
0.0
 11
-100.812551
 21
-0.328964
 31
0.0
  0
LINE
  5
A7
100
AcDbEntity
  8
LY_3
  6
CONTINUOUS
 62
       251
100
AcDbLine
 10
-88.710556
 20
-0.328964
 30
0.0
 11
-82.741531
 21
-0.328964
 31
0.0
  0
LINE
  5
A8
100
AcDbEntity
  8
LY_3
  6
CONTINUOUS
 62
       251
100
AcDbLine
 10
-106.761551
 20
-9.328964
 30
0.0
 11
-100.812551
 21
-9.328964
 31
0.0
  0
LINE
  5
A9
100
AcDbEntity
  8
LY_3
  6
CONTINUOUS
 62
       251
100
AcDbLine
 10
-88.710556
 20
-9.328964
 30
0.0
 11
-82.741531
 21
-9.328964
 31
0.0
  0
LINE
  5
AA
100
AcDbEntity
  8
LY_3
  6
CONTINUOUS
 62
       251
100
AcDbLine
 10
-106.761551
 20
-125.328964
 30
0.0
 11
-100.812551
 21
-125.328964
 31
0.0
  0
LINE
  5
AB
100
AcDbEntity
  8
LY_3
  6
CONTINUOUS
 62
       251
100
AcDbLine
 10
-88.710556
 20
-125.328964
 30
0.0
 11
-82.741531
 21
-125.328964
 31
0.0
  0
LINE
  5
AC
100
AcDbEntity
  8
LY_3
  6
CONTINUOUS
 62
       251
100
AcDbLine
 10
-106.761551
 20
-134.328964
 30
0.0
 11
-100.812551
 21
-134.328964
 31
0.0
  0
LINE
  5
AD
100
AcDbEntity
  8
LY_3
  6
CONTINUOUS
 62
       251
100
AcDbLine
 10
-88.710556
 20
-134.328964
 30
0.0
 11
-82.741531
 21
-134.328964
 31
0.0
  0
LINE
  5
AE
100
AcDbEntity
  8
LY_3
  6
CONTINUOUS
 62
       251
100
AcDbLine
 10
-132.261551
 20
-134.328964
 30
0.0
 11
-138.21055
 21
-134.328964
 31
0.0
  0
LINE
  5
AF
100
AcDbEntity
  8
LY_3
  6
CONTINUOUS
 62
       251
100
AcDbLine
 10
-150.312546
 20
-134.328964
 30
0.0
 11
-156.28154
 21
-134.328964
 31
0.0
  0
LINE
  5
B0
100
AcDbEntity
  8
LY_3
  6
CONTINUOUS
 62
       251
100
AcDbLine
 10
-132.261551
 20
-125.328964
 30
0.0
 11
-138.21055
 21
-125.328964
 31
0.0
  0
LINE
  5
B1
100
AcDbEntity
  8
LY_3
  6
CONTINUOUS
 62
       251
100
AcDbLine
 10
-150.312546
 20
-125.328964
 30
0.0
 11
-156.28154
 21
-125.328964
 31
0.0
  0
LINE
  5
B2
100
AcDbEntity
  8
LY_3
  6
CONTINUOUS
 62
       251
100
AcDbLine
 10
-132.261551
 20
-9.328964
 30
0.0
 11
-138.21055
 21
-9.328964
 31
0.0
  0
LINE
  5
B3
100
AcDbEntity
  8
LY_3
  6
CONTINUOUS
 62
       251
100
AcDbLine
 10
-150.312546
 20
-9.328964
 30
0.0
 11
-156.28154
 21
-9.328964
 31
0.0
  0
LINE
  5
B4
100
AcDbEntity
  8
LY_3
  6
CONTINUOUS
 62
       251
100
AcDbLine
 10
-132.261551
 20
-0.328964
 30
0.0
 11
-138.21055
 21
-0.328964
 31
0.0
  0
LINE
  5
B5
100
AcDbEntity
  8
LY_3
  6
CONTINUOUS
 62
       251
100
AcDbLine
 10
-150.312546
 20
-0.328964
 30
0.0
 11
-156.28154
 21
-0.328964
 31
0.0
  0
LINE
  5
B6
100
AcDbEntity
  8
LY_3
  6
CONTINUOUS
 62
       251
100
AcDbLine
 10
86.123322
 20
-33.787949
 30
0.0
 11
86.123322
 21
-27.429001
 31
0.0
  0
LINE
  5
B7
100
AcDbEntity
  8
LY_3
  6
CONTINUOUS
 62
       251
100
AcDbLine
 10
86.123322
 20
-27.429001
 30
0.0
 11
106.123322
 21
-27.429001
 31
0.0
  0
LINE
  5
B8
100
AcDbEntity
  8
LY_3
  6
CONTINUOUS
 62
       251
100
AcDbLine
 10
106.123322
 20
-27.429001
 30
0.0
 11
106.123322
 21
-33.787949
 31
0.0
  0
LINE
  5
B9
100
AcDbEntity
  8
LY_3
  6
CENTER
 62
         7
100
AcDbLine
 10
137.623298
 20
4.551158
 30
0.0
 11
144.623298
 21
16.675513
 31
0.0
  0
LINE
  5
BA
100
AcDbEntity
  8
LY_3
  6
CENTER
 62
         7
100
AcDbLine
 10
54.623039
 20
4.55158
 30
0.0
 11
47.623039
 21
16.675936
 31
0.0
  0
LINE
  5
BB
100
AcDbEntity
  8
LY_3
  6
CENTER
 62
         7
100
AcDbLine
 10
54.622308
 20
-139.209087
 30
0.0
 11
47.622308
 21
-151.333442
 31
0.0
  0
LINE
  5
BC
100
AcDbEntity
  8
LY_3
  6
CENTER
 62
         7
100
AcDbLine
 10
13.122543
 20
-67.328543
 30
0.0
 11
-0.877457
 21
-67.328543
 31
0.0
  0
LINE
  5
BD
100
AcDbEntity
  8
LY_3
  6
CENTER
 62
         7
100
AcDbLine
 10
179.123062
 20
-67.329386
 30
0.0
 11
193.123062
 21
-67.329386
 31
0.0
  0
LINE
  5
BE
100
AcDbEntity
  8
LY_3
  6
CENTER
 62
         7
100
AcDbLine
 10
137.622567
 20
-139.209508
 30
0.0
 11
144.622567
 21
-151.333864
 31
0.0
  0
LINE
  5
C0
100
AcDbEntity
  8
LY_3
  6
DASHED
 62
         7
100
AcDbLine
 10
180.547887
 20
-105.101272
 30
0.0
 11
171.047887
 21
-121.555755
 31
0.0
  0
LINE
  5
C1
100
AcDbEntity
  8
LY_3
  6
DASHED
 62
         7
100
AcDbLine
 10
187.08436
 20
-108.875106
 30
0.0
 11
180.547887
 21
-105.101272
 31
0.0
  0
LINE
  5
C2
100
AcDbEntity
  8
LY_3
  6
DASHED
 62
         7
100
AcDbLine
 10
177.584439
 20
-125.329635
 30
0.0
 11
171.047887
 21
-121.555755
 31
0.0
  0
LINE
  5
C3
100
AcDbEntity
  8
LY_3
  6
CENTER
 62
         7
100
AcDbLine
 10
96.122803
 20
34.46077
 30
0.0
 11
96.122803
 21
6.840714
 31
0.0
  0
LINE
  5
C4
100
AcDbEntity
  8
LY_3
  6
DASHED
 62
         7
100
AcDbLine
 10
181.370459
 20
-115.622093
 30
0.0
 11
179.315525
 21
-114.435676
 31
0.0
  0
LINE
  5
C5
100
AcDbEntity
  8
LY_3
  6
DASHED
 62
         7
100
AcDbLine
 10
180.570456
 20
-117.007739
 30
0.0
 11
178.515522
 21
-115.821322
 31
0.0
  0
LINE
  5
C6
100
AcDbEntity
  8
LY_3
  6
DASHED
 62
         7
100
AcDbLine
 10
179.315525
 20
-114.435676
 30
0.0
 11
178.515522
 21
-115.821322
 31
0.0
  0
LINE
  5
C7
100
AcDbEntity
  8
LY_3
  6
DASHED
 62
         7
100
AcDbLine
 10
177.457875
 20
-110.453329
 30
0.0
 11
162.67178
 21
-101.916573
 31
0.0
  0
LINE
  5
C8
100
AcDbEntity
  8
LY_3
  6
DASHED
 62
         7
100
AcDbLine
 10
174.137883
 20
-116.203724
 30
0.0
 11
159.351826
 21
-107.666989
 31
0.0
  0
LINE
  5
C9
100
AcDbEntity
  8
LY_3
  6
DASHED
 62
         7
100
AcDbLine
 10
177.797887
 20
-109.864412
 30
0.0
 11
162.983014
 21
-101.311041
 31
0.0
  0
LINE
  5
CA
100
AcDbEntity
  8
LY_3
  6
DASHED
 62
         7
100
AcDbLine
 10
173.797887
 20
-116.792615
 30
0.0
 11
158.983061
 21
-108.239271
 31
0.0
  0
LINE
  5
CB
100
AcDbEntity
  8
LY_3
  6
DASHED
 62
         7
100
AcDbLine
 10
86.622803
 20
24.671036
 30
0.0
 11
105.622803
 21
24.671036
 31
0.0
  0
LINE
  5
CC
100
AcDbEntity
  8
LY_3
  6
DASHED
 62
         7
100
AcDbLine
 10
86.622803
 20
32.218704
 30
0.0
 11
86.622803
 21
24.671036
 31
0.0
  0
LINE
  5
CD
100
AcDbEntity
  8
LY_3
  6
DASHED
 62
         7
100
AcDbLine
 10
105.622803
 20
32.218796
 30
0.0
 11
105.622803
 21
24.671036
 31
0.0
  0
LINE
  5
CE
100
AcDbEntity
  8
LY_3
  6
DASHED
 62
         7
100
AcDbLine
 10
95.322815
 20
30.643814
 30
0.0
 11
95.322815
 21
28.270981
 31
0.0
  0
LINE
  5
CF
100
AcDbEntity
  8
LY_3
  6
DASHED
 62
         7
100
AcDbLine
 10
96.922821
 20
30.643814
 30
0.0
 11
96.922821
 21
28.270981
 31
0.0
  0
LINE
  5
D0
100
AcDbEntity
  8
LY_3
  6
DASHED
 62
         7
100
AcDbLine
 10
95.322815
 20
28.270981
 30
0.0
 11
96.922821
 21
28.270981
 31
0.0
  0
LINE
  5
D1
100
AcDbEntity
  8
LY_3
  6
DASHED
 62
         7
100
AcDbLine
 10
92.802826
 20
24.671036
 30
0.0
 11
92.802826
 21
7.597495
 31
0.0
  0
LINE
  5
D2
100
AcDbEntity
  8
LY_3
  6
DASHED
 62
         7
100
AcDbLine
 10
99.44281
 20
24.671036
 30
0.0
 11
99.44281
 21
7.59754
 31
0.0
  0
LINE
  5
D3
100
AcDbEntity
  8
LY_3
  6
DASHED
 62
         7
100
AcDbLine
 10
92.122803
 20
24.671036
 30
0.0
 11
92.122803
 21
7.564265
 31
0.0
  0
LINE
  5
D4
100
AcDbEntity
  8
LY_3
  6
DASHED
 62
         7
100
AcDbLine
 10
100.122803
 20
24.671036
 30
0.0
 11
100.122803
 21
7.564321
 31
0.0
  0
LINE
  5
D5
100
AcDbEntity
  8
LY_3
  6
DASHED
 62
         7
100
AcDbLine
 10
11.698721
 20
-29.556667
 30
0.0
 11
21.198721
 21
-13.102185
 31
0.0
  0
LINE
  5
D6
100
AcDbEntity
  8
LY_3
  6
DASHED
 62
         7
100
AcDbLine
 10
5.162248
 20
-25.782833
 30
0.0
 11
11.698721
 21
-29.556667
 31
0.0
  0
LINE
  5
D7
100
AcDbEntity
  8
LY_3
  6
DASHED
 62
         7
100
AcDbLine
 10
14.662169
 20
-9.328305
 30
0.0
 11
21.198721
 21
-13.102185
 31
0.0
  0
LINE
  5
D8
100
AcDbEntity
  8
LY_3
  6
DASHED
 62
         7
100
AcDbLine
 10
10.876149
 20
-19.035846
 30
0.0
 11
12.931083
 21
-20.222263
 31
0.0
  0
LINE
  5
D9
100
AcDbEntity
  8
LY_3
  6
DASHED
 62
         7
100
AcDbLine
 10
11.676152
 20
-17.650201
 30
0.0
 11
13.731086
 21
-18.836617
 31
0.0
  0
LINE
  5
DA
100
AcDbEntity
  8
LY_3
  6
DASHED
 62
         7
100
AcDbLine
 10
12.931083
 20
-20.222263
 30
0.0
 11
13.731086
 21
-18.836617
 31
0.0
  0
LINE
  5
DB
100
AcDbEntity
  8
LY_3
  6
DASHED
 62
         7
100
AcDbLine
 10
14.788733
 20
-24.20461
 30
0.0
 11
29.574851
 21
-32.741379
 31
0.0
  0
LINE
  5
DC
100
AcDbEntity
  8
LY_3
  6
DASHED
 62
         7
100
AcDbLine
 10
18.108725
 20
-18.454215
 30
0.0
 11
32.894803
 21
-26.990962
 31
0.0
  0
LINE
  5
DD
100
AcDbEntity
  8
LY_3
  6
DASHED
 62
         7
100
AcDbLine
 10
14.448721
 20
-24.793527
 30
0.0
 11
29.263617
 21
-33.346912
 31
0.0
  0
LINE
  5
DE
100
AcDbEntity
  8
LY_3
  6
DASHED
 62
         7
100
AcDbLine
 10
18.448721
 20
-17.865324
 30
0.0
 11
33.263568
 21
-26.41868
 31
0.0
  0
LINE
  5
DF
100
AcDbEntity
  8
LY_3
  6
DASHED
 62
         7
100
AcDbLine
 10
105.62384
 20
-159.32896
 30
0.0
 11
86.62384
 21
-159.328959
 31
0.0
  0
LINE
  5
E0
100
AcDbEntity
  8
LY_3
  6
DASHED
 62
         7
100
AcDbLine
 10
105.62384
 20
-166.876628
 30
0.0
 11
105.62384
 21
-159.32896
 31
0.0
  0
LINE
  5
E1
100
AcDbEntity
  8
LY_3
  6
DASHED
 62
         7
100
AcDbLine
 10
86.62384
 20
-166.87672
 30
0.0
 11
86.62384
 21
-159.328959
 31
0.0
  0
LINE
  5
E2
100
AcDbEntity
  8
LY_3
  6
DASHED
 62
         7
100
AcDbLine
 10
96.923828
 20
-165.301738
 30
0.0
 11
96.923828
 21
-162.928905
 31
0.0
  0
LINE
  5
E3
100
AcDbEntity
  8
LY_3
  6
DASHED
 62
         7
100
AcDbLine
 10
95.323822
 20
-165.301738
 30
0.0
 11
95.323822
 21
-162.928905
 31
0.0
  0
LINE
  5
E4
100
AcDbEntity
  8
LY_3
  6
DASHED
 62
         7
100
AcDbLine
 10
96.923828
 20
-162.928905
 30
0.0
 11
95.323822
 21
-162.928905
 31
0.0
  0
LINE
  5
E5
100
AcDbEntity
  8
LY_3
  6
DASHED
 62
         7
100
AcDbLine
 10
99.443817
 20
-159.32896
 30
0.0
 11
99.443817
 21
-142.255424
 31
0.0
  0
LINE
  5
E6
100
AcDbEntity
  8
LY_3
  6
DASHED
 62
         7
100
AcDbLine
 10
92.803833
 20
-159.32896
 30
0.0
 11
92.803833
 21
-142.255468
 31
0.0
  0
LINE
  5
E7
100
AcDbEntity
  8
LY_3
  6
DASHED
 62
         7
100
AcDbLine
 10
100.12384
 20
-159.32896
 30
0.0
 11
100.12384
 21
-142.222194
 31
0.0
  0
LINE
  5
E8
100
AcDbEntity
  8
LY_3
  6
DASHED
 62
         7
100
AcDbLine
 10
92.12384
 20
-159.32896
 30
0.0
 11
92.12384
 21
-142.222249
 31
0.0
  0
ARC
  5
E9
100
AcDbEntity
  8
LY_3
  6
CONTINUOUS
 62
       251
100
AcDbCircle
 10
-166.511551
 20
18.869919
 30
0.0
 40
11.801058
100
AcDbArc
 50
36.388707
 51
86.112785
  0
ARC
  5
EA
100
AcDbEntity
  8
LY_3
  6
CONTINUOUS
 62
       251
100
AcDbCircle
 10
-166.511551
 20
18.869919
 30
0.0
 40
11.801058
100
AcDbArc
 50
93.887015
 51
143.611284
  0
CIRCLE
  5
EB
100
AcDbEntity
  8
LY_3
  6
CONTINUOUS
 62
       251
100
AcDbCircle
 10
-128.661644
 20
0.106979
 30
0.0
 40
1.0
  0
CIRCLE
  5
EC
100
AcDbEntity
  8
LY_3
  6
CONTINUOUS
 62
       251
100
AcDbCircle
 10
-128.661644
 20
-134.443924
 30
0.0
 40
1.0
  0
CIRCLE
  5
ED
100
AcDbEntity
  8
LY_3
  6
CONTINUOUS
 62
       251
100
AcDbCircle
 10
-110.361732
 20
0.106979
 30
0.0
 40
1.0
  0
CIRCLE
  5
EE
100
AcDbEntity
  8
LY_3
  6
CONTINUOUS
 62
       251
100
AcDbCircle
 10
-110.361732
 20
-134.443924
 30
0.0
 40
1.0
  0
CIRCLE
  5
EF
100
AcDbEntity
  8
LY_3
  6
CONTINUOUS
 62
       251
100
AcDbCircle
 10
-66.51654
 20
-13.578979
 30
0.0
 40
0.77
  0
CIRCLE
  5
F0
100
AcDbEntity
  8
LY_3
  6
CONTINUOUS
 62
       251
100
AcDbCircle
 10
-66.51654
 20
-121.078949
 30
0.0
 40
0.77
  0
CIRCLE
  5
F1
100
AcDbEntity
  8
LY_3
  6
CONTINUOUS
 62
       251
100
AcDbCircle
 10
-172.506532
 20
-121.078949
 30
0.0
 40
0.77
  0
CIRCLE
  5
F2
100
AcDbEntity
  8
LY_3
  6
CONTINUOUS
 62
       251
100
AcDbCircle
 10
-172.506532
 20
-13.578979
 30
0.0
 40
0.77
  0
CIRCLE
  5
F3
100
AcDbEntity
  8
LY_3
  6
CONTINUOUS
 62
       251
100
AcDbCircle
 10
-94.761551
 20
-4.828964
 30
0.0
 40
7.541
  0
CIRCLE
  5
F4
100
AcDbEntity
  8
LY_3
  6
CONTINUOUS
 62
       251
100
AcDbCircle
 10
-94.761551
 20
-129.828964
 30
0.0
 40
7.541
  0
CIRCLE
  5
F5
100
AcDbEntity
  8
LY_3
  6
CONTINUOUS
 62
       251
100
AcDbCircle
 10
-144.261551
 20
-129.828964
 30
0.0
 40
7.541
  0
CIRCLE
  5
F6
100
AcDbEntity
  8
LY_3
  6
CONTINUOUS
 62
       251
100
AcDbCircle
 10
-144.261551
 20
-4.828964
 30
0.0
 40
7.541
  0
CIRCLE
  5
F7
100
AcDbEntity
  8
LY_3
  6
CONTINUOUS
 62
       251
100
AcDbCircle
 10
96.123322
 20
-67.328964
 30
0.0
 40
100.0
  0
ARC
  5
F8
100
AcDbEntity
  8
LY_3
  6
CONTINUOUS
 62
       251
100
AcDbCircle
 10
96.123322
 20
-67.328964
 30
0.0
 40
34.999969
100
AcDbArc
 50
106.601604
 51
73.398398
  0
CIRCLE
  5
F9
100
AcDbEntity
  8
LY_3
  6
CONTINUOUS
 62
       251
100
AcDbCircle
 10
96.123322
 20
-67.328964
 30
0.0
 40
50.0
  0
CIRCLE
  5
FA
100
AcDbEntity
  8
LY_3
  6
CONTINUOUS
 62
       251
100
AcDbCircle
 10
96.123322
 20
-67.328964
 30
0.0
 40
75.0
  0
ARC
  5
FB
100
AcDbEntity
  8
LY_3
  6
CENTER
 62
         7
100
AcDbCircle
 10
96.122543
 20
-67.328515
 30
0.0
 40
90.0
100
AcDbArc
 50
175.542555
 51
184.45748
  0
ARC
  5
FC
100
AcDbEntity
  8
LY_3
  6
CENTER
 62
         7
100
AcDbCircle
 10
96.123322
 20
-67.328964
 30
0.0
 40
90.0
100
AcDbArc
 50
55.542555
 51
64.45748
  0
ARC
  5
FD
100
AcDbEntity
  8
LY_3
  6
CENTER
 62
         7
100
AcDbCircle
 10
96.123062
 20
-67.328515
 30
0.0
 40
90.0
100
AcDbArc
 50
115.542555
 51
124.45748
  0
ARC
  5
FE
100
AcDbEntity
  8
LY_3
  6
CENTER
 62
         7
100
AcDbCircle
 10
96.122284
 20
-67.328964
 30
0.0
 40
90.0
100
AcDbArc
 50
235.542555
 51
244.45748
  0
ARC
  5
FF
100
AcDbEntity
  8
LY_3
  6
CENTER
 62
         7
100
AcDbCircle
 10
96.123062
 20
-67.329414
 30
0.0
 40
90.0
100
AcDbArc
 50
355.542555
 51
4.45748
  0
ARC
  5
100
100
AcDbEntity
  8
LY_3
  6
DASHED
 62
         7
100
AcDbCircle
 10
170.773987
 20
-110.427963
 30
0.0
 40
11.801058
100
AcDbArc
 50
276.388758
 51
326.112822
  0
ARC
  5
101
100
AcDbEntity
  8
LY_3
  6
DASHED
 62
         7
100
AcDbCircle
 10
170.773987
 20
-110.427963
 30
0.0
 40
11.801058
100
AcDbArc
 50
333.887053
 51
23.611271
  0
ARC
  5
102
100
AcDbEntity
  8
LY_3
  6
CENTER
 62
         7
100
AcDbCircle
 10
96.122543
 20
-67.329414
 30
0.0
 40
90.0
100
AcDbArc
 50
295.542555
 51
304.45748
  0
ARC
  5
103
100
AcDbEntity
  8
LY_3
  6
DASHED
 62
         7
100
AcDbCircle
 10
96.122803
 20
18.869919
 30
0.0
 40
11.801058
100
AcDbArc
 50
36.388707
 51
86.112785
  0
ARC
  5
104
100
AcDbEntity
  8
LY_3
  6
DASHED
 62
         7
100
AcDbCircle
 10
96.122803
 20
18.869919
 30
0.0
 40
11.801058
100
AcDbArc
 50
93.887015
 51
143.611284
  0
ARC
  5
105
100
AcDbEntity
  8
LY_3
  6
DASHED
 62
         7
100
AcDbCircle
 10
21.472626
 20
-24.229996
 30
0.0
 40
11.801058
100
AcDbArc
 50
96.388668
 51
146.112773
  0
ARC
  5
106
100
AcDbEntity
  8
LY_3
  6
DASHED
 62
         7
100
AcDbCircle
 10
21.472626
 20
-24.229996
 30
0.0
 40
11.801058
100
AcDbArc
 50
153.887003
 51
203.611272
  0
ARC
  5
107
100
AcDbEntity
  8
LY_3
  6
DASHED
 62
         7
100
AcDbCircle
 10
96.12384
 20
-153.527847
 30
0.0
 40
11.801058
100
AcDbArc
 50
216.388716
 51
266.112821
  0
ARC
  5
108
100
AcDbEntity
  8
LY_3
  6
DASHED
 62
         7
100
AcDbCircle
 10
96.12384
 20
-153.527847
 30
0.0
 40
11.801058
100
AcDbArc
 50
273.887051
 51
323.611272
  0
MTEXT
  5
109
100
AcDbEntity
  8
LY_3
  6
CONTINUOUS
 62
         7
100
AcDbMText
 10
-47.8913039502
 20
68.667357702
 30
0.0
 40
15.0
 41
0.0
 71
         1
 72
         1
  1
\W1.043;\A1;MX70
  0
MTEXT
  5
10A
100
AcDbEntity
  8
LY_3
  6
CONTINUOUS
 62
         7
100
AcDbMText
 10
-68.2430559669
 20
92.6673580596
 30
0.0
 40
13.0
 41
0.0
 71
         1
 72
         1
  1
\W1.042;\A1;CAM CLUTCH
  0
ENDSEC
  0
SECTION
  2
OBJECTS
  0
DICTIONARY
  5
19
100
AcDbDictionary
  3
ACAD_GROUP
350
1A
  3
ACAD_MLINESTYLE
350
1B
  0
DICTIONARY
  5
1A
102
{ACAD_REACTORS
330
19
102
}
100
AcDbDictionary
  0
DICTIONARY
  5
1B
102
{ACAD_REACTORS
330
19
102
}
100
AcDbDictionary
  3
STANDARD
350
1C
  0
MLINESTYLE
  5
1C
102
{ACAD_REACTORS
330
1B
102
}
100
AcDbMlineStyle
  2
Standard
 70
         0
  3

 62
         0
 51
90.0
 52
90.0
 71
         2
 49
0.5
 62
       256
  6
ByLayer
 49
-0.5
 62
       256
  6
ByLayer
  0
ENDSEC
  0
EOF
