  0
SECTION
  2
HEADER
  9
$ACADVER
  1
AC1014
  9
$ACADMAINTVER
 70
         0
  9
$DWGCODEPAGE
  3
ANSI_932
  9
$INSBASE
 10
0.0
 20
0.0
 30
0.0
  9
$EXTMIN
 10
-149.7484177085
 20
-73.619324
 30
0.0
  9
$EXTMAX
 10
104.649994
 20
122.1256910721
 30
0.0
  9
$LIMMIN
 10
-149.7484177085
 20
-73.619324
  9
$LIMMAX
 10
104.649994
 20
122.1256910721
  9
$ORTHOMODE
 70
         0
  9
$REGENMODE
 70
         1
  9
$FILLMODE
 70
         1
  9
$QTEXTMODE
 70
         0
  9
$MIRRTEXT
 70
         1
  9
$DRAGMODE
 70
         2
  9
$LTSCALE
 40
1.0
  9
$OSMODE
 70
         0
  9
$ATTMODE
 70
         1
  9
$TEXTSIZE
 40
3.2000000477
  9
$TRACEWID
 40
0.05
  9
$TEXTSTYLE
  7
MX_NOTE_STANDARD
  9
$CLAYER
  8
LY_3
  9
$CELTYPE
  6
CONTINUOUS
  9
$CECOLOR
 62
       256
  9
$CELTSCALE
 40
1.0
  9
$DELOBJ
 70
         1
  9
$DISPSILH
 70
         0
  9
$DIMSCALE
 40
1.0
  9
$DIMASZ
 40
2.5
  9
$DIMEXO
 40
0.0
  9
$DIMDLI
 40
3.75
  9
$DIMRND
 40
0.0
  9
$DIMDLE
 40
0.0
  9
$DIMEXE
 40
2.5
  9
$DIMTP
 40
0.0
  9
$DIMTM
 40
0.0
  9
$DIMTXT
 40
3.2000000477
  9
$DIMCEN
 40
2.5
  9
$DIMTSZ
 40
0.0
  9
$DIMTOL
 70
         0
  9
$DIMLIM
 70
         0
  9
$DIMTIH
 70
         0
  9
$DIMTOH
 70
         0
  9
$DIMSE1
 70
         0
  9
$DIMSE2
 70
         0
  9
$DIMTAD
 70
         1
  9
$DIMZIN
 70
         8
  9
$DIMBLK
  1

  9
$DIMASO
 70
         1
  9
$DIMSHO
 70
         1
  9
$DIMPOST
  1

  9
$DIMAPOST
  1

  9
$DIMALT
 70
         0
  9
$DIMALTD
 70
         4
  9
$DIMALTF
 40
0.0393700787
  9
$DIMLFAC
 40
1.0
  9
$DIMTOFL
 70
         1
  9
$DIMTVP
 40
0.0
  9
$DIMTIX
 70
         0
  9
$DIMSOXD
 70
         0
  9
$DIMSAH
 70
         1
  9
$DIMBLK1
  1
_OPEN30
  9
$DIMBLK2
  1
_OPEN30
  9
$DIMSTYLE
  2
MXDIMSTYLE
  9
$DIMCLRD
 70
         0
  9
$DIMCLRE
 70
         0
  9
$DIMCLRT
 70
         0
  9
$DIMTFAC
 40
1.0
  9
$DIMGAP
 40
1.0
  9
$DIMJUST
 70
         0
  9
$DIMSD1
 70
         0
  9
$DIMSD2
 70
         0
  9
$DIMTOLJ
 70
         0
  9
$DIMTZIN
 70
         0
  9
$DIMALTZ
 70
         0
  9
$DIMALTTZ
 70
         0
  9
$DIMFIT
 70
         3
  9
$DIMUPT
 70
         0
  9
$DIMUNIT
 70
         2
  9
$DIMDEC
 70
         2
  9
$DIMTDEC
 70
         2
  9
$DIMALTU
 70
         2
  9
$DIMALTTD
 70
         4
  9
$DIMTXSTY
  7
MX_NOTE_STANDARD
  9
$DIMAUNIT
 70
         0
  9
$LUNITS
 70
         2
  9
$LUPREC
 70
         4
  9
$SKETCHINC
 40
0.1
  9
$FILLETRAD
 40
0.0
  9
$AUNITS
 70
         0
  9
$AUPREC
 70
         0
  9
$MENU
  1
acad
  9
$ELEVATION
 40
0.0
  9
$PELEVATION
 40
0.0
  9
$THICKNESS
 40
0.0
  9
$LIMCHECK
 70
         0
  9
$BLIPMODE
 70
         1
  9
$CHAMFERA
 40
0.0
  9
$CHAMFERB
 40
0.0
  9
$CHAMFERC
 40
0.0
  9
$CHAMFERD
 40
0.0
  9
$SKPOLY
 70
         0
  9
$TDCREATE
 40
2456603.419502315
  9
$TDUPDATE
 40
2456603.419502315
  9
$TDINDWG
 40
0.0000000000
  9
$TDUSRTIMER
 40
0.0000000000
  9
$USRTIMER
 70
         1
  9
$ANGBASE
 50
0.0
  9
$ANGDIR
 70
         0
  9
$PDMODE
 70
         0
  9
$PDSIZE
 40
0.0
  9
$PLINEWID
 40
0.0
  9
$COORDS
 70
         1
  9
$SPLFRAME
 70
         0
  9
$SPLINETYPE
 70
         6
  9
$SPLINESEGS
 70
         8
  9
$ATTDIA
 70
         0
  9
$ATTREQ
 70
         1
  9
$HANDLING
 70
         1
  9
$HANDSEED
  5
106
  9
$SURFTAB1
 70
         6
  9
$SURFTAB2
 70
         6
  9
$SURFTYPE
 70
         6
  9
$SURFU
 70
         6
  9
$SURFV
 70
         6
  9
$UCSNAME
  2

  9
$UCSORG
 10
0.0
 20
0.0
 30
0.0
  9
$UCSXDIR
 10
1.0
 20
0.0
 30
0.0
  9
$UCSYDIR
 10
0.0
 20
1.0
 30
0.0
  9
$PUCSNAME
  2

  9
$PUCSORG
 10
0.0
 20
0.0
 30
0.0
  9
$PUCSXDIR
 10
1.0
 20
0.0
 30
0.0
  9
$PUCSYDIR
 10
0.0
 20
1.0
 30
0.0
  9
$USERI1
 70
         0
  9
$USERI2
 70
         0
  9
$USERI3
 70
         0
  9
$USERI4
 70
         0
  9
$USERI5
 70
         0
  9
$USERR1
 40
0.0
  9
$USERR2
 40
0.0
  9
$USERR3
 40
0.0
  9
$USERR4
 40
0.0
  9
$USERR5
 40
0.0
  9
$WORLDVIEW
 70
         1
  9
$SHADEDGE
 70
         3
  9
$SHADEDIF
 70
        70
  9
$TILEMODE
 70
         1
  9
$MAXACTVP
 70
        16
  9
$PINSBASE
 10
0.0
 20
0.0
 30
0.0
  9
$PLIMCHECK
 70
         0
  9
$PEXTMIN
 10
1.0000000000E+20
 20
1.0000000000E+20
 30
1.0000000000E+20
  9
$PEXTMAX
 10
-1.0000000000E+20
 20
-1.0000000000E+20
 30
-1.0000000000E+20
  9
$PLIMMIN
 10
0.0
 20
0.0
  9
$PLIMMAX
 10
12.0
 20
9.0
  9
$UNITMODE
 70
         0
  9
$VISRETAIN
 70
         0
  9
$PLINEGEN
 70
         1
  9
$PSLTSCALE
 70
         0
  9
$TREEDEPTH
 70
      3020
  9
$PICKSTYLE
 70
         1
  9
$CMLSTYLE
  2
Standard
  9
$CMLJUST
 70
         0
  9
$CMLSCALE
 40
1.0
  9
$PROXYGRAPHICS
 70
         0
  9
$MEASUREMENT
 70
         1
  0
ENDSEC
  0
SECTION
  2
CLASSES
  0
CLASS
  1
LWPOLYLINE
  2
AcDbPolyline
  3
"AutoCAD"
 90
        0
280
         0
281
         1
  0
CLASS
  1
IMAGE
  2
AcDbRasterImage
  3
ISM
 90
      127
280
         0
281
         1
  0
CLASS
  1
OLE2FRAME
  2
AcDbOle2Frame
  3
""
 90
        0
280
         0
281
         1
  0
CLASS
  1
HATCH
  2
AcDbHatch
  3
"ACAD_SEDONA"
 90
        0
280
         0
281
         1
  0
CLASS
  1
DICTIONARYVAR
  2
AcDbDictionaryVar
  3
"AutoCAD"
 90
        0
280
         0
281
         0
  0
CLASS
  1
RASTERVARIABLES
  2
AcDbRasterVariables
  3
ISM
 90
        0
280
         0
281
         0
  0
CLASS
  1
IMAGEDEF
  2
AcDbRasterImageDef
  3
ISM
 90
        0
280
         0
281
         0
  0
CLASS
  1
IMAGEDEF_REACTOR
  2
AcDbRasterImageDefReactor
  3
ISM
 90
        1
280
         0
281
         0
  0
CLASS
  1
IDBUFFER
  2
AcDbIdBuffer
  3
"Acad"
 90
        0
280
         0
281
         0
  0
CLASS
  1
SPATIAL_FILTER
  2
AcDbSpatialFilter
  3
"Acad"
 90
        0
280
         0
281
         0
  0
CLASS
  1
XRECORD
  2
AcDbXrecord
  3
"<Built In>"
 90
        0
280
         0
281
         0
  0
CLASS
  1
SORTENTSTABLE
  2
AcDbSortentsTable
  3
"AutoCAD"
 90
        0
280
         0
281
         0
  0
CLASS
  1
LAYER_INDEX
  2
AcDbLayerIndex
  3
"Acad"
 90
        0
280
         0
281
         0
  0
CLASS
  1
SPATIAL_INDEX
  2
AcDbSpatialIndex
  3
"Acad"
 90
        0
280
         0
281
         0
  0
CLASS
  1
OBJECT_PTR
  2
CAseDLPNTableRecord
  3
"ASE-LPNTableRecord"
 90
        1
280
         0
281
         0
  0
CLASS
  1
LAYOUT
  2
AcDbLayout
  3
"AutoCAD 2000"
 90
        0
280
         0
281
         0
  0
CLASS
  1
PLOTSETTINGS
  2
AcDbPlotSettings
  3
"AutoCAD 2000"
 90
        0
280
         0
281
         0
  0
CLASS
  1
ACDBDICTIONARYWDFLT
  2
AcDbDictionaryWithDefault
  3
"AutoCAD 2000"
 90
        0
280
         0
281
         0
  0
CLASS
  1
ACDBPLACEHOLDER
  2
AcDbPlaceHolder
  3
"AutoCAD 2000"
 90
        0
280
         0
281
         0
  0
ENDSEC
  0
SECTION
  2
TABLES
  0
TABLE
  2
VPORT
  5
7
100
AcDbSymbolTable
 70
         1
  0
VPORT
  5
15
100
AcDbSymbolTableRecord
100
AcDbViewportTableRecord
  2
*ACTIVE
 70
         0
 10
0.0
 20
0.0
 11
1.0
 21
1.0
 12
-22.5492118542
 22
24.253183536
 13
0.0
 23
0.0
 14
1.0
 24
1.0
 15
0.0
 25
0.0
 16
0.0
 26
0.0
 36
1.0
 17
0.0
 27
0.0
 37
0.0
 40
197.7024652228
 41
1.7320508076
 42
50.0
 43
0.0
 44
0.0
 50
0.0
 51
0.0
 71
         0
 72
       100
 73
         1
 74
         1
 75
         0
 76
         0
 77
         0
 78
         0
  0
ENDTAB
  0
TABLE
  2
LTYPE
  5
4
100
AcDbSymbolTable
 70
         5
  0
LTYPE
  5
11
100
AcDbSymbolTableRecord
100
AcDbLinetypeTableRecord
  2
BYBLOCK
 70
        64
  3

 72
        65
 73
         0
 40
0.0
  0
LTYPE
  5
12
100
AcDbSymbolTableRecord
100
AcDbLinetypeTableRecord
  2
BYLAYER
 70
        64
  3

 72
        65
 73
         0
 40
0.0
  0
LTYPE
  5
13
100
AcDbSymbolTableRecord
100
AcDbLinetypeTableRecord
  2
CONTINUOUS
 70
        64
  3
Solid line
 72
        65
 73
         0
 40
0.0
  0
LTYPE
  5
4C
100
AcDbSymbolTableRecord
100
AcDbLinetypeTableRecord
  2
CENTER
 70
        64
  3
Center ____ _ ____ _ ____ _ ____ _ ____ _ ____
 72
        65
 73
         4
 40
50.8
 49
31.75
 74
         0
 49
-6.35
 74
         0
 49
6.35
 74
         0
 49
-6.35
 74
         0
  0
LTYPE
  5
B9
100
AcDbSymbolTableRecord
100
AcDbLinetypeTableRecord
  2
DASHED
 70
        64
  3
Dashed __ __ __ __ __ __ __ __ __ __ __ __ __ _
 72
        65
 73
         2
 40
19.05
 49
12.7
 74
         0
 49
-6.35
 74
         0
  0
ENDTAB
  0
TABLE
  2
LAYER
  5
2
100
AcDbSymbolTable
 70
         3
  0
LAYER
  5
14
100
AcDbSymbolTableRecord
100
AcDbLayerTableRecord
  2
0
 70
         0
 62
         7
  6
CONTINUOUS
  0
LAYER
  5
1D
100
AcDbSymbolTableRecord
100
AcDbLayerTableRecord
  2
DEFPOINTS
 70
         0
 62
         7
  6
CONTINUOUS
  0
LAYER
  5
1E
100
AcDbSymbolTableRecord
100
AcDbLayerTableRecord
  2
LY_3
 70
         0
 62
         7
  6
CONTINUOUS
  0
ENDTAB
  0
TABLE
  2
STYLE
  5
3
100
AcDbSymbolTable
 70
         1
  0
STYLE
  5
17
100
AcDbSymbolTableRecord
100
AcDbTextStyleTableRecord
  2
MX_NOTE_STANDARD
 70
         0
 40
0.0
 41
1.0
 50
0.0
 71
         0
 42
3.2000000477
  3
txt.shx
  4
extfont.shx
  0
ENDTAB
  0
TABLE
  2
VIEW
  5
5
100
AcDbSymbolTable
 70
         0
  0
ENDTAB
  0
TABLE
  2
UCS
  5
6
100
AcDbSymbolTable
 70
         0
  0
ENDTAB
  0
TABLE
  2
APPID
  5
8
100
AcDbSymbolTable
 70
         1
  0
APPID
  5
16
100
AcDbSymbolTableRecord
100
AcDbRegAppTableRecord
  2
ACAD
 70
         0
  0
ENDTAB
  0
TABLE
  2
DIMSTYLE
  5
9
100
AcDbSymbolTable
 70
         1
  0
DIMSTYLE
105
18
100
AcDbSymbolTableRecord
100
AcDbDimStyleTableRecord
  2
MXDIMSTYLE
 70
         0
  3

  4

  5

  6
_OPEN30
  7
_OPEN30
 40
1.0
 41
2.5
 42
0.0
 43
3.75
 44
2.5
 45
0.0
 46
0.0
 47
0.0
 48
0.0
 71
         0
 72
         0
 73
         0
 74
         0
 75
         0
 76
         0
 77
         1
 78
         8
140
3.2000000477
141
2.5
142
0.0
143
0.0393700787
144
1.0
145
0.0
146
1.0
147
1.0
170
         0
171
         4
172
         1
173
         1
174
         0
175
         0
176
         0
177
         0
178
         0
270
         2
271
         2
272
         2
273
         2
274
         4
275
         0
280
         0
281
         0
282
         0
283
         0
284
         0
285
         0
286
         0
287
         3
288
         0
340
17
  0
ENDTAB
  0
TABLE
  2
BLOCK_RECORD
  5
1
100
AcDbSymbolTable
 70
         1
  0
BLOCK_RECORD
  5
A
100
AcDbSymbolTableRecord
100
AcDbBlockTableRecord
  2
*MODEL_SPACE
  0
BLOCK_RECORD
  5
B
100
AcDbSymbolTableRecord
100
AcDbBlockTableRecord
  2
*PAPER_SPACE
  0
BLOCK_RECORD
  5
1F
100
AcDbSymbolTableRecord
100
AcDbBlockTableRecord
  2
_OPEN30
  0
ENDTAB
  0
ENDSEC
  0
SECTION
  2
BLOCKS
  0
BLOCK
  5
D
100
AcDbEntity
  8
0
100
AcDbBlockBegin
  2
*MODEL_SPACE
 70
         0
 10
0.0
 20
0.0
 30
0.0
  3
*MODEL_SPACE
  1

  0
ENDBLK
  5
E
100
AcDbEntity
  8
0
100
AcDbBlockEnd
  0
BLOCK
  5
F
100
AcDbEntity
 67
         1
  8
0
100
AcDbBlockBegin
  2
*PAPER_SPACE
 70
         0
 10
0.0
 20
0.0
 30
0.0
  3
*PAPER_SPACE
  1

  0
ENDBLK
  5
10
100
AcDbEntity
 67
         1
  8
0
100
AcDbBlockEnd
  0
BLOCK
  5
20
100
AcDbEntity
  8
0
  6
ByBlock
 62
         0
100
AcDbBlockBegin
  2
_OPEN30
 70
         2
 10
0.0
 20
0.0
 30
0.0
  3
_OPEN30
  1

  0
LINE
  5
21
100
AcDbEntity
  8
0
  6
ByBlock
 62
         0
100
AcDbLine
 10
-1.0
 20
0.267949
 30
0.0
 11
0.0
 21
0.0
 31
0.0
  0
LINE
  5
22
100
AcDbEntity
  8
0
  6
ByBlock
 62
         0
100
AcDbLine
 10
0.0
 20
0.0
 30
0.0
 11
-1.0
 21
-0.267949
 31
0.0
  0
LINE
  5
23
100
AcDbEntity
  8
0
  6
ByBlock
 62
         0
100
AcDbLine
 10
0.0
 20
0.0
 30
0.0
 11
-1.0
 21
0.0
 31
0.0
  0
ENDBLK
  5
24
100
AcDbEntity
  8
0
  6
ByBlock
 62
         0
100
AcDbBlockEnd
  0
ENDSEC
  0
SECTION
  2
ENTITIES
  0
MTEXT
  5
25
100
AcDbEntity
  8
LY_3
  6
CONTINUOUS
 62
       110
100
AcDbMText
 10
-147.446440963
 20
117.7423578659
 30
0.0
 40
13.1499996185
 41
0.0
 71
         1
 72
         1
  1
\W1.050;\A1;TSUBAKI
  0
POINT
  5
26
100
AcDbEntity
  8
LY_3
  6
CONTINUOUS
 62
        20
100
AcDbPoint
 10
-18.479218
 20
-26.119263
 30
0.0
  0
POINT
  5
27
100
AcDbEntity
  8
LY_3
  6
CONTINUOUS
 62
        20
100
AcDbPoint
 10
57.149994
 20
-26.119324
 30
0.0
  0
POINT
  5
28
100
AcDbEntity
  8
LY_3
  6
CONTINUOUS
 62
        20
100
AcDbPoint
 10
-98.479187
 20
-26.119263
 30
0.0
  0
LINE
  5
29
100
AcDbEntity
  8
LY_3
  6
CONTINUOUS
 62
       251
100
AcDbLine
 10
-47.829208
 20
4.880737
 30
0.0
 11
-47.829208
 21
-8.619263
 31
0.0
  0
LINE
  5
2A
100
AcDbEntity
  8
LY_3
  6
CONTINUOUS
 62
       251
100
AcDbLine
 10
-47.829208
 20
-8.619263
 30
0.0
 11
-18.479218
 21
-8.619263
 31
0.0
  0
LINE
  5
2B
100
AcDbEntity
  8
LY_3
  6
CONTINUOUS
 62
       251
100
AcDbLine
 10
-18.479218
 20
-8.619263
 30
0.0
 11
-18.479218
 21
-15.119263
 31
0.0
  0
LINE
  5
2C
100
AcDbEntity
  8
LY_3
  6
CONTINUOUS
 62
       251
100
AcDbLine
 10
-18.479218
 20
-43.619263
 30
0.0
 11
-47.829178
 21
-43.619263
 31
0.0
  0
LINE
  5
2D
100
AcDbEntity
  8
LY_3
  6
CONTINUOUS
 62
       251
100
AcDbLine
 10
-69.129181
 20
-43.619263
 30
0.0
 11
-98.479187
 21
-43.619263
 31
0.0
  0
LINE
  5
2E
100
AcDbEntity
  8
LY_3
  6
CONTINUOUS
 62
       251
100
AcDbLine
 10
-98.479187
 20
-43.619263
 30
0.0
 11
-98.479187
 21
-37.119263
 31
0.0
  0
LINE
  5
2F
100
AcDbEntity
  8
LY_3
  6
CONTINUOUS
 62
       251
100
AcDbLine
 10
-98.479187
 20
-8.619263
 30
0.0
 11
-69.129181
 21
-8.619263
 31
0.0
  0
LINE
  5
30
100
AcDbEntity
  8
LY_3
  6
CONTINUOUS
 62
       251
100
AcDbLine
 10
-69.129181
 20
-5.803284
 30
0.0
 11
-47.829178
 21
-5.803284
 31
0.0
  0
LINE
  5
31
100
AcDbEntity
  8
LY_3
  6
CONTINUOUS
 62
       251
100
AcDbLine
 10
-98.479187
 20
-12.319275
 30
0.0
 11
-18.479248
 21
-12.319275
 31
0.0
  0
LINE
  5
32
100
AcDbEntity
  8
LY_3
  6
CONTINUOUS
 62
       251
100
AcDbLine
 10
-18.479218
 20
-37.119263
 30
0.0
 11
-98.479187
 21
-37.119263
 31
0.0
  0
LINE
  5
33
100
AcDbEntity
  8
LY_3
  6
CONTINUOUS
 62
       251
100
AcDbLine
 10
-96.979187
 20
21.380737
 30
0.0
 11
-19.979187
 21
21.380737
 31
0.0
  0
LINE
  5
34
100
AcDbEntity
  8
LY_3
  6
CONTINUOUS
 62
       251
100
AcDbLine
 10
-19.979187
 20
21.380737
 30
0.0
 11
-19.979187
 21
-8.619263
 31
0.0
  0
LINE
  5
35
100
AcDbEntity
  8
LY_3
  6
CONTINUOUS
 62
       251
100
AcDbLine
 10
-19.979187
 20
-73.619263
 30
0.0
 11
-96.979187
 21
-73.619263
 31
0.0
  0
LINE
  5
36
100
AcDbEntity
  8
LY_3
  6
CONTINUOUS
 62
       251
100
AcDbLine
 10
-96.979187
 20
-73.619263
 30
0.0
 11
-96.979187
 21
-43.619263
 31
0.0
  0
LINE
  5
37
100
AcDbEntity
  8
LY_3
  6
CONTINUOUS
 62
       251
100
AcDbLine
 10
-96.979187
 20
4.880737
 30
0.0
 11
-84.379181
 21
4.880737
 31
0.0
  0
LINE
  5
38
100
AcDbEntity
  8
LY_3
  6
CONTINUOUS
 62
       251
100
AcDbLine
 10
-83.139175
 20
4.880737
 30
0.0
 11
-69.129181
 21
4.880737
 31
0.0
  0
LINE
  5
39
100
AcDbEntity
  8
LY_3
  6
CONTINUOUS
 62
       251
100
AcDbLine
 10
-32.579193
 20
4.880737
 30
0.0
 11
-19.979187
 21
4.880737
 31
0.0
  0
LINE
  5
3A
100
AcDbEntity
  8
LY_3
  6
CONTINUOUS
 62
       251
100
AcDbLine
 10
-19.979187
 20
-57.119263
 30
0.0
 11
-32.579193
 21
-57.119263
 31
0.0
  0
LINE
  5
3B
100
AcDbEntity
  8
LY_3
  6
CONTINUOUS
 62
       251
100
AcDbLine
 10
-33.819183
 20
-57.119263
 30
0.0
 11
-47.829178
 21
-57.119263
 31
0.0
  0
LINE
  5
3C
100
AcDbEntity
  8
LY_3
  6
CONTINUOUS
 62
       251
100
AcDbLine
 10
-84.379181
 20
5.930725
 30
0.0
 11
-83.139175
 21
5.930725
 31
0.0
  0
LINE
  5
3D
100
AcDbEntity
  8
LY_3
  6
CONTINUOUS
 62
       251
100
AcDbLine
 10
-33.819183
 20
5.930725
 30
0.0
 11
-32.579193
 21
5.930725
 31
0.0
  0
LINE
  5
3E
100
AcDbEntity
  8
LY_3
  6
CONTINUOUS
 62
       251
100
AcDbLine
 10
-32.579193
 20
-58.16925
 30
0.0
 11
-33.819183
 21
-58.16925
 31
0.0
  0
LINE
  5
3F
100
AcDbEntity
  8
LY_3
  6
CONTINUOUS
 62
       251
100
AcDbLine
 10
-83.139175
 20
-58.16925
 30
0.0
 11
-84.379181
 21
-58.16925
 31
0.0
  0
LINE
  5
40
100
AcDbEntity
  8
LY_3
  6
CONTINUOUS
 62
       251
100
AcDbLine
 10
-84.379181
 20
5.930725
 30
0.0
 11
-84.379181
 21
-8.619263
 31
0.0
  0
LINE
  5
41
100
AcDbEntity
  8
LY_3
  6
CONTINUOUS
 62
       251
100
AcDbLine
 10
-32.579193
 20
5.930725
 30
0.0
 11
-32.579193
 21
-8.619263
 31
0.0
  0
LINE
  5
42
100
AcDbEntity
  8
LY_3
  6
CONTINUOUS
 62
       251
100
AcDbLine
 10
-96.979187
 20
-8.619263
 30
0.0
 11
-96.979187
 21
21.380737
 31
0.0
  0
LINE
  5
43
100
AcDbEntity
  8
LY_3
  6
CONTINUOUS
 62
       251
100
AcDbLine
 10
-84.379181
 20
-43.619263
 30
0.0
 11
-84.379181
 21
-58.169235
 31
0.0
  0
LINE
  5
44
100
AcDbEntity
  8
LY_3
  6
CONTINUOUS
 62
       251
100
AcDbLine
 10
-69.129181
 20
-46.36525
 30
0.0
 11
-47.829178
 21
-46.36525
 31
0.0
  0
LINE
  5
45
100
AcDbEntity
  8
LY_3
  6
CONTINUOUS
 62
       251
100
AcDbLine
 10
-32.579193
 20
-43.619263
 30
0.0
 11
-32.579193
 21
-58.169235
 31
0.0
  0
LINE
  5
46
100
AcDbEntity
  8
LY_3
  6
CONTINUOUS
 62
       251
100
AcDbLine
 10
-19.979187
 20
-43.619263
 30
0.0
 11
-19.979187
 21
-73.619263
 31
0.0
  0
LINE
  5
47
100
AcDbEntity
  8
LY_3
  6
CONTINUOUS
 62
       251
100
AcDbLine
 10
-90.729187
 20
14.380737
 30
0.0
 11
-79.229187
 21
14.380737
 31
0.0
  0
LINE
  5
48
100
AcDbEntity
  8
LY_3
  6
CONTINUOUS
 62
       251
100
AcDbLine
 10
-90.729187
 20
21.380737
 30
0.0
 11
-90.729187
 21
14.380737
 31
0.0
  0
LINE
  5
49
100
AcDbEntity
  8
LY_3
  6
CONTINUOUS
 62
       251
100
AcDbLine
 10
-79.229187
 20
21.380737
 30
0.0
 11
-79.229187
 21
14.380737
 31
0.0
  0
LINE
  5
4A
100
AcDbEntity
  8
LY_3
  6
CONTINUOUS
 62
       251
100
AcDbLine
 10
-98.479187
 20
-15.119263
 30
0.0
 11
-98.479187
 21
-8.619263
 31
0.0
  0
LINE
  5
4B
100
AcDbEntity
  8
LY_3
  6
CONTINUOUS
 62
       251
100
AcDbLine
 10
-18.479218
 20
-37.119263
 30
0.0
 11
-18.479218
 21
-43.619263
 31
0.0
  0
LINE
  5
4D
100
AcDbEntity
  8
LY_3
  6
CENTER
 62
         7
100
AcDbLine
 10
-84.979187
 20
22.602371
 30
0.0
 11
-84.979187
 21
3.458801
 31
0.0
  0
LINE
  5
4E
100
AcDbEntity
  8
LY_3
  6
CONTINUOUS
 62
       251
100
AcDbLine
 10
-85.579178
 20
19.947571
 30
0.0
 11
-85.579178
 21
17.580719
 31
0.0
  0
LINE
  5
4F
100
AcDbEntity
  8
LY_3
  6
CONTINUOUS
 62
       251
100
AcDbLine
 10
-84.379181
 20
19.947556
 30
0.0
 11
-84.379181
 21
17.580719
 31
0.0
  0
LINE
  5
50
100
AcDbEntity
  8
LY_3
  6
CONTINUOUS
 62
       251
100
AcDbLine
 10
-85.579178
 20
17.580719
 30
0.0
 11
-84.379181
 21
17.580719
 31
0.0
  0
LINE
  5
51
100
AcDbEntity
  8
LY_3
  6
CONTINUOUS
 62
       251
100
AcDbLine
 10
-87.979187
 20
14.380737
 30
0.0
 11
-87.979187
 21
4.880737
 31
0.0
  0
LINE
  5
52
100
AcDbEntity
  8
LY_3
  6
CONTINUOUS
 62
         7
100
AcDbLine
 10
-87.434174
 20
14.380737
 30
0.0
 11
-87.434174
 21
4.880737
 31
0.0
  0
LINE
  5
53
100
AcDbEntity
  8
LY_3
  6
CONTINUOUS
 62
       251
100
AcDbLine
 10
-81.979187
 20
11.580719
 30
0.0
 11
-81.979187
 21
14.380737
 31
0.0
  0
LINE
  5
54
100
AcDbEntity
  8
LY_3
  6
CONTINUOUS
 62
       251
100
AcDbLine
 10
-81.979187
 20
4.880737
 30
0.0
 11
-81.979187
 21
14.380737
 31
0.0
  0
LINE
  5
55
100
AcDbEntity
  8
LY_3
  6
CONTINUOUS
 62
         7
100
AcDbLine
 10
-82.5242
 20
4.880737
 30
0.0
 11
-82.5242
 21
14.380737
 31
0.0
  0
LINE
  5
56
100
AcDbEntity
  8
LY_3
  6
CONTINUOUS
 62
       251
100
AcDbLine
 10
-47.829178
 20
-43.619263
 30
0.0
 11
-47.829178
 21
-57.119263
 31
0.0
  0
LINE
  5
57
100
AcDbEntity
  8
LY_3
  6
CONTINUOUS
 62
       251
100
AcDbLine
 10
-69.129181
 20
-43.619278
 30
0.0
 11
-69.129181
 21
-57.119263
 31
0.0
  0
LINE
  5
58
100
AcDbEntity
  8
LY_3
  6
CONTINUOUS
 62
       251
100
AcDbLine
 10
-47.829208
 20
4.880737
 30
0.0
 11
-33.819183
 21
4.880737
 31
0.0
  0
LINE
  5
59
100
AcDbEntity
  8
LY_3
  6
CONTINUOUS
 62
       251
100
AcDbLine
 10
-83.139175
 20
5.930725
 30
0.0
 11
-83.139175
 21
-8.619263
 31
0.0
  0
LINE
  5
5A
100
AcDbEntity
  8
LY_3
  6
CONTINUOUS
 62
       251
100
AcDbLine
 10
-33.819183
 20
5.930725
 30
0.0
 11
-33.819183
 21
-8.619263
 31
0.0
  0
LINE
  5
5B
100
AcDbEntity
  8
LY_3
  6
CONTINUOUS
 62
       251
100
AcDbLine
 10
-83.139175
 20
-43.619263
 30
0.0
 11
-83.139175
 21
-58.16925
 31
0.0
  0
LINE
  5
5C
100
AcDbEntity
  8
LY_3
  6
CONTINUOUS
 62
       251
100
AcDbLine
 10
-33.819183
 20
-43.619263
 30
0.0
 11
-33.819183
 21
-58.16925
 31
0.0
  0
LINE
  5
5D
100
AcDbEntity
  8
LY_3
  6
CONTINUOUS
 62
       251
100
AcDbLine
 10
-84.379181
 20
-54.409251
 30
0.0
 11
-83.139175
 21
-54.409251
 31
0.0
  0
LINE
  5
5E
100
AcDbEntity
  8
LY_3
  6
CONTINUOUS
 62
       251
100
AcDbLine
 10
-84.379181
 20
2.170715
 30
0.0
 11
-83.139175
 21
2.170715
 31
0.0
  0
LINE
  5
5F
100
AcDbEntity
  8
LY_3
  6
CONTINUOUS
 62
       251
100
AcDbLine
 10
-33.819183
 20
-54.409251
 30
0.0
 11
-32.579193
 21
-54.409251
 31
0.0
  0
LINE
  5
60
100
AcDbEntity
  8
LY_3
  6
CONTINUOUS
 62
       251
100
AcDbLine
 10
-33.819183
 20
2.170715
 30
0.0
 11
-32.579193
 21
2.170715
 31
0.0
  0
LINE
  5
61
100
AcDbEntity
  8
LY_3
  6
CONTINUOUS
 62
         7
100
AcDbLine
 10
-96.979187
 20
-62.119263
 30
0.0
 11
-80.979187
 21
-62.119263
 31
0.0
  0
LINE
  5
62
100
AcDbEntity
  8
LY_3
  6
CONTINUOUS
 62
         7
100
AcDbLine
 10
-96.979187
 20
-70.119263
 30
0.0
 11
-80.979187
 21
-70.119263
 31
0.0
  0
LINE
  5
63
100
AcDbEntity
  8
LY_3
  6
CONTINUOUS
 62
       251
100
AcDbLine
 10
-80.979187
 20
-62.119263
 30
0.0
 11
-80.979187
 21
-70.119263
 31
0.0
  0
LINE
  5
64
100
AcDbEntity
  8
LY_3
  6
CONTINUOUS
 62
       251
100
AcDbLine
 10
-74.679199
 20
-62.669263
 30
0.0
 11
-74.679199
 21
-69.569263
 31
0.0
  0
LINE
  5
65
100
AcDbEntity
  8
LY_3
  6
CONTINUOUS
 62
       251
100
AcDbLine
 10
-96.979187
 20
-62.669263
 30
0.0
 11
-74.679199
 21
-62.669263
 31
0.0
  0
LINE
  5
66
100
AcDbEntity
  8
LY_3
  6
CONTINUOUS
 62
       251
100
AcDbLine
 10
-96.979187
 20
-69.569263
 30
0.0
 11
-74.679199
 21
-69.569263
 31
0.0
  0
LINE
  5
67
100
AcDbEntity
  8
LY_3
  6
CONTINUOUS
 62
       251
100
AcDbLine
 10
-72.606219
 20
-66.119264
 30
0.0
 11
-74.679189
 21
-62.669262
 31
0.0
  0
LINE
  5
68
100
AcDbEntity
  8
LY_3
  6
CONTINUOUS
 62
       251
100
AcDbLine
 10
-74.679195
 20
-69.569253
 30
0.0
 11
-72.606225
 21
-66.119252
 31
0.0
  0
LINE
  5
69
100
AcDbEntity
  8
LY_3
  6
CONTINUOUS
 62
       251
100
AcDbLine
 10
-69.129181
 20
-4.319275
 30
0.0
 11
-73.00718
 21
-4.319275
 31
0.0
  0
LINE
  5
6A
100
AcDbEntity
  8
LY_3
  6
CONTINUOUS
 62
       251
100
AcDbLine
 10
-69.129181
 20
-47.919266
 30
0.0
 11
-73.00718
 21
-47.919266
 31
0.0
  0
LINE
  5
6B
100
AcDbEntity
  8
LY_3
  6
CONTINUOUS
 62
       251
100
AcDbLine
 10
-79.251181
 20
-47.919266
 30
0.0
 11
-83.139175
 21
-47.919266
 31
0.0
  0
LINE
  5
6C
100
AcDbEntity
  8
LY_3
  6
CONTINUOUS
 62
       251
100
AcDbLine
 10
-79.251181
 20
-52.819275
 30
0.0
 11
-83.139175
 21
-52.819275
 31
0.0
  0
LINE
  5
6D
100
AcDbEntity
  8
LY_3
  6
CONTINUOUS
 62
       251
100
AcDbLine
 10
-69.129181
 20
-52.819275
 30
0.0
 11
-73.00718
 21
-52.819275
 31
0.0
  0
LINE
  5
6E
100
AcDbEntity
  8
LY_3
  6
CONTINUOUS
 62
       251
100
AcDbLine
 10
-37.707178
 20
-52.819275
 30
0.0
 11
-33.819183
 21
-52.819275
 31
0.0
  0
LINE
  5
6F
100
AcDbEntity
  8
LY_3
  6
CONTINUOUS
 62
       251
100
AcDbLine
 10
-37.707178
 20
-47.919281
 30
0.0
 11
-33.819183
 21
-47.919281
 31
0.0
  0
LINE
  5
70
100
AcDbEntity
  8
LY_3
  6
CONTINUOUS
 62
       251
100
AcDbLine
 10
-47.829178
 20
-52.819275
 30
0.0
 11
-43.951179
 21
-52.819275
 31
0.0
  0
LINE
  5
71
100
AcDbEntity
  8
LY_3
  6
CONTINUOUS
 62
       251
100
AcDbLine
 10
-47.829178
 20
-47.919281
 30
0.0
 11
-43.951179
 21
-47.919281
 31
0.0
  0
LINE
  5
72
100
AcDbEntity
  8
LY_3
  6
CONTINUOUS
 62
       251
100
AcDbLine
 10
-47.829208
 20
-4.31929
 30
0.0
 11
-43.951179
 21
-4.31929
 31
0.0
  0
LINE
  5
73
100
AcDbEntity
  8
LY_3
  6
CONTINUOUS
 62
       251
100
AcDbLine
 10
-37.707178
 20
-4.31929
 30
0.0
 11
-33.819183
 21
-4.31929
 31
0.0
  0
LINE
  5
74
100
AcDbEntity
  8
LY_3
  6
CONTINUOUS
 62
       251
100
AcDbLine
 10
-69.129181
 20
-54.694266
 30
0.0
 11
-47.829178
 21
-54.694266
 31
0.0
  0
LINE
  5
75
100
AcDbEntity
  8
LY_3
  6
CONTINUOUS
 62
       251
100
AcDbLine
 10
-47.829178
 20
2.455734
 30
0.0
 11
-69.129181
 21
2.455734
 31
0.0
  0
LINE
  5
76
100
AcDbEntity
  8
LY_3
  6
CONTINUOUS
 62
       251
100
AcDbLine
 10
-83.139175
 20
-57.119263
 30
0.0
 11
-69.129181
 21
-57.119263
 31
0.0
  0
LINE
  5
77
100
AcDbEntity
  8
LY_3
  6
CONTINUOUS
 62
       251
100
AcDbLine
 10
-89.654184
 20
-55.094254
 30
0.0
 11
-94.204181
 21
-55.094254
 31
0.0
  0
LINE
  5
78
100
AcDbEntity
  8
LY_3
  6
CONTINUOUS
 62
       251
100
AcDbLine
 10
-88.679184
 20
4.880737
 30
0.0
 11
-88.679184
 21
-8.619263
 31
0.0
  0
LINE
  5
79
100
AcDbEntity
  8
LY_3
  6
CONTINUOUS
 62
       251
100
AcDbLine
 10
-94.204172
 20
-47.939262
 30
0.0
 11
-90.921674
 21
-43.619274
 31
0.0
  0
LINE
  5
7A
100
AcDbEntity
  8
LY_3
  6
CONTINUOUS
 62
       251
100
AcDbLine
 10
-90.921687
 20
-43.619266
 30
0.0
 11
-89.849207
 21
-45.644224
 31
0.0
  0
LINE
  5
7B
100
AcDbEntity
  8
LY_3
  6
CONTINUOUS
 62
       251
100
AcDbLine
 10
-94.204184
 20
-55.094254
 30
0.0
 11
-94.204184
 21
-47.939255
 31
0.0
  0
LINE
  5
7C
100
AcDbEntity
  8
LY_3
  6
CONTINUOUS
 62
       251
100
AcDbLine
 10
-96.979187
 20
-57.119263
 30
0.0
 11
-84.379181
 21
-57.119263
 31
0.0
  0
LINE
  5
7D
100
AcDbEntity
  8
LY_3
  6
CONTINUOUS
 62
       251
100
AcDbLine
 10
-90.921687
 20
-8.619259
 30
0.0
 11
-89.849207
 21
-6.594302
 31
0.0
  0
LINE
  5
7E
100
AcDbEntity
  8
LY_3
  6
CONTINUOUS
 62
       251
100
AcDbLine
 10
-94.204184
 20
2.855728
 30
0.0
 11
-94.204184
 21
-4.299271
 31
0.0
  0
LINE
  5
7F
100
AcDbEntity
  8
LY_3
  6
CONTINUOUS
 62
       251
100
AcDbLine
 10
-94.204172
 20
-4.299263
 30
0.0
 11
-90.921674
 21
-8.619252
 31
0.0
  0
LINE
  5
80
100
AcDbEntity
  8
LY_3
  6
CONTINUOUS
 62
       251
100
AcDbLine
 10
-89.654184
 20
2.855728
 30
0.0
 11
-94.204181
 21
2.855728
 31
0.0
  0
LINE
  5
81
100
AcDbEntity
  8
LY_3
  6
CONTINUOUS
 62
       251
100
AcDbLine
 10
-95.179184
 20
-6.88031
 30
0.0
 11
-95.179184
 21
4.880737
 31
0.0
  0
LINE
  5
82
100
AcDbEntity
  8
LY_3
  6
CONTINUOUS
 62
       251
100
AcDbLine
 10
-26.036687
 20
-43.619266
 30
0.0
 11
-27.109167
 21
-45.644224
 31
0.0
  0
LINE
  5
83
100
AcDbEntity
  8
LY_3
  6
CONTINUOUS
 62
       251
100
AcDbLine
 10
-22.75419
 20
-55.094254
 30
0.0
 11
-22.75419
 21
-47.939255
 31
0.0
  0
LINE
  5
84
100
AcDbEntity
  8
LY_3
  6
CONTINUOUS
 62
       251
100
AcDbLine
 10
-22.754202
 20
-47.939262
 30
0.0
 11
-26.0367
 21
-43.619274
 31
0.0
  0
LINE
  5
85
100
AcDbEntity
  8
LY_3
  6
CONTINUOUS
 62
       251
100
AcDbLine
 10
-27.30419
 20
-55.094254
 30
0.0
 11
-22.754193
 21
-55.094254
 31
0.0
  0
LINE
  5
86
100
AcDbEntity
  8
LY_3
  6
CONTINUOUS
 62
       251
100
AcDbLine
 10
-21.77919
 20
-43.619263
 30
0.0
 11
-21.77919
 21
-57.119263
 31
0.0
  0
LINE
  5
87
100
AcDbEntity
  8
LY_3
  6
CONTINUOUS
 62
       251
100
AcDbLine
 10
-21.77919
 20
-8.619263
 30
0.0
 11
-21.77919
 21
4.880737
 31
0.0
  0
LINE
  5
88
100
AcDbEntity
  8
LY_3
  6
CONTINUOUS
 62
       251
100
AcDbLine
 10
-28.27919
 20
4.880737
 30
0.0
 11
-28.27919
 21
-8.619263
 31
0.0
  0
LINE
  5
89
100
AcDbEntity
  8
LY_3
  6
CONTINUOUS
 62
       251
100
AcDbLine
 10
-95.179184
 20
-43.619263
 30
0.0
 11
-95.179184
 21
-57.119263
 31
0.0
  0
LINE
  5
8A
100
AcDbEntity
  8
LY_3
  6
CONTINUOUS
 62
       251
100
AcDbLine
 10
-88.679184
 20
-57.119263
 30
0.0
 11
-88.679184
 21
-43.619263
 31
0.0
  0
LINE
  5
8B
100
AcDbEntity
  8
LY_3
  6
CONTINUOUS
 62
       251
100
AcDbLine
 10
-27.30419
 20
2.855728
 30
0.0
 11
-22.754193
 21
2.855728
 31
0.0
  0
LINE
  5
8C
100
AcDbEntity
  8
LY_3
  6
CONTINUOUS
 62
       251
100
AcDbLine
 10
-28.27919
 20
-57.119263
 30
0.0
 11
-28.27919
 21
-43.619263
 31
0.0
  0
LINE
  5
8D
100
AcDbEntity
  8
LY_3
  6
CONTINUOUS
 62
       251
100
AcDbLine
 10
-22.754202
 20
-4.299263
 30
0.0
 11
-26.0367
 21
-8.619252
 31
0.0
  0
LINE
  5
8E
100
AcDbEntity
  8
LY_3
  6
CONTINUOUS
 62
       251
100
AcDbLine
 10
-26.036687
 20
-8.619259
 30
0.0
 11
-27.109167
 21
-6.594302
 31
0.0
  0
LINE
  5
8F
100
AcDbEntity
  8
LY_3
  6
CONTINUOUS
 62
       251
100
AcDbLine
 10
-22.75419
 20
2.855728
 30
0.0
 11
-22.75419
 21
-4.299271
 31
0.0
  0
LINE
  5
90
100
AcDbEntity
  8
LY_3
  6
CONTINUOUS
 62
       251
100
AcDbLine
 10
-37.707178
 20
0.580719
 30
0.0
 11
-33.819183
 21
0.580719
 31
0.0
  0
LINE
  5
91
100
AcDbEntity
  8
LY_3
  6
CONTINUOUS
 62
       251
100
AcDbLine
 10
-47.829208
 20
0.580719
 30
0.0
 11
-43.951179
 21
0.580719
 31
0.0
  0
LINE
  5
92
100
AcDbEntity
  8
LY_3
  6
CONTINUOUS
 62
       251
100
AcDbLine
 10
-79.251181
 20
-4.319275
 30
0.0
 11
-83.139175
 21
-4.319275
 31
0.0
  0
LINE
  5
93
100
AcDbEntity
  8
LY_3
  6
CONTINUOUS
 62
       251
100
AcDbLine
 10
-69.129181
 20
0.580719
 30
0.0
 11
-73.00718
 21
0.580719
 31
0.0
  0
LINE
  5
94
100
AcDbEntity
  8
LY_3
  6
CONTINUOUS
 62
       251
100
AcDbLine
 10
-69.129181
 20
4.880737
 30
0.0
 11
-69.129181
 21
-8.619263
 31
0.0
  0
LINE
  5
95
100
AcDbEntity
  8
LY_3
  6
CONTINUOUS
 62
       251
100
AcDbLine
 10
-79.251181
 20
0.580719
 30
0.0
 11
-83.139175
 21
0.580719
 31
0.0
  0
LINE
  5
96
100
AcDbEntity
  8
LY_3
  6
CONTINUOUS
 62
         7
100
AcDbLine
 10
-19.979187
 20
-70.119263
 30
0.0
 11
-35.979187
 21
-70.119263
 31
0.0
  0
LINE
  5
97
100
AcDbEntity
  8
LY_3
  6
CONTINUOUS
 62
         7
100
AcDbLine
 10
-19.979187
 20
-62.119263
 30
0.0
 11
-35.979187
 21
-62.119263
 31
0.0
  0
LINE
  5
98
100
AcDbEntity
  8
LY_3
  6
CONTINUOUS
 62
       251
100
AcDbLine
 10
-35.979187
 20
-70.119263
 30
0.0
 11
-35.979187
 21
-62.119263
 31
0.0
  0
LINE
  5
99
100
AcDbEntity
  8
LY_3
  6
CONTINUOUS
 62
       251
100
AcDbLine
 10
-42.279175
 20
-69.569263
 30
0.0
 11
-42.279175
 21
-62.669263
 31
0.0
  0
LINE
  5
9A
100
AcDbEntity
  8
LY_3
  6
CONTINUOUS
 62
       251
100
AcDbLine
 10
-19.979187
 20
-69.569263
 30
0.0
 11
-42.279175
 21
-69.569263
 31
0.0
  0
LINE
  5
9B
100
AcDbEntity
  8
LY_3
  6
CONTINUOUS
 62
       251
100
AcDbLine
 10
-19.979187
 20
-62.669263
 30
0.0
 11
-42.279175
 21
-62.669263
 31
0.0
  0
LINE
  5
9C
100
AcDbEntity
  8
LY_3
  6
CONTINUOUS
 62
       251
100
AcDbLine
 10
-44.352134
 20
-66.119263
 30
0.0
 11
-42.279167
 21
-69.569259
 31
0.0
  0
LINE
  5
9D
100
AcDbEntity
  8
LY_3
  6
CONTINUOUS
 62
       251
100
AcDbLine
 10
-42.279165
 20
-62.669263
 30
0.0
 11
-44.352134
 21
-66.119262
 31
0.0
  0
LINE
  5
9E
100
AcDbEntity
  8
LY_3
  6
CONTINUOUS
 62
       251
100
AcDbLine
 10
-65.379128
 20
-1.548279
 30
0.0
 11
-65.379128
 21
-4.548279
 31
0.0
  0
LINE
  5
9F
100
AcDbEntity
  8
LY_3
  6
CONTINUOUS
 62
       251
100
AcDbLine
 10
-67.479118
 20
2.455719
 30
0.0
 11
-67.479118
 21
-0.548279
 31
0.0
  0
LINE
  5
A0
100
AcDbEntity
  8
LY_3
  6
CONTINUOUS
 62
       251
100
AcDbLine
 10
-67.479118
 20
-0.548279
 30
0.0
 11
-66.379128
 21
-0.548279
 31
0.0
  0
LINE
  5
A1
100
AcDbEntity
  8
LY_3
  6
CONTINUOUS
 62
       251
100
AcDbLine
 10
-67.479118
 20
-4.548279
 30
0.0
 11
-65.379128
 21
-4.548279
 31
0.0
  0
LINE
  5
A2
100
AcDbEntity
  8
LY_3
  6
CONTINUOUS
 62
       251
100
AcDbLine
 10
-67.479118
 20
-3.019272
 30
0.0
 11
-67.479118
 21
-5.803284
 31
0.0
  0
LINE
  5
A3
100
AcDbEntity
  8
LY_3
  6
CONTINUOUS
 62
       251
100
AcDbLine
 10
-65.379128
 20
-48.36525
 30
0.0
 11
-65.379128
 21
-50.36525
 31
0.0
  0
LINE
  5
A4
100
AcDbEntity
  8
LY_3
  6
CONTINUOUS
 62
       251
100
AcDbLine
 10
-67.479118
 20
-46.36525
 30
0.0
 11
-67.479118
 21
-49.219254
 31
0.0
  0
LINE
  5
A5
100
AcDbEntity
  8
LY_3
  6
CONTINUOUS
 62
       251
100
AcDbLine
 10
-65.379128
 20
-48.36525
 30
0.0
 11
-67.479118
 21
-48.36525
 31
0.0
  0
LINE
  5
A6
100
AcDbEntity
  8
LY_3
  6
CONTINUOUS
 62
       251
100
AcDbLine
 10
-66.379128
 20
-51.36525
 30
0.0
 11
-67.479118
 21
-51.36525
 31
0.0
  0
LINE
  5
A7
100
AcDbEntity
  8
LY_3
  6
CONTINUOUS
 62
       251
100
AcDbLine
 10
-67.479118
 20
-51.36525
 30
0.0
 11
-67.479118
 21
-54.694275
 31
0.0
  0
LINE
  5
A8
100
AcDbEntity
  8
LY_3
  6
CONTINUOUS
 62
       251
100
AcDbLine
 10
-51.579231
 20
-4.548279
 30
0.0
 11
-51.579231
 21
-1.548279
 31
0.0
  0
LINE
  5
A9
100
AcDbEntity
  8
LY_3
  6
CONTINUOUS
 62
       251
100
AcDbLine
 10
-49.47924
 20
-0.548279
 30
0.0
 11
-49.47924
 21
2.455719
 31
0.0
  0
LINE
  5
AA
100
AcDbEntity
  8
LY_3
  6
CONTINUOUS
 62
       251
100
AcDbLine
 10
-50.579231
 20
-0.548279
 30
0.0
 11
-49.47924
 21
-0.548279
 31
0.0
  0
LINE
  5
AB
100
AcDbEntity
  8
LY_3
  6
CONTINUOUS
 62
       251
100
AcDbLine
 10
-51.579231
 20
-4.548279
 30
0.0
 11
-47.829185
 21
-4.548279
 31
0.0
  0
LINE
  5
AC
100
AcDbEntity
  8
LY_3
  6
CONTINUOUS
 62
       251
100
AcDbLine
 10
-49.47924
 20
-5.803284
 30
0.0
 11
-49.47924
 21
-4.548279
 31
0.0
  0
LINE
  5
AD
100
AcDbEntity
  8
LY_3
  6
CONTINUOUS
 62
       251
100
AcDbLine
 10
-51.579231
 20
-50.36525
 30
0.0
 11
-51.579231
 21
-48.36525
 31
0.0
  0
LINE
  5
AE
100
AcDbEntity
  8
LY_3
  6
CONTINUOUS
 62
       251
100
AcDbLine
 10
-49.47924
 20
-48.36525
 30
0.0
 11
-49.47924
 21
-46.36525
 31
0.0
  0
LINE
  5
AF
100
AcDbEntity
  8
LY_3
  6
CONTINUOUS
 62
       251
100
AcDbLine
 10
-49.47924
 20
-48.36525
 30
0.0
 11
-51.579231
 21
-48.36525
 31
0.0
  0
LINE
  5
B0
100
AcDbEntity
  8
LY_3
  6
CONTINUOUS
 62
       251
100
AcDbLine
 10
-49.47924
 20
-51.36525
 30
0.0
 11
-50.579231
 21
-51.36525
 31
0.0
  0
LINE
  5
B1
100
AcDbEntity
  8
LY_3
  6
CONTINUOUS
 62
       251
100
AcDbLine
 10
-49.47924
 20
-54.694275
 30
0.0
 11
-49.47924
 21
-51.36525
 31
0.0
  0
LINE
  5
B2
100
AcDbEntity
  8
LY_3
  6
CONTINUOUS
 62
       251
100
AcDbLine
 10
-69.129173
 20
-49.219254
 30
0.0
 11
-67.479118
 21
-49.219254
 31
0.0
  0
LINE
  5
B3
100
AcDbEntity
  8
LY_3
  6
CONTINUOUS
 62
       251
100
AcDbLine
 10
-67.479118
 20
-3.019272
 30
0.0
 11
-69.129158
 21
-3.019272
 31
0.0
  0
LINE
  5
B4
100
AcDbEntity
  8
LY_3
  6
CONTINUOUS
 62
       251
100
AcDbLine
 10
-47.829185
 20
-47.690277
 30
0.0
 11
-49.47924
 21
-47.690277
 31
0.0
  0
LINE
  5
B5
100
AcDbEntity
  8
LY_3
  6
CONTINUOUS
 62
       251
100
AcDbLine
 10
54.149994
 20
-15.536331
 30
0.0
 11
54.149994
 21
-12.319336
 31
0.0
  0
LINE
  5
B6
100
AcDbEntity
  8
LY_3
  6
CONTINUOUS
 62
       251
100
AcDbLine
 10
54.149994
 20
-12.319336
 30
0.0
 11
60.149994
 21
-12.319336
 31
0.0
  0
LINE
  5
B7
100
AcDbEntity
  8
LY_3
  6
CENTER
 62
         7
100
AcDbLine
 10
81.781709
 20
-50.75103
 30
0.0
 11
89.118816
 21
-58.088137
 31
0.0
  0
LINE
  5
B8
100
AcDbEntity
  8
LY_3
  6
CONTINUOUS
 62
       251
100
AcDbLine
 10
60.149994
 20
-12.319336
 30
0.0
 11
60.149994
 21
-15.536331
 31
0.0
  0
LINE
  5
BA
100
AcDbEntity
  8
LY_3
  6
DASHED
 62
         7
100
AcDbLine
 10
97.649994
 20
-20.369293
 30
0.0
 11
97.649994
 21
-31.869293
 31
0.0
  0
LINE
  5
BB
100
AcDbEntity
  8
LY_3
  6
DASHED
 62
         7
100
AcDbLine
 10
104.300674
 20
-20.369293
 30
0.0
 11
97.649994
 21
-20.369293
 31
0.0
  0
LINE
  5
BC
100
AcDbEntity
  8
LY_3
  6
DASHED
 62
         7
100
AcDbLine
 10
104.300674
 20
-31.869293
 30
0.0
 11
97.649994
 21
-31.869293
 31
0.0
  0
LINE
  5
BD
100
AcDbEntity
  8
LY_3
  6
DASHED
 62
         7
100
AcDbLine
 10
103.216827
 20
-25.519302
 30
0.0
 11
100.849976
 21
-25.519302
 31
0.0
  0
LINE
  5
BE
100
AcDbEntity
  8
LY_3
  6
DASHED
 62
         7
100
AcDbLine
 10
103.216812
 20
-26.719299
 30
0.0
 11
100.849976
 21
-26.719299
 31
0.0
  0
LINE
  5
BF
100
AcDbEntity
  8
LY_3
  6
DASHED
 62
         7
100
AcDbLine
 10
100.849976
 20
-25.519302
 30
0.0
 11
100.849976
 21
-26.719299
 31
0.0
  0
LINE
  5
C0
100
AcDbEntity
  8
LY_3
  6
DASHED
 62
         7
100
AcDbLine
 10
97.649994
 20
-23.119293
 30
0.0
 11
88.004488
 21
-23.119293
 31
0.0
  0
LINE
  5
C1
100
AcDbEntity
  8
LY_3
  6
DASHED
 62
         7
100
AcDbLine
 10
97.649994
 20
-23.664307
 30
0.0
 11
88.05263
 21
-23.664307
 31
0.0
  0
LINE
  5
C2
100
AcDbEntity
  8
LY_3
  6
DASHED
 62
         7
100
AcDbLine
 10
88.004494
 20
-29.119293
 30
0.0
 11
97.649994
 21
-29.119293
 31
0.0
  0
LINE
  5
C3
100
AcDbEntity
  8
LY_3
  6
DASHED
 62
         7
100
AcDbLine
 10
88.052634
 20
-28.57428
 30
0.0
 11
97.649994
 21
-28.57428
 31
0.0
  0
LINE
  5
C4
100
AcDbEntity
  8
LY_3
  6
DASHED
 62
         7
100
AcDbLine
 10
51.399963
 20
14.380676
 30
0.0
 11
62.899963
 21
14.380676
 31
0.0
  0
LINE
  5
C5
100
AcDbEntity
  8
LY_3
  6
DASHED
 62
         7
100
AcDbLine
 10
51.399963
 20
21.031357
 30
0.0
 11
51.399963
 21
14.380676
 31
0.0
  0
LINE
  5
C6
100
AcDbEntity
  8
LY_3
  6
DASHED
 62
         7
100
AcDbLine
 10
62.899963
 20
21.031357
 30
0.0
 11
62.899963
 21
14.380676
 31
0.0
  0
LINE
  5
C7
100
AcDbEntity
  8
LY_3
  6
DASHED
 62
         7
100
AcDbLine
 10
56.549973
 20
19.94751
 30
0.0
 11
56.549973
 21
17.580658
 31
0.0
  0
LINE
  5
C8
100
AcDbEntity
  8
LY_3
  6
DASHED
 62
         7
100
AcDbLine
 10
57.749969
 20
19.947495
 30
0.0
 11
57.749969
 21
17.580658
 31
0.0
  0
LINE
  5
C9
100
AcDbEntity
  8
LY_3
  6
DASHED
 62
         7
100
AcDbLine
 10
56.549973
 20
17.580658
 30
0.0
 11
57.749969
 21
17.580658
 31
0.0
  0
LINE
  5
CA
100
AcDbEntity
  8
LY_3
  6
DASHED
 62
         7
100
AcDbLine
 10
54.149963
 20
14.380676
 30
0.0
 11
54.149963
 21
4.735171
 31
0.0
  0
LINE
  5
CB
100
AcDbEntity
  8
LY_3
  6
DASHED
 62
         7
100
AcDbLine
 10
54.694977
 20
14.380676
 30
0.0
 11
54.694977
 21
4.783312
 31
0.0
  0
LINE
  5
CC
100
AcDbEntity
  8
LY_3
  6
DASHED
 62
         7
100
AcDbLine
 10
60.149963
 20
4.735176
 30
0.0
 11
60.149963
 21
14.380676
 31
0.0
  0
LINE
  5
CD
100
AcDbEntity
  8
LY_3
  6
DASHED
 62
         7
100
AcDbLine
 10
59.60495
 20
4.783317
 30
0.0
 11
59.60495
 21
14.380676
 31
0.0
  0
LINE
  5
CE
100
AcDbEntity
  8
LY_3
  6
DASHED
 62
         7
100
AcDbLine
 10
16.649979
 20
-31.869354
 30
0.0
 11
16.649979
 21
-20.369354
 31
0.0
  0
LINE
  5
CF
100
AcDbEntity
  8
LY_3
  6
DASHED
 62
         7
100
AcDbLine
 10
9.999298
 20
-31.869354
 30
0.0
 11
16.649979
 21
-31.869354
 31
0.0
  0
LINE
  5
D0
100
AcDbEntity
  8
LY_3
  6
DASHED
 62
         7
100
AcDbLine
 10
9.999298
 20
-20.369354
 30
0.0
 11
16.649979
 21
-20.369354
 31
0.0
  0
LINE
  5
D1
100
AcDbEntity
  8
LY_3
  6
DASHED
 62
         7
100
AcDbLine
 10
11.083145
 20
-26.719345
 30
0.0
 11
13.449997
 21
-26.719345
 31
0.0
  0
LINE
  5
D2
100
AcDbEntity
  8
LY_3
  6
DASHED
 62
         7
100
AcDbLine
 10
11.08316
 20
-25.519348
 30
0.0
 11
13.449997
 21
-25.519348
 31
0.0
  0
LINE
  5
D3
100
AcDbEntity
  8
LY_3
  6
DASHED
 62
         7
100
AcDbLine
 10
13.449997
 20
-26.719345
 30
0.0
 11
13.449997
 21
-25.519348
 31
0.0
  0
LINE
  5
D4
100
AcDbEntity
  8
LY_3
  6
DASHED
 62
         7
100
AcDbLine
 10
16.649979
 20
-29.119354
 30
0.0
 11
26.2955
 21
-29.119354
 31
0.0
  0
LINE
  5
D5
100
AcDbEntity
  8
LY_3
  6
DASHED
 62
         7
100
AcDbLine
 10
16.649979
 20
-28.574341
 30
0.0
 11
26.247358
 21
-28.574341
 31
0.0
  0
LINE
  5
D6
100
AcDbEntity
  8
LY_3
  6
DASHED
 62
         7
100
AcDbLine
 10
26.295494
 20
-23.119354
 30
0.0
 11
16.649979
 21
-23.119354
 31
0.0
  0
LINE
  5
D7
100
AcDbEntity
  8
LY_3
  6
DASHED
 62
         7
100
AcDbLine
 10
26.247353
 20
-23.664368
 30
0.0
 11
16.649979
 21
-23.664368
 31
0.0
  0
LINE
  5
D8
100
AcDbEntity
  8
LY_3
  6
DASHED
 62
         7
100
AcDbLine
 10
62.900024
 20
-66.619338
 30
0.0
 11
51.400024
 21
-66.619338
 31
0.0
  0
LINE
  5
D9
100
AcDbEntity
  8
LY_3
  6
DASHED
 62
         7
100
AcDbLine
 10
62.900024
 20
-73.270019
 30
0.0
 11
62.900024
 21
-66.619338
 31
0.0
  0
LINE
  5
DA
100
AcDbEntity
  8
LY_3
  6
DASHED
 62
         7
100
AcDbLine
 10
51.400024
 20
-73.270019
 30
0.0
 11
51.400024
 21
-66.619338
 31
0.0
  0
LINE
  5
DB
100
AcDbEntity
  8
LY_3
  6
DASHED
 62
         7
100
AcDbLine
 10
57.750015
 20
-72.186172
 30
0.0
 11
57.750015
 21
-69.81932
 31
0.0
  0
LINE
  5
DC
100
AcDbEntity
  8
LY_3
  6
DASHED
 62
         7
100
AcDbLine
 10
56.550018
 20
-72.186156
 30
0.0
 11
56.550018
 21
-69.81932
 31
0.0
  0
LINE
  5
DD
100
AcDbEntity
  8
LY_3
  6
DASHED
 62
         7
100
AcDbLine
 10
57.750015
 20
-69.81932
 30
0.0
 11
56.550018
 21
-69.81932
 31
0.0
  0
LINE
  5
DE
100
AcDbEntity
  8
LY_3
  6
DASHED
 62
         7
100
AcDbLine
 10
60.150024
 20
-66.619338
 30
0.0
 11
60.150024
 21
-56.973818
 31
0.0
  0
LINE
  5
DF
100
AcDbEntity
  8
LY_3
  6
DASHED
 62
         7
100
AcDbLine
 10
59.605011
 20
-66.619338
 30
0.0
 11
59.605011
 21
-57.021959
 31
0.0
  0
LINE
  5
E0
100
AcDbEntity
  8
LY_3
  6
DASHED
 62
         7
100
AcDbLine
 10
54.150024
 20
-56.973824
 30
0.0
 11
54.150024
 21
-66.619338
 31
0.0
  0
LINE
  5
E1
100
AcDbEntity
  8
LY_3
  6
DASHED
 62
         7
100
AcDbLine
 10
54.695038
 20
-57.021964
 30
0.0
 11
54.695038
 21
-66.619338
 31
0.0
  0
LINE
  5
E2
100
AcDbEntity
  8
LY_3
  6
CENTER
 62
         7
100
AcDbLine
 10
81.781693
 20
-1.487612
 30
0.0
 11
89.1188
 21
5.849495
 31
0.0
  0
LINE
  5
E3
100
AcDbEntity
  8
LY_3
  6
CENTER
 62
         7
100
AcDbLine
 10
32.518279
 20
-1.487625
 30
0.0
 11
25.181172
 21
5.849482
 31
0.0
  0
LINE
  5
E4
100
AcDbEntity
  8
LY_3
  6
CENTER
 62
         7
100
AcDbLine
 10
32.518288
 20
-50.751039
 30
0.0
 11
25.181181
 21
-58.088146
 31
0.0
  0
LINE
  5
E5
100
AcDbEntity
  8
LY_3
  6
CONTINUOUS
 62
       251
100
AcDbLine
 10
-18.479218
 20
-15.119263
 30
0.0
 11
-98.479187
 21
-15.119263
 31
0.0
  0
ARC
  5
E6
100
AcDbEntity
  8
LY_3
  6
CONTINUOUS
 62
       251
100
AcDbCircle
 10
-84.979187
 20
14.535416
 30
0.0
 40
5.445312
100
AcDbArc
 50
358.372249
 51
83.673861
  0
ARC
  5
E7
100
AcDbEntity
  8
LY_3
  6
CONTINUOUS
 62
       251
100
AcDbCircle
 10
-84.979187
 20
14.535416
 30
0.0
 40
5.445312
100
AcDbArc
 50
96.325939
 51
181.627751
  0
CIRCLE
  5
E8
100
AcDbEntity
  8
LY_3
  6
CONTINUOUS
 62
       251
100
AcDbCircle
 10
-40.829178
 20
-50.369278
 30
0.0
 40
3.969
  0
CIRCLE
  5
E9
100
AcDbEntity
  8
LY_3
  6
CONTINUOUS
 62
       251
100
AcDbCircle
 10
-40.829178
 20
-1.869278
 30
0.0
 40
3.969
  0
CIRCLE
  5
EA
100
AcDbEntity
  8
LY_3
  6
CONTINUOUS
 62
       251
100
AcDbCircle
 10
-26.036691
 20
-45.644257
 30
0.0
 40
0.455
  0
CIRCLE
  5
EB
100
AcDbEntity
  8
LY_3
  6
CONTINUOUS
 62
       251
100
AcDbCircle
 10
-26.036691
 20
-6.594269
 30
0.0
 40
0.455
  0
CIRCLE
  5
EC
100
AcDbEntity
  8
LY_3
  6
CONTINUOUS
 62
       251
100
AcDbCircle
 10
-90.921683
 20
-6.594269
 30
0.0
 40
0.455
  0
CIRCLE
  5
ED
100
AcDbEntity
  8
LY_3
  6
CONTINUOUS
 62
       251
100
AcDbCircle
 10
-90.921683
 20
-45.644257
 30
0.0
 40
0.455
  0
CIRCLE
  5
EE
100
AcDbEntity
  8
LY_3
  6
CONTINUOUS
 62
       251
100
AcDbCircle
 10
-76.129181
 20
-50.369278
 30
0.0
 40
3.969
  0
CIRCLE
  5
EF
100
AcDbEntity
  8
LY_3
  6
CONTINUOUS
 62
       251
100
AcDbCircle
 10
-76.129181
 20
-1.869278
 30
0.0
 40
3.969
  0
CIRCLE
  5
F0
100
AcDbEntity
  8
LY_3
  6
CONTINUOUS
 62
       251
100
AcDbCircle
 10
-66.379128
 20
-1.548279
 30
0.0
 40
1.0
  0
CIRCLE
  5
F1
100
AcDbEntity
  8
LY_3
  6
CONTINUOUS
 62
       251
100
AcDbCircle
 10
-66.379128
 20
-50.36525
 30
0.0
 40
1.0
  0
CIRCLE
  5
F2
100
AcDbEntity
  8
LY_3
  6
CONTINUOUS
 62
       251
100
AcDbCircle
 10
-50.579231
 20
-1.548279
 30
0.0
 40
1.0
  0
CIRCLE
  5
F3
100
AcDbEntity
  8
LY_3
  6
CONTINUOUS
 62
       251
100
AcDbCircle
 10
-50.579231
 20
-50.36525
 30
0.0
 40
1.0
  0
CIRCLE
  5
F4
100
AcDbEntity
  8
LY_3
  6
CONTINUOUS
 62
       251
100
AcDbCircle
 10
57.149994
 20
-26.119324
 30
0.0
 40
47.5
  0
ARC
  5
F5
100
AcDbEntity
  8
LY_3
  6
CONTINUOUS
 62
       251
100
AcDbCircle
 10
57.149994
 20
-26.119324
 30
0.0
 40
10.999999
100
AcDbArc
 50
105.826678
 51
74.173324
  0
ARC
  5
F6
100
AcDbEntity
  8
LY_3
  6
CENTER
 62
         7
100
AcDbCircle
 10
57.149994
 20
-26.119324
 30
0.0
 40
40.0
100
AcDbArc
 50
306.830656
 51
322.365457
  0
CIRCLE
  5
F7
100
AcDbEntity
  8
LY_3
  6
CONTINUOUS
 62
       251
100
AcDbCircle
 10
57.149994
 20
-26.119324
 30
0.0
 40
17.5
  0
CIRCLE
  5
F8
100
AcDbEntity
  8
LY_3
  6
CONTINUOUS
 62
       251
100
AcDbCircle
 10
57.149994
 20
-26.119324
 30
0.0
 40
31.0
  0
ARC
  5
F9
100
AcDbEntity
  8
LY_3
  6
DASHED
 62
         7
100
AcDbCircle
 10
97.804672
 20
-26.119324
 30
0.0
 40
5.445312
100
AcDbArc
 50
268.372249
 51
353.673899
  0
ARC
  5
FA
100
AcDbEntity
  8
LY_3
  6
DASHED
 62
         7
100
AcDbCircle
 10
97.804672
 20
-26.119324
 30
0.0
 40
5.445312
100
AcDbArc
 50
6.326029
 51
91.627751
  0
ARC
  5
FB
100
AcDbEntity
  8
LY_3
  6
DASHED
 62
         7
100
AcDbCircle
 10
57.149963
 20
14.535355
 30
0.0
 40
5.445312
100
AcDbArc
 50
358.372249
 51
83.673861
  0
ARC
  5
FC
100
AcDbEntity
  8
LY_3
  6
DASHED
 62
         7
100
AcDbCircle
 10
57.149963
 20
14.535355
 30
0.0
 40
5.445312
100
AcDbArc
 50
96.325939
 51
181.627751
  0
ARC
  5
FD
100
AcDbEntity
  8
LY_3
  6
DASHED
 62
         7
100
AcDbCircle
 10
16.495316
 20
-26.119354
 30
0.0
 40
5.445312
100
AcDbArc
 50
88.37241
 51
173.673843
  0
ARC
  5
FE
100
AcDbEntity
  8
LY_3
  6
DASHED
 62
         7
100
AcDbCircle
 10
16.495316
 20
-26.119354
 30
0.0
 40
5.445312
100
AcDbArc
 50
186.325993
 51
271.62759
  0
ARC
  5
FF
100
AcDbEntity
  8
LY_3
  6
DASHED
 62
         7
100
AcDbCircle
 10
57.150009
 20
-66.774002
 30
0.0
 40
5.445312
100
AcDbArc
 50
178.3724
 51
263.673897
  0
ARC
  5
100
100
AcDbEntity
  8
LY_3
  6
DASHED
 62
         7
100
AcDbCircle
 10
57.150009
 20
-66.774002
 30
0.0
 40
5.445312
100
AcDbArc
 50
276.32603
 51
1.6276
  0
ARC
  5
101
100
AcDbEntity
  8
LY_3
  6
CENTER
 62
         7
100
AcDbCircle
 10
57.149994
 20
-26.119324
 30
0.0
 40
40.0
100
AcDbArc
 50
36.830641
 51
52.365435
  0
ARC
  5
102
100
AcDbEntity
  8
LY_3
  6
CENTER
 62
         7
100
AcDbCircle
 10
57.149994
 20
-26.119324
 30
0.0
 40
40.0
100
AcDbArc
 50
126.830602
 51
142.365403
  0
ARC
  5
103
100
AcDbEntity
  8
LY_3
  6
CENTER
 62
         7
100
AcDbCircle
 10
57.149994
 20
-26.119324
 30
0.0
 40
40.0
100
AcDbArc
 50
216.830656
 51
232.365457
  0
MTEXT
  5
104
100
AcDbEntity
  8
LY_3
  6
CONTINUOUS
 62
         7
100
AcDbMText
 10
-48.0
 20
68.667357702
 30
0.0
 40
15.0
 41
0.0
 71
         1
 72
         1
  1
\A1;MX22
  0
MTEXT
  5
105
100
AcDbEntity
  8
LY_3
  6
CONTINUOUS
 62
         7
100
AcDbMText
 10
-68.2430559669
 20
92.6673580596
 30
0.0
 40
13.0
 41
0.0
 71
         1
 72
         1
  1
\W1.042;\A1;CAM CLUTCH
  0
ENDSEC
  0
SECTION
  2
OBJECTS
  0
DICTIONARY
  5
19
100
AcDbDictionary
  3
ACAD_GROUP
350
1A
  3
ACAD_MLINESTYLE
350
1B
  0
DICTIONARY
  5
1A
102
{ACAD_REACTORS
330
19
102
}
100
AcDbDictionary
  0
DICTIONARY
  5
1B
102
{ACAD_REACTORS
330
19
102
}
100
AcDbDictionary
  3
STANDARD
350
1C
  0
MLINESTYLE
  5
1C
102
{ACAD_REACTORS
330
1B
102
}
100
AcDbMlineStyle
  2
Standard
 70
         0
  3

 62
         0
 51
90.0
 52
90.0
 71
         2
 49
0.5
 62
       256
  6
ByLayer
 49
-0.5
 62
       256
  6
ByLayer
  0
ENDSEC
  0
EOF
