  0
SECTION
  2
HEADER
  9
$ACADVER
  1
AC1014
  9
$ACADMAINTVER
 70
         0
  9
$DWGCODEPAGE
  3
ANSI_932
  9
$INSBASE
 10
0.0
 20
0.0
 30
0.0
  9
$EXTMIN
 10
-149.7484177085
 20
-86.965393
 30
0.0
  9
$EXTMAX
 10
114.126556
 20
122.1256910721
 30
0.0
  9
$LIMMIN
 10
-149.7484177085
 20
-86.965393
  9
$LIMMAX
 10
114.126556
 20
122.1256910721
  9
$ORTHOMODE
 70
         0
  9
$REGENMODE
 70
         1
  9
$FILLMODE
 70
         1
  9
$QTEXTMODE
 70
         0
  9
$MIRRTEXT
 70
         1
  9
$DRAGMODE
 70
         2
  9
$LTSCALE
 40
1.0
  9
$OSMODE
 70
         0
  9
$ATTMODE
 70
         1
  9
$TEXTSIZE
 40
3.2000000477
  9
$TRACEWID
 40
0.05
  9
$TEXTSTYLE
  7
MX_NOTE_STANDARD
  9
$CLAYER
  8
LY_3
  9
$CELTYPE
  6
CONTINUOUS
  9
$CECOLOR
 62
       256
  9
$CELTSCALE
 40
1.0
  9
$DELOBJ
 70
         1
  9
$DISPSILH
 70
         0
  9
$DIMSCALE
 40
1.0
  9
$DIMASZ
 40
2.5
  9
$DIMEXO
 40
0.0
  9
$DIMDLI
 40
3.75
  9
$DIMRND
 40
0.0
  9
$DIMDLE
 40
0.0
  9
$DIMEXE
 40
2.5
  9
$DIMTP
 40
0.0
  9
$DIMTM
 40
0.0
  9
$DIMTXT
 40
3.2000000477
  9
$DIMCEN
 40
2.5
  9
$DIMTSZ
 40
0.0
  9
$DIMTOL
 70
         0
  9
$DIMLIM
 70
         0
  9
$DIMTIH
 70
         0
  9
$DIMTOH
 70
         0
  9
$DIMSE1
 70
         0
  9
$DIMSE2
 70
         0
  9
$DIMTAD
 70
         1
  9
$DIMZIN
 70
         8
  9
$DIMBLK
  1

  9
$DIMASO
 70
         1
  9
$DIMSHO
 70
         1
  9
$DIMPOST
  1

  9
$DIMAPOST
  1

  9
$DIMALT
 70
         0
  9
$DIMALTD
 70
         4
  9
$DIMALTF
 40
0.0393700787
  9
$DIMLFAC
 40
1.0
  9
$DIMTOFL
 70
         1
  9
$DIMTVP
 40
0.0
  9
$DIMTIX
 70
         0
  9
$DIMSOXD
 70
         0
  9
$DIMSAH
 70
         1
  9
$DIMBLK1
  1
_OPEN30
  9
$DIMBLK2
  1
_OPEN30
  9
$DIMSTYLE
  2
MXDIMSTYLE
  9
$DIMCLRD
 70
         0
  9
$DIMCLRE
 70
         0
  9
$DIMCLRT
 70
         0
  9
$DIMTFAC
 40
1.0
  9
$DIMGAP
 40
1.0
  9
$DIMJUST
 70
         0
  9
$DIMSD1
 70
         0
  9
$DIMSD2
 70
         0
  9
$DIMTOLJ
 70
         0
  9
$DIMTZIN
 70
         0
  9
$DIMALTZ
 70
         0
  9
$DIMALTTZ
 70
         0
  9
$DIMFIT
 70
         3
  9
$DIMUPT
 70
         0
  9
$DIMUNIT
 70
         2
  9
$DIMDEC
 70
         2
  9
$DIMTDEC
 70
         2
  9
$DIMALTU
 70
         2
  9
$DIMALTTD
 70
         4
  9
$DIMTXSTY
  7
MX_NOTE_STANDARD
  9
$DIMAUNIT
 70
         0
  9
$LUNITS
 70
         2
  9
$LUPREC
 70
         4
  9
$SKETCHINC
 40
0.1
  9
$FILLETRAD
 40
0.0
  9
$AUNITS
 70
         0
  9
$AUPREC
 70
         0
  9
$MENU
  1
acad
  9
$ELEVATION
 40
0.0
  9
$PELEVATION
 40
0.0
  9
$THICKNESS
 40
0.0
  9
$LIMCHECK
 70
         0
  9
$BLIPMODE
 70
         1
  9
$CHAMFERA
 40
0.0
  9
$CHAMFERB
 40
0.0
  9
$CHAMFERC
 40
0.0
  9
$CHAMFERD
 40
0.0
  9
$SKPOLY
 70
         0
  9
$TDCREATE
 40
2456603.419502315
  9
$TDUPDATE
 40
2456603.419502315
  9
$TDINDWG
 40
0.0000000000
  9
$TDUSRTIMER
 40
0.0000000000
  9
$USRTIMER
 70
         1
  9
$ANGBASE
 50
0.0
  9
$ANGDIR
 70
         0
  9
$PDMODE
 70
         0
  9
$PDSIZE
 40
0.0
  9
$PLINEWID
 40
0.0
  9
$COORDS
 70
         1
  9
$SPLFRAME
 70
         0
  9
$SPLINETYPE
 70
         6
  9
$SPLINESEGS
 70
         8
  9
$ATTDIA
 70
         0
  9
$ATTREQ
 70
         1
  9
$HANDLING
 70
         1
  9
$HANDSEED
  5
FD
  9
$SURFTAB1
 70
         6
  9
$SURFTAB2
 70
         6
  9
$SURFTYPE
 70
         6
  9
$SURFU
 70
         6
  9
$SURFV
 70
         6
  9
$UCSNAME
  2

  9
$UCSORG
 10
0.0
 20
0.0
 30
0.0
  9
$UCSXDIR
 10
1.0
 20
0.0
 30
0.0
  9
$UCSYDIR
 10
0.0
 20
1.0
 30
0.0
  9
$PUCSNAME
  2

  9
$PUCSORG
 10
0.0
 20
0.0
 30
0.0
  9
$PUCSXDIR
 10
1.0
 20
0.0
 30
0.0
  9
$PUCSYDIR
 10
0.0
 20
1.0
 30
0.0
  9
$USERI1
 70
         0
  9
$USERI2
 70
         0
  9
$USERI3
 70
         0
  9
$USERI4
 70
         0
  9
$USERI5
 70
         0
  9
$USERR1
 40
0.0
  9
$USERR2
 40
0.0
  9
$USERR3
 40
0.0
  9
$USERR4
 40
0.0
  9
$USERR5
 40
0.0
  9
$WORLDVIEW
 70
         1
  9
$SHADEDGE
 70
         3
  9
$SHADEDIF
 70
        70
  9
$TILEMODE
 70
         1
  9
$MAXACTVP
 70
        16
  9
$PINSBASE
 10
0.0
 20
0.0
 30
0.0
  9
$PLIMCHECK
 70
         0
  9
$PEXTMIN
 10
1.0000000000E+20
 20
1.0000000000E+20
 30
1.0000000000E+20
  9
$PEXTMAX
 10
-1.0000000000E+20
 20
-1.0000000000E+20
 30
-1.0000000000E+20
  9
$PLIMMIN
 10
0.0
 20
0.0
  9
$PLIMMAX
 10
12.0
 20
9.0
  9
$UNITMODE
 70
         0
  9
$VISRETAIN
 70
         0
  9
$PLINEGEN
 70
         1
  9
$PSLTSCALE
 70
         0
  9
$TREEDEPTH
 70
      3020
  9
$PICKSTYLE
 70
         1
  9
$CMLSTYLE
  2
Standard
  9
$CMLJUST
 70
         0
  9
$CMLSCALE
 40
1.0
  9
$PROXYGRAPHICS
 70
         0
  9
$MEASUREMENT
 70
         1
  0
ENDSEC
  0
SECTION
  2
CLASSES
  0
CLASS
  1
LWPOLYLINE
  2
AcDbPolyline
  3
"AutoCAD"
 90
        0
280
         0
281
         1
  0
CLASS
  1
IMAGE
  2
AcDbRasterImage
  3
ISM
 90
      127
280
         0
281
         1
  0
CLASS
  1
OLE2FRAME
  2
AcDbOle2Frame
  3
""
 90
        0
280
         0
281
         1
  0
CLASS
  1
HATCH
  2
AcDbHatch
  3
"ACAD_SEDONA"
 90
        0
280
         0
281
         1
  0
CLASS
  1
DICTIONARYVAR
  2
AcDbDictionaryVar
  3
"AutoCAD"
 90
        0
280
         0
281
         0
  0
CLASS
  1
RASTERVARIABLES
  2
AcDbRasterVariables
  3
ISM
 90
        0
280
         0
281
         0
  0
CLASS
  1
IMAGEDEF
  2
AcDbRasterImageDef
  3
ISM
 90
        0
280
         0
281
         0
  0
CLASS
  1
IMAGEDEF_REACTOR
  2
AcDbRasterImageDefReactor
  3
ISM
 90
        1
280
         0
281
         0
  0
CLASS
  1
IDBUFFER
  2
AcDbIdBuffer
  3
"Acad"
 90
        0
280
         0
281
         0
  0
CLASS
  1
SPATIAL_FILTER
  2
AcDbSpatialFilter
  3
"Acad"
 90
        0
280
         0
281
         0
  0
CLASS
  1
XRECORD
  2
AcDbXrecord
  3
"<Built In>"
 90
        0
280
         0
281
         0
  0
CLASS
  1
SORTENTSTABLE
  2
AcDbSortentsTable
  3
"AutoCAD"
 90
        0
280
         0
281
         0
  0
CLASS
  1
LAYER_INDEX
  2
AcDbLayerIndex
  3
"Acad"
 90
        0
280
         0
281
         0
  0
CLASS
  1
SPATIAL_INDEX
  2
AcDbSpatialIndex
  3
"Acad"
 90
        0
280
         0
281
         0
  0
CLASS
  1
OBJECT_PTR
  2
CAseDLPNTableRecord
  3
"ASE-LPNTableRecord"
 90
        1
280
         0
281
         0
  0
CLASS
  1
LAYOUT
  2
AcDbLayout
  3
"AutoCAD 2000"
 90
        0
280
         0
281
         0
  0
CLASS
  1
PLOTSETTINGS
  2
AcDbPlotSettings
  3
"AutoCAD 2000"
 90
        0
280
         0
281
         0
  0
CLASS
  1
ACDBDICTIONARYWDFLT
  2
AcDbDictionaryWithDefault
  3
"AutoCAD 2000"
 90
        0
280
         0
281
         0
  0
CLASS
  1
ACDBPLACEHOLDER
  2
AcDbPlaceHolder
  3
"AutoCAD 2000"
 90
        0
280
         0
281
         0
  0
ENDSEC
  0
SECTION
  2
TABLES
  0
TABLE
  2
VPORT
  5
7
100
AcDbSymbolTable
 70
         1
  0
VPORT
  5
15
100
AcDbSymbolTableRecord
100
AcDbViewportTableRecord
  2
*ACTIVE
 70
         0
 10
0.0
 20
0.0
 11
1.0
 21
1.0
 12
-17.8109308542
 22
17.580149036
 13
0.0
 23
0.0
 14
1.0
 24
1.0
 15
0.0
 25
0.0
 16
0.0
 26
0.0
 36
1.0
 17
0.0
 27
0.0
 37
0.0
 40
211.1819949128
 41
1.7320508076
 42
50.0
 43
0.0
 44
0.0
 50
0.0
 51
0.0
 71
         0
 72
       100
 73
         1
 74
         1
 75
         0
 76
         0
 77
         0
 78
         0
  0
ENDTAB
  0
TABLE
  2
LTYPE
  5
4
100
AcDbSymbolTable
 70
         5
  0
LTYPE
  5
11
100
AcDbSymbolTableRecord
100
AcDbLinetypeTableRecord
  2
BYBLOCK
 70
        64
  3

 72
        65
 73
         0
 40
0.0
  0
LTYPE
  5
12
100
AcDbSymbolTableRecord
100
AcDbLinetypeTableRecord
  2
BYLAYER
 70
        64
  3

 72
        65
 73
         0
 40
0.0
  0
LTYPE
  5
13
100
AcDbSymbolTableRecord
100
AcDbLinetypeTableRecord
  2
CONTINUOUS
 70
        64
  3
Solid line
 72
        65
 73
         0
 40
0.0
  0
LTYPE
  5
50
100
AcDbSymbolTableRecord
100
AcDbLinetypeTableRecord
  2
DASHED
 70
        64
  3
Dashed __ __ __ __ __ __ __ __ __ __ __ __ __ _
 72
        65
 73
         2
 40
19.05
 49
12.7
 74
         0
 49
-6.35
 74
         0
  0
LTYPE
  5
61
100
AcDbSymbolTableRecord
100
AcDbLinetypeTableRecord
  2
CENTER
 70
        64
  3
Center ____ _ ____ _ ____ _ ____ _ ____ _ ____
 72
        65
 73
         4
 40
50.8
 49
31.75
 74
         0
 49
-6.35
 74
         0
 49
6.35
 74
         0
 49
-6.35
 74
         0
  0
ENDTAB
  0
TABLE
  2
LAYER
  5
2
100
AcDbSymbolTable
 70
         3
  0
LAYER
  5
14
100
AcDbSymbolTableRecord
100
AcDbLayerTableRecord
  2
0
 70
         0
 62
         7
  6
CONTINUOUS
  0
LAYER
  5
1D
100
AcDbSymbolTableRecord
100
AcDbLayerTableRecord
  2
DEFPOINTS
 70
         0
 62
         7
  6
CONTINUOUS
  0
LAYER
  5
1E
100
AcDbSymbolTableRecord
100
AcDbLayerTableRecord
  2
LY_3
 70
         0
 62
         7
  6
CONTINUOUS
  0
ENDTAB
  0
TABLE
  2
STYLE
  5
3
100
AcDbSymbolTable
 70
         1
  0
STYLE
  5
17
100
AcDbSymbolTableRecord
100
AcDbTextStyleTableRecord
  2
MX_NOTE_STANDARD
 70
         0
 40
0.0
 41
1.0
 50
0.0
 71
         0
 42
3.2000000477
  3
txt.shx
  4
extfont.shx
  0
ENDTAB
  0
TABLE
  2
VIEW
  5
5
100
AcDbSymbolTable
 70
         0
  0
ENDTAB
  0
TABLE
  2
UCS
  5
6
100
AcDbSymbolTable
 70
         0
  0
ENDTAB
  0
TABLE
  2
APPID
  5
8
100
AcDbSymbolTable
 70
         1
  0
APPID
  5
16
100
AcDbSymbolTableRecord
100
AcDbRegAppTableRecord
  2
ACAD
 70
         0
  0
ENDTAB
  0
TABLE
  2
DIMSTYLE
  5
9
100
AcDbSymbolTable
 70
         1
  0
DIMSTYLE
105
18
100
AcDbSymbolTableRecord
100
AcDbDimStyleTableRecord
  2
MXDIMSTYLE
 70
         0
  3

  4

  5

  6
_OPEN30
  7
_OPEN30
 40
1.0
 41
2.5
 42
0.0
 43
3.75
 44
2.5
 45
0.0
 46
0.0
 47
0.0
 48
0.0
 71
         0
 72
         0
 73
         0
 74
         0
 75
         0
 76
         0
 77
         1
 78
         8
140
3.2000000477
141
2.5
142
0.0
143
0.0393700787
144
1.0
145
0.0
146
1.0
147
1.0
170
         0
171
         4
172
         1
173
         1
174
         0
175
         0
176
         0
177
         0
178
         0
270
         2
271
         2
272
         2
273
         2
274
         4
275
         0
280
         0
281
         0
282
         0
283
         0
284
         0
285
         0
286
         0
287
         3
288
         0
340
17
  0
ENDTAB
  0
TABLE
  2
BLOCK_RECORD
  5
1
100
AcDbSymbolTable
 70
         1
  0
BLOCK_RECORD
  5
A
100
AcDbSymbolTableRecord
100
AcDbBlockTableRecord
  2
*MODEL_SPACE
  0
BLOCK_RECORD
  5
B
100
AcDbSymbolTableRecord
100
AcDbBlockTableRecord
  2
*PAPER_SPACE
  0
BLOCK_RECORD
  5
1F
100
AcDbSymbolTableRecord
100
AcDbBlockTableRecord
  2
_OPEN30
  0
ENDTAB
  0
ENDSEC
  0
SECTION
  2
BLOCKS
  0
BLOCK
  5
D
100
AcDbEntity
  8
0
100
AcDbBlockBegin
  2
*MODEL_SPACE
 70
         0
 10
0.0
 20
0.0
 30
0.0
  3
*MODEL_SPACE
  1

  0
ENDBLK
  5
E
100
AcDbEntity
  8
0
100
AcDbBlockEnd
  0
BLOCK
  5
F
100
AcDbEntity
 67
         1
  8
0
100
AcDbBlockBegin
  2
*PAPER_SPACE
 70
         0
 10
0.0
 20
0.0
 30
0.0
  3
*PAPER_SPACE
  1

  0
ENDBLK
  5
10
100
AcDbEntity
 67
         1
  8
0
100
AcDbBlockEnd
  0
BLOCK
  5
20
100
AcDbEntity
  8
0
  6
ByBlock
 62
         0
100
AcDbBlockBegin
  2
_OPEN30
 70
         2
 10
0.0
 20
0.0
 30
0.0
  3
_OPEN30
  1

  0
LINE
  5
21
100
AcDbEntity
  8
0
  6
ByBlock
 62
         0
100
AcDbLine
 10
-1.0
 20
0.267949
 30
0.0
 11
0.0
 21
0.0
 31
0.0
  0
LINE
  5
22
100
AcDbEntity
  8
0
  6
ByBlock
 62
         0
100
AcDbLine
 10
0.0
 20
0.0
 30
0.0
 11
-1.0
 21
-0.267949
 31
0.0
  0
LINE
  5
23
100
AcDbEntity
  8
0
  6
ByBlock
 62
         0
100
AcDbLine
 10
0.0
 20
0.0
 30
0.0
 11
-1.0
 21
0.0
 31
0.0
  0
ENDBLK
  5
24
100
AcDbEntity
  8
0
  6
ByBlock
 62
         0
100
AcDbBlockEnd
  0
ENDSEC
  0
SECTION
  2
ENTITIES
  0
MTEXT
  5
25
100
AcDbEntity
  8
LY_3
  6
CONTINUOUS
 62
       110
100
AcDbMText
 10
-147.446440963
 20
117.7423578659
 30
0.0
 40
13.1499996185
 41
0.0
 71
         1
 72
         1
  1
\W1.050;\A1;TSUBAKI
  0
POINT
  5
26
100
AcDbEntity
  8
LY_3
  6
CONTINUOUS
 62
        20
100
AcDbPoint
 10
-107.497696
 20
-32.965393
 30
0.0
  0
POINT
  5
27
100
AcDbEntity
  8
LY_3
  6
CONTINUOUS
 62
        20
100
AcDbPoint
 10
-18.497696
 20
-32.965393
 30
0.0
  0
POINT
  5
28
100
AcDbEntity
  8
LY_3
  6
CONTINUOUS
 62
        20
100
AcDbPoint
 10
60.126556
 20
-32.965424
 30
0.0
  0
LINE
  5
29
100
AcDbEntity
  8
LY_3
  6
CONTINUOUS
 62
       251
100
AcDbLine
 10
-107.497696
 20
-10.7659
 30
0.0
 11
-107.497696
 21
-17.215393
 31
0.0
  0
LINE
  5
2A
100
AcDbEntity
  8
LY_3
  6
CONTINUOUS
 62
       251
100
AcDbLine
 10
-75.197693
 20
5.134598
 30
0.0
 11
-75.197693
 21
-10.7659
 31
0.0
  0
LINE
  5
2B
100
AcDbEntity
  8
LY_3
  6
CONTINUOUS
 62
       251
100
AcDbLine
 10
-75.197693
 20
-3.194397
 30
0.0
 11
-50.797699
 21
-3.194397
 31
0.0
  0
LINE
  5
2C
100
AcDbEntity
  8
LY_3
  6
CONTINUOUS
 62
       251
100
AcDbLine
 10
-107.497696
 20
-10.7659
 30
0.0
 11
-75.197678
 21
-10.7659
 31
0.0
  0
LINE
  5
2D
100
AcDbEntity
  8
LY_3
  6
CONTINUOUS
 62
       251
100
AcDbLine
 10
-105.997696
 20
21.034607
 30
0.0
 11
-105.997696
 21
-10.740402
 31
0.0
  0
LINE
  5
2E
100
AcDbEntity
  8
LY_3
  6
CONTINUOUS
 62
       251
100
AcDbLine
 10
-104.197678
 20
5.134598
 30
0.0
 11
-104.197678
 21
-10.7659
 31
0.0
  0
LINE
  5
2F
100
AcDbEntity
  8
LY_3
  6
CONTINUOUS
 62
       251
100
AcDbLine
 10
-91.947693
 20
1.7146
 30
0.0
 11
-89.485687
 21
1.7146
 31
0.0
  0
LINE
  5
30
100
AcDbEntity
  8
LY_3
  6
CONTINUOUS
 62
       251
100
AcDbLine
 10
-75.197693
 20
-55.164886
 30
0.0
 11
-75.197693
 21
-71.065384
 31
0.0
  0
LINE
  5
31
100
AcDbEntity
  8
LY_3
  6
CONTINUOUS
 62
       251
100
AcDbLine
 10
-50.797699
 20
-62.736389
 30
0.0
 11
-75.197693
 21
-62.736389
 31
0.0
  0
LINE
  5
32
100
AcDbEntity
  8
LY_3
  6
CONTINUOUS
 62
       251
100
AcDbLine
 10
-75.197678
 20
-55.164886
 30
0.0
 11
-107.497696
 21
-55.164886
 31
0.0
  0
LINE
  5
33
100
AcDbEntity
  8
LY_3
  6
CONTINUOUS
 62
       251
100
AcDbLine
 10
-107.497696
 20
-48.715393
 30
0.0
 11
-107.497696
 21
-55.164886
 31
0.0
  0
LINE
  5
34
100
AcDbEntity
  8
LY_3
  6
CONTINUOUS
 62
       251
100
AcDbLine
 10
-105.997696
 20
-55.164886
 30
0.0
 11
-105.997696
 21
-86.965393
 31
0.0
  0
LINE
  5
35
100
AcDbEntity
  8
LY_3
  6
CONTINUOUS
 62
       251
100
AcDbLine
 10
-91.947693
 20
-71.065384
 30
0.0
 11
-105.997696
 21
-71.065384
 31
0.0
  0
LINE
  5
36
100
AcDbEntity
  8
LY_3
  6
CONTINUOUS
 62
       251
100
AcDbLine
 10
-104.197678
 20
-55.164886
 30
0.0
 11
-104.197678
 21
-71.065384
 31
0.0
  0
LINE
  5
37
100
AcDbEntity
  8
LY_3
  6
CONTINUOUS
 62
       251
100
AcDbLine
 10
-91.947693
 20
-55.164886
 30
0.0
 11
-91.947693
 21
-73.365387
 31
0.0
  0
LINE
  5
38
100
AcDbEntity
  8
LY_3
  6
CONTINUOUS
 62
       251
100
AcDbLine
 10
-89.485687
 20
-73.365387
 30
0.0
 11
-91.947693
 21
-73.365387
 31
0.0
  0
LINE
  5
39
100
AcDbEntity
  8
LY_3
  6
CONTINUOUS
 62
       251
100
AcDbLine
 10
-89.485687
 20
-67.645386
 30
0.0
 11
-91.947693
 21
-67.645386
 31
0.0
  0
LINE
  5
3A
100
AcDbEntity
  8
LY_3
  6
CONTINUOUS
 62
       251
100
AcDbLine
 10
-18.497696
 20
-17.215393
 30
0.0
 11
-18.497696
 21
-10.7659
 31
0.0
  0
LINE
  5
3B
100
AcDbEntity
  8
LY_3
  6
CONTINUOUS
 62
       251
100
AcDbLine
 10
-50.797699
 20
-10.7659
 30
0.0
 11
-50.797699
 21
5.134598
 31
0.0
  0
LINE
  5
3C
100
AcDbEntity
  8
LY_3
  6
CONTINUOUS
 62
       251
100
AcDbLine
 10
-50.797699
 20
-10.7659
 30
0.0
 11
-18.497696
 21
-10.7659
 31
0.0
  0
LINE
  5
3D
100
AcDbEntity
  8
LY_3
  6
CONTINUOUS
 62
       251
100
AcDbLine
 10
-107.497696
 20
-14.215393
 30
0.0
 11
-18.497696
 21
-14.215393
 31
0.0
  0
LINE
  5
3E
100
AcDbEntity
  8
LY_3
  6
CONTINUOUS
 62
       251
100
AcDbLine
 10
-105.997696
 20
21.034607
 30
0.0
 11
-19.997696
 21
21.034607
 31
0.0
  0
LINE
  5
3F
100
AcDbEntity
  8
LY_3
  6
CONTINUOUS
 62
       251
100
AcDbLine
 10
-19.997696
 20
-10.7659
 30
0.0
 11
-19.997696
 21
21.034607
 31
0.0
  0
LINE
  5
40
100
AcDbEntity
  8
LY_3
  6
CONTINUOUS
 62
       251
100
AcDbLine
 10
-34.047699
 20
5.134598
 30
0.0
 11
-19.997696
 21
5.134598
 31
0.0
  0
LINE
  5
41
100
AcDbEntity
  8
LY_3
  6
CONTINUOUS
 62
       251
100
AcDbLine
 10
-21.797714
 20
-10.7659
 30
0.0
 11
-21.797714
 21
5.134598
 31
0.0
  0
LINE
  5
42
100
AcDbEntity
  8
LY_3
  6
CONTINUOUS
 62
       251
100
AcDbLine
 10
-34.047699
 20
-10.7659
 30
0.0
 11
-34.047699
 21
7.434601
 31
0.0
  0
LINE
  5
43
100
AcDbEntity
  8
LY_3
  6
CONTINUOUS
 62
       251
100
AcDbLine
 10
-36.509689
 20
7.434601
 30
0.0
 11
-34.047699
 21
7.434601
 31
0.0
  0
LINE
  5
44
100
AcDbEntity
  8
LY_3
  6
CONTINUOUS
 62
       251
100
AcDbLine
 10
-36.509689
 20
1.7146
 30
0.0
 11
-34.047699
 21
1.7146
 31
0.0
  0
LINE
  5
45
100
AcDbEntity
  8
LY_3
  6
CONTINUOUS
 62
       251
100
AcDbLine
 10
-50.797699
 20
-71.065384
 30
0.0
 11
-50.797699
 21
-55.164886
 31
0.0
  0
LINE
  5
46
100
AcDbEntity
  8
LY_3
  6
CONTINUOUS
 62
       251
100
AcDbLine
 10
-18.497696
 20
-55.164886
 30
0.0
 11
-50.797699
 21
-55.164886
 31
0.0
  0
LINE
  5
47
100
AcDbEntity
  8
LY_3
  6
CONTINUOUS
 62
       251
100
AcDbLine
 10
-18.497696
 20
-48.715393
 30
0.0
 11
-107.497696
 21
-48.715393
 31
0.0
  0
LINE
  5
48
100
AcDbEntity
  8
LY_3
  6
CONTINUOUS
 62
       251
100
AcDbLine
 10
-18.497696
 20
-55.164886
 30
0.0
 11
-18.497696
 21
-48.715393
 31
0.0
  0
LINE
  5
49
100
AcDbEntity
  8
LY_3
  6
CONTINUOUS
 62
       251
100
AcDbLine
 10
-19.997696
 20
-86.965393
 30
0.0
 11
-105.997696
 21
-86.965393
 31
0.0
  0
LINE
  5
4A
100
AcDbEntity
  8
LY_3
  6
CONTINUOUS
 62
       251
100
AcDbLine
 10
-19.997696
 20
-86.965393
 30
0.0
 11
-19.997696
 21
-55.164886
 31
0.0
  0
LINE
  5
4B
100
AcDbEntity
  8
LY_3
  6
CONTINUOUS
 62
       251
100
AcDbLine
 10
-19.997696
 20
-71.065384
 30
0.0
 11
-34.047699
 21
-71.065384
 31
0.0
  0
LINE
  5
4C
100
AcDbEntity
  8
LY_3
  6
CONTINUOUS
 62
       251
100
AcDbLine
 10
-21.797714
 20
-71.065384
 30
0.0
 11
-21.797714
 21
-55.164886
 31
0.0
  0
LINE
  5
4D
100
AcDbEntity
  8
LY_3
  6
CONTINUOUS
 62
       251
100
AcDbLine
 10
-34.047699
 20
-73.365387
 30
0.0
 11
-34.047699
 21
-55.164886
 31
0.0
  0
LINE
  5
4E
100
AcDbEntity
  8
LY_3
  6
CONTINUOUS
 62
       251
100
AcDbLine
 10
-34.047699
 20
-73.365387
 30
0.0
 11
-36.509689
 21
-73.365387
 31
0.0
  0
LINE
  5
4F
100
AcDbEntity
  8
LY_3
  6
CONTINUOUS
 62
       251
100
AcDbLine
 10
-34.047699
 20
-67.645386
 30
0.0
 11
-36.509689
 21
-67.645386
 31
0.0
  0
LINE
  5
51
100
AcDbEntity
  8
LY_3
  6
DASHED
 62
         7
100
AcDbLine
 10
113.819519
 20
-38.715393
 30
0.0
 11
107.626541
 21
-38.715393
 31
0.0
  0
LINE
  5
52
100
AcDbEntity
  8
LY_3
  6
DASHED
 62
         7
100
AcDbLine
 10
113.819519
 20
-27.215485
 30
0.0
 11
107.626541
 21
-27.215485
 31
0.0
  0
LINE
  5
53
100
AcDbEntity
  8
LY_3
  6
DASHED
 62
         7
100
AcDbLine
 10
107.626541
 20
-27.215485
 30
0.0
 11
107.626541
 21
-38.715393
 31
0.0
  0
LINE
  5
54
100
AcDbEntity
  8
LY_3
  6
DASHED
 62
         7
100
AcDbLine
 10
107.626541
 20
-35.965393
 30
0.0
 11
98.108246
 21
-35.965393
 31
0.0
  0
LINE
  5
55
100
AcDbEntity
  8
LY_3
  6
DASHED
 62
         7
100
AcDbLine
 10
107.626541
 20
-29.965485
 30
0.0
 11
98.108246
 21
-29.965485
 31
0.0
  0
LINE
  5
56
100
AcDbEntity
  8
LY_3
  6
DASHED
 62
         7
100
AcDbLine
 10
107.626541
 20
-35.420395
 30
0.0
 11
98.147369
 21
-35.420395
 31
0.0
  0
LINE
  5
57
100
AcDbEntity
  8
LY_3
  6
DASHED
 62
         7
100
AcDbLine
 10
107.626541
 20
-30.510498
 30
0.0
 11
98.147369
 21
-30.510498
 31
0.0
  0
LINE
  5
58
100
AcDbEntity
  8
LY_3
  6
DASHED
 62
         7
100
AcDbLine
 10
110.426529
 20
-32.365494
 30
0.0
 11
110.426529
 21
-33.56546
 31
0.0
  0
LINE
  5
59
100
AcDbEntity
  8
LY_3
  6
DASHED
 62
         7
100
AcDbLine
 10
112.826538
 20
-33.56546
 30
0.0
 11
110.426529
 21
-33.56546
 31
0.0
  0
LINE
  5
5A
100
AcDbEntity
  8
LY_3
  6
DASHED
 62
         7
100
AcDbLine
 10
112.826538
 20
-32.365494
 30
0.0
 11
110.426529
 21
-32.365494
 31
0.0
  0
LINE
  5
5B
100
AcDbEntity
  8
LY_3
  6
CONTINUOUS
 62
       251
100
AcDbLine
 10
56.626556
 20
-17.609207
 30
0.0
 11
56.626556
 21
-14.215393
 31
0.0
  0
LINE
  5
5C
100
AcDbEntity
  8
LY_3
  6
CONTINUOUS
 62
       251
100
AcDbLine
 10
63.626556
 20
-14.215393
 30
0.0
 11
63.626556
 21
-17.609207
 31
0.0
  0
LINE
  5
5D
100
AcDbEntity
  8
LY_3
  6
CONTINUOUS
 62
       251
100
AcDbLine
 10
56.626556
 20
-14.215393
 30
0.0
 11
63.626556
 21
-14.215393
 31
0.0
  0
LINE
  5
5E
100
AcDbEntity
  8
LY_3
  6
CONTINUOUS
 62
       251
100
AcDbLine
 10
-105.997696
 20
5.134598
 30
0.0
 11
-91.947693
 21
5.134598
 31
0.0
  0
LINE
  5
5F
100
AcDbEntity
  8
LY_3
  6
CONTINUOUS
 62
       251
100
AcDbLine
 10
-91.947693
 20
7.434601
 30
0.0
 11
-91.947693
 21
-10.7659
 31
0.0
  0
LINE
  5
60
100
AcDbEntity
  8
LY_3
  6
CONTINUOUS
 62
       251
100
AcDbLine
 10
-91.947693
 20
7.434601
 30
0.0
 11
-89.485687
 21
7.434601
 31
0.0
  0
LINE
  5
62
100
AcDbEntity
  8
LY_3
  6
CENTER
 62
         7
100
AcDbLine
 10
-93.697678
 20
23.046844
 30
0.0
 11
-93.697678
 21
3.873459
 31
0.0
  0
LINE
  5
63
100
AcDbEntity
  8
LY_3
  6
CONTINUOUS
 62
       251
100
AcDbLine
 10
-87.947678
 20
21.034607
 30
0.0
 11
-87.947678
 21
14.534607
 31
0.0
  0
LINE
  5
64
100
AcDbEntity
  8
LY_3
  6
CONTINUOUS
 62
       251
100
AcDbLine
 10
-99.447678
 20
21.034607
 30
0.0
 11
-99.447678
 21
14.534607
 31
0.0
  0
LINE
  5
65
100
AcDbEntity
  8
LY_3
  6
CONTINUOUS
 62
       251
100
AcDbLine
 10
-99.447678
 20
14.534607
 30
0.0
 11
-87.947678
 21
14.534607
 31
0.0
  0
LINE
  5
66
100
AcDbEntity
  8
LY_3
  6
CONTINUOUS
 62
         7
100
AcDbLine
 10
-90.697678
 20
14.534607
 30
0.0
 11
-90.697678
 21
7.434601
 31
0.0
  0
LINE
  5
67
100
AcDbEntity
  8
LY_3
  6
CONTINUOUS
 62
         7
100
AcDbLine
 10
-96.697678
 20
14.534607
 30
0.0
 11
-96.697678
 21
5.134598
 31
0.0
  0
LINE
  5
68
100
AcDbEntity
  8
LY_3
  6
CONTINUOUS
 62
       251
100
AcDbLine
 10
-91.242676
 20
14.534607
 30
0.0
 11
-91.242676
 21
7.434601
 31
0.0
  0
LINE
  5
69
100
AcDbEntity
  8
LY_3
  6
CONTINUOUS
 62
       251
100
AcDbLine
 10
-96.152664
 20
14.534607
 30
0.0
 11
-96.152664
 21
5.134598
 31
0.0
  0
LINE
  5
6A
100
AcDbEntity
  8
LY_3
  6
CONTINUOUS
 62
       251
100
AcDbLine
 10
-94.297668
 20
17.334595
 30
0.0
 11
-93.097672
 21
17.334595
 31
0.0
  0
LINE
  5
6B
100
AcDbEntity
  8
LY_3
  6
CONTINUOUS
 62
       251
100
AcDbLine
 10
-93.097672
 20
19.734604
 30
0.0
 11
-93.097672
 21
17.334595
 31
0.0
  0
LINE
  5
6C
100
AcDbEntity
  8
LY_3
  6
CONTINUOUS
 62
       251
100
AcDbLine
 10
-94.297668
 20
19.734604
 30
0.0
 11
-94.297668
 21
17.334595
 31
0.0
  0
LINE
  5
6D
100
AcDbEntity
  8
LY_3
  6
DASHED
 62
         7
100
AcDbLine
 10
65.876556
 20
20.727585
 30
0.0
 11
65.876556
 21
14.534607
 31
0.0
  0
LINE
  5
6E
100
AcDbEntity
  8
LY_3
  6
DASHED
 62
         7
100
AcDbLine
 10
54.376556
 20
20.727585
 30
0.0
 11
54.376556
 21
14.534607
 31
0.0
  0
LINE
  5
6F
100
AcDbEntity
  8
LY_3
  6
DASHED
 62
         7
100
AcDbLine
 10
54.376556
 20
14.534607
 30
0.0
 11
65.876556
 21
14.534607
 31
0.0
  0
LINE
  5
70
100
AcDbEntity
  8
LY_3
  6
DASHED
 62
         7
100
AcDbLine
 10
63.126556
 20
14.534607
 30
0.0
 11
63.126556
 21
5.016296
 31
0.0
  0
LINE
  5
71
100
AcDbEntity
  8
LY_3
  6
DASHED
 62
         7
100
AcDbLine
 10
57.126556
 20
14.534607
 30
0.0
 11
57.126556
 21
5.016296
 31
0.0
  0
LINE
  5
72
100
AcDbEntity
  8
LY_3
  6
DASHED
 62
         7
100
AcDbLine
 10
62.581558
 20
14.534607
 30
0.0
 11
62.581558
 21
5.05542
 31
0.0
  0
LINE
  5
73
100
AcDbEntity
  8
LY_3
  6
DASHED
 62
         7
100
AcDbLine
 10
57.67157
 20
14.534607
 30
0.0
 11
57.67157
 21
5.05542
 31
0.0
  0
LINE
  5
74
100
AcDbEntity
  8
LY_3
  6
DASHED
 62
         7
100
AcDbLine
 10
59.526566
 20
17.334595
 30
0.0
 11
60.726563
 21
17.334595
 31
0.0
  0
LINE
  5
75
100
AcDbEntity
  8
LY_3
  6
DASHED
 62
         7
100
AcDbLine
 10
60.726563
 20
19.734604
 30
0.0
 11
60.726563
 21
17.334595
 31
0.0
  0
LINE
  5
76
100
AcDbEntity
  8
LY_3
  6
DASHED
 62
         7
100
AcDbLine
 10
59.526566
 20
19.734604
 30
0.0
 11
59.526566
 21
17.334595
 31
0.0
  0
LINE
  5
77
100
AcDbEntity
  8
LY_3
  6
DASHED
 62
         7
100
AcDbLine
 10
6.433578
 20
-27.215485
 30
0.0
 11
12.626556
 21
-27.215485
 31
0.0
  0
LINE
  5
78
100
AcDbEntity
  8
LY_3
  6
DASHED
 62
         7
100
AcDbLine
 10
6.433578
 20
-38.715393
 30
0.0
 11
12.626556
 21
-38.715393
 31
0.0
  0
LINE
  5
79
100
AcDbEntity
  8
LY_3
  6
DASHED
 62
         7
100
AcDbLine
 10
12.626556
 20
-38.715393
 30
0.0
 11
12.626556
 21
-27.215485
 31
0.0
  0
LINE
  5
7A
100
AcDbEntity
  8
LY_3
  6
DASHED
 62
         7
100
AcDbLine
 10
12.626556
 20
-29.965485
 30
0.0
 11
22.144867
 21
-29.965485
 31
0.0
  0
LINE
  5
7B
100
AcDbEntity
  8
LY_3
  6
DASHED
 62
         7
100
AcDbLine
 10
12.626556
 20
-35.965393
 30
0.0
 11
22.144867
 21
-35.965393
 31
0.0
  0
LINE
  5
7C
100
AcDbEntity
  8
LY_3
  6
DASHED
 62
         7
100
AcDbLine
 10
12.626556
 20
-30.510483
 30
0.0
 11
22.105743
 21
-30.510483
 31
0.0
  0
LINE
  5
7D
100
AcDbEntity
  8
LY_3
  6
DASHED
 62
         7
100
AcDbLine
 10
12.626556
 20
-35.42038
 30
0.0
 11
22.105743
 21
-35.42038
 31
0.0
  0
LINE
  5
7E
100
AcDbEntity
  8
LY_3
  6
DASHED
 62
         7
100
AcDbLine
 10
9.826569
 20
-33.565445
 30
0.0
 11
9.826569
 21
-32.365479
 31
0.0
  0
LINE
  5
7F
100
AcDbEntity
  8
LY_3
  6
DASHED
 62
         7
100
AcDbLine
 10
7.426559
 20
-32.365479
 30
0.0
 11
9.826569
 21
-32.365479
 31
0.0
  0
LINE
  5
80
100
AcDbEntity
  8
LY_3
  6
DASHED
 62
         7
100
AcDbLine
 10
7.426559
 20
-33.565445
 30
0.0
 11
9.826569
 21
-33.565445
 31
0.0
  0
LINE
  5
81
100
AcDbEntity
  8
LY_3
  6
DASHED
 62
         7
100
AcDbLine
 10
54.376556
 20
-86.65834
 30
0.0
 11
54.376556
 21
-80.465363
 31
0.0
  0
LINE
  5
82
100
AcDbEntity
  8
LY_3
  6
DASHED
 62
         7
100
AcDbLine
 10
65.876541
 20
-86.65834
 30
0.0
 11
65.876541
 21
-80.465363
 31
0.0
  0
LINE
  5
83
100
AcDbEntity
  8
LY_3
  6
DASHED
 62
         7
100
AcDbLine
 10
65.876541
 20
-80.465363
 30
0.0
 11
54.376556
 21
-80.465363
 31
0.0
  0
LINE
  5
84
100
AcDbEntity
  8
LY_3
  6
DASHED
 62
         7
100
AcDbLine
 10
57.126556
 20
-80.465363
 30
0.0
 11
57.126556
 21
-70.947067
 31
0.0
  0
LINE
  5
85
100
AcDbEntity
  8
LY_3
  6
DASHED
 62
         7
100
AcDbLine
 10
63.126541
 20
-80.465363
 30
0.0
 11
63.126541
 21
-70.947067
 31
0.0
  0
LINE
  5
86
100
AcDbEntity
  8
LY_3
  6
DASHED
 62
         7
100
AcDbLine
 10
57.671555
 20
-80.465363
 30
0.0
 11
57.671555
 21
-70.986191
 31
0.0
  0
LINE
  5
87
100
AcDbEntity
  8
LY_3
  6
DASHED
 62
         7
100
AcDbLine
 10
62.581528
 20
-80.465363
 30
0.0
 11
62.581528
 21
-70.986191
 31
0.0
  0
LINE
  5
88
100
AcDbEntity
  8
LY_3
  6
DASHED
 62
         7
100
AcDbLine
 10
60.726532
 20
-83.26535
 30
0.0
 11
59.52655
 21
-83.26535
 31
0.0
  0
LINE
  5
89
100
AcDbEntity
  8
LY_3
  6
DASHED
 62
         7
100
AcDbLine
 10
59.52655
 20
-85.665359
 30
0.0
 11
59.52655
 21
-83.26535
 31
0.0
  0
LINE
  5
8A
100
AcDbEntity
  8
LY_3
  6
DASHED
 62
         7
100
AcDbLine
 10
60.726532
 20
-85.665359
 30
0.0
 11
60.726532
 21
-83.26535
 31
0.0
  0
LINE
  5
8B
100
AcDbEntity
  8
LY_3
  6
CENTER
 62
         7
100
AcDbLine
 10
87.239105
 20
-5.85275
 30
0.0
 11
98.160881
 21
5.069026
 31
0.0
  0
LINE
  5
8C
100
AcDbEntity
  8
LY_3
  6
CENTER
 62
         7
100
AcDbLine
 10
22.09211
 20
5.068965
 30
0.0
 11
33.013868
 21
-5.852793
 31
0.0
  0
LINE
  5
8D
100
AcDbEntity
  8
LY_3
  6
CENTER
 62
         7
100
AcDbLine
 10
98.432919
 20
-71.271866
 30
0.0
 11
87.239094
 21
-60.078041
 31
0.0
  0
LINE
  5
8E
100
AcDbEntity
  8
LY_3
  6
CENTER
 62
         7
100
AcDbLine
 10
33.013835
 20
-60.07802
 30
0.0
 11
22.09207
 21
-70.999785
 31
0.0
  0
LINE
  5
8F
100
AcDbEntity
  8
LY_3
  6
CONTINUOUS
 62
       251
100
AcDbLine
 10
-94.697678
 20
-71.065384
 30
0.0
 11
-94.697678
 21
-55.164886
 31
0.0
  0
LINE
  5
90
100
AcDbEntity
  8
LY_3
  6
CONTINUOUS
 62
       251
100
AcDbLine
 10
-96.122665
 20
-68.680298
 30
0.0
 11
-102.772675
 21
-68.680298
 31
0.0
  0
LINE
  5
91
100
AcDbEntity
  8
LY_3
  6
CONTINUOUS
 62
       251
100
AcDbLine
 10
-102.772675
 20
-68.680298
 30
0.0
 11
-102.772675
 21
-60.253036
 31
0.0
  0
LINE
  5
92
100
AcDbEntity
  8
LY_3
  6
CONTINUOUS
 62
       251
100
AcDbLine
 10
-102.77266
 20
-60.252998
 30
0.0
 11
-97.975152
 21
-55.164842
 31
0.0
  0
LINE
  5
93
100
AcDbEntity
  8
LY_3
  6
CONTINUOUS
 62
       251
100
AcDbLine
 10
-97.975184
 20
-55.164851
 30
0.0
 11
-96.407679
 21
-57.549933
 31
0.0
  0
LINE
  5
94
100
AcDbEntity
  8
LY_3
  6
CONTINUOUS
 62
       251
100
AcDbLine
 10
-94.697678
 20
5.134598
 30
0.0
 11
-94.697678
 21
-10.7659
 31
0.0
  0
LINE
  5
95
100
AcDbEntity
  8
LY_3
  6
CONTINUOUS
 62
       251
100
AcDbLine
 10
-96.122665
 20
2.749512
 30
0.0
 11
-102.772675
 21
2.749512
 31
0.0
  0
LINE
  5
96
100
AcDbEntity
  8
LY_3
  6
CONTINUOUS
 62
       251
100
AcDbLine
 10
-102.772675
 20
2.749512
 30
0.0
 11
-102.772675
 21
-5.67775
 31
0.0
  0
LINE
  5
97
100
AcDbEntity
  8
LY_3
  6
CONTINUOUS
 62
       251
100
AcDbLine
 10
-102.772635
 20
-5.677776
 30
0.0
 11
-97.975128
 21
-10.765932
 31
0.0
  0
LINE
  5
98
100
AcDbEntity
  8
LY_3
  6
CONTINUOUS
 62
       251
100
AcDbLine
 10
-97.975196
 20
-10.765919
 30
0.0
 11
-96.407691
 21
-8.380838
 31
0.0
  0
LINE
  5
99
100
AcDbEntity
  8
LY_3
  6
CONTINUOUS
 62
       251
100
AcDbLine
 10
-31.297684
 20
5.134567
 30
0.0
 11
-31.297684
 21
-10.765929
 31
0.0
  0
LINE
  5
9A
100
AcDbEntity
  8
LY_3
  6
CONTINUOUS
 62
       251
100
AcDbLine
 10
-29.872681
 20
2.749481
 30
0.0
 11
-23.222672
 21
2.749481
 31
0.0
  0
LINE
  5
9B
100
AcDbEntity
  8
LY_3
  6
CONTINUOUS
 62
       251
100
AcDbLine
 10
-23.222672
 20
2.749481
 30
0.0
 11
-23.222672
 21
-5.677779
 31
0.0
  0
LINE
  5
9C
100
AcDbEntity
  8
LY_3
  6
CONTINUOUS
 62
       251
100
AcDbLine
 10
-23.222725
 20
-5.677775
 30
0.0
 11
-28.020232
 21
-10.765931
 31
0.0
  0
LINE
  5
9D
100
AcDbEntity
  8
LY_3
  6
CONTINUOUS
 62
       251
100
AcDbLine
 10
-28.020152
 20
-10.76592
 30
0.0
 11
-29.587658
 21
-8.380839
 31
0.0
  0
LINE
  5
9E
100
AcDbEntity
  8
LY_3
  6
CONTINUOUS
 62
       251
100
AcDbLine
 10
-31.297684
 20
-71.065369
 30
0.0
 11
-31.297684
 21
-55.164871
 31
0.0
  0
LINE
  5
9F
100
AcDbEntity
  8
LY_3
  6
CONTINUOUS
 62
       251
100
AcDbLine
 10
-29.872681
 20
-68.680283
 30
0.0
 11
-23.222672
 21
-68.680283
 31
0.0
  0
LINE
  5
A0
100
AcDbEntity
  8
LY_3
  6
CONTINUOUS
 62
       251
100
AcDbLine
 10
-23.222672
 20
-68.680283
 30
0.0
 11
-23.222672
 21
-60.253021
 31
0.0
  0
LINE
  5
A1
100
AcDbEntity
  8
LY_3
  6
CONTINUOUS
 62
       251
100
AcDbLine
 10
-23.222695
 20
-60.252994
 30
0.0
 11
-28.020202
 21
-55.164838
 31
0.0
  0
LINE
  5
A2
100
AcDbEntity
  8
LY_3
  6
CONTINUOUS
 62
       251
100
AcDbLine
 10
-28.020165
 20
-55.164832
 30
0.0
 11
-29.58767
 21
-57.549914
 31
0.0
  0
LINE
  5
A3
100
AcDbEntity
  8
LY_3
  6
CONTINUOUS
 62
       251
100
AcDbLine
 10
-89.485687
 20
7.434601
 30
0.0
 11
-89.485687
 21
-10.7659
 31
0.0
  0
LINE
  5
A4
100
AcDbEntity
  8
LY_3
  6
CONTINUOUS
 62
       251
100
AcDbLine
 10
-89.485687
 20
-5.465393
 30
0.0
 11
-85.424362
 21
-5.465393
 31
0.0
  0
LINE
  5
A5
100
AcDbEntity
  8
LY_3
  6
CONTINUOUS
 62
       251
100
AcDbLine
 10
-89.485687
 20
-0.465393
 30
0.0
 11
-85.424362
 21
-0.465393
 31
0.0
  0
LINE
  5
A6
100
AcDbEntity
  8
LY_3
  6
CONTINUOUS
 62
       251
100
AcDbLine
 10
-79.258987
 20
-5.465393
 30
0.0
 11
-75.197693
 21
-5.465393
 31
0.0
  0
LINE
  5
A7
100
AcDbEntity
  8
LY_3
  6
CONTINUOUS
 62
       251
100
AcDbLine
 10
-79.258987
 20
-0.465393
 30
0.0
 11
-75.197693
 21
-0.465393
 31
0.0
  0
LINE
  5
A8
100
AcDbEntity
  8
LY_3
  6
CONTINUOUS
 62
       251
100
AcDbLine
 10
-89.485687
 20
-55.164886
 30
0.0
 11
-89.485687
 21
-73.365387
 31
0.0
  0
LINE
  5
A9
100
AcDbEntity
  8
LY_3
  6
CONTINUOUS
 62
       251
100
AcDbLine
 10
-85.424362
 20
-60.465393
 30
0.0
 11
-89.485687
 21
-60.465393
 31
0.0
  0
LINE
  5
AA
100
AcDbEntity
  8
LY_3
  6
CONTINUOUS
 62
       251
100
AcDbLine
 10
-85.424362
 20
-65.465393
 30
0.0
 11
-89.485687
 21
-65.465393
 31
0.0
  0
LINE
  5
AB
100
AcDbEntity
  8
LY_3
  6
CONTINUOUS
 62
       251
100
AcDbLine
 10
-75.197678
 20
-60.465393
 30
0.0
 11
-79.258987
 21
-60.465393
 31
0.0
  0
LINE
  5
AC
100
AcDbEntity
  8
LY_3
  6
CONTINUOUS
 62
       251
100
AcDbLine
 10
-75.197678
 20
-65.465393
 30
0.0
 11
-79.258987
 21
-65.465393
 31
0.0
  0
LINE
  5
AD
100
AcDbEntity
  8
LY_3
  6
CONTINUOUS
 62
       251
100
AcDbLine
 10
-50.797699
 20
-5.465393
 30
0.0
 11
-46.736374
 21
-5.465393
 31
0.0
  0
LINE
  5
AE
100
AcDbEntity
  8
LY_3
  6
CONTINUOUS
 62
       251
100
AcDbLine
 10
-50.797699
 20
-0.465393
 30
0.0
 11
-46.736374
 21
-0.465393
 31
0.0
  0
LINE
  5
AF
100
AcDbEntity
  8
LY_3
  6
CONTINUOUS
 62
       251
100
AcDbLine
 10
-40.570999
 20
-5.465393
 30
0.0
 11
-36.509689
 21
-5.465393
 31
0.0
  0
LINE
  5
B0
100
AcDbEntity
  8
LY_3
  6
CONTINUOUS
 62
       251
100
AcDbLine
 10
-40.570999
 20
-0.465393
 30
0.0
 11
-36.509689
 21
-0.465393
 31
0.0
  0
LINE
  5
B1
100
AcDbEntity
  8
LY_3
  6
CONTINUOUS
 62
       251
100
AcDbLine
 10
-36.509689
 20
7.434601
 30
0.0
 11
-36.509689
 21
-10.7659
 31
0.0
  0
LINE
  5
B2
100
AcDbEntity
  8
LY_3
  6
CONTINUOUS
 62
       251
100
AcDbLine
 10
-46.736374
 20
-60.465393
 30
0.0
 11
-50.797699
 21
-60.465393
 31
0.0
  0
LINE
  5
B3
100
AcDbEntity
  8
LY_3
  6
CONTINUOUS
 62
       251
100
AcDbLine
 10
-46.736374
 20
-65.465393
 30
0.0
 11
-50.797699
 21
-65.465393
 31
0.0
  0
LINE
  5
B4
100
AcDbEntity
  8
LY_3
  6
CONTINUOUS
 62
       251
100
AcDbLine
 10
-36.509689
 20
-60.465393
 30
0.0
 11
-40.570999
 21
-60.465393
 31
0.0
  0
LINE
  5
B5
100
AcDbEntity
  8
LY_3
  6
CONTINUOUS
 62
       251
100
AcDbLine
 10
-36.509689
 20
-65.465393
 30
0.0
 11
-40.570999
 21
-65.465393
 31
0.0
  0
LINE
  5
B6
100
AcDbEntity
  8
LY_3
  6
CONTINUOUS
 62
       251
100
AcDbLine
 10
-36.509689
 20
-55.164886
 30
0.0
 11
-36.509689
 21
-73.365387
 31
0.0
  0
LINE
  5
B7
100
AcDbEntity
  8
LY_3
  6
CONTINUOUS
 62
       251
100
AcDbLine
 10
-71.397644
 20
1.1306
 30
0.0
 11
-71.397644
 21
-1.8694
 31
0.0
  0
LINE
  5
B8
100
AcDbEntity
  8
LY_3
  6
CONTINUOUS
 62
       251
100
AcDbLine
 10
-73.497635
 20
5.134598
 30
0.0
 11
-73.497635
 21
2.1306
 31
0.0
  0
LINE
  5
B9
100
AcDbEntity
  8
LY_3
  6
CONTINUOUS
 62
       251
100
AcDbLine
 10
-73.497635
 20
2.1306
 30
0.0
 11
-72.397644
 21
2.1306
 31
0.0
  0
LINE
  5
BA
100
AcDbEntity
  8
LY_3
  6
CONTINUOUS
 62
       251
100
AcDbLine
 10
-73.497635
 20
-1.8694
 30
0.0
 11
-71.397644
 21
-1.8694
 31
0.0
  0
LINE
  5
BB
100
AcDbEntity
  8
LY_3
  6
CONTINUOUS
 62
       251
100
AcDbLine
 10
-73.497635
 20
-0.340393
 30
0.0
 11
-73.497635
 21
-3.124405
 31
0.0
  0
LINE
  5
BC
100
AcDbEntity
  8
LY_3
  6
CONTINUOUS
 62
       251
100
AcDbLine
 10
-71.397644
 20
-64.736389
 30
0.0
 11
-71.397644
 21
-66.736389
 31
0.0
  0
LINE
  5
BD
100
AcDbEntity
  8
LY_3
  6
CONTINUOUS
 62
       251
100
AcDbLine
 10
-73.497635
 20
-62.736389
 30
0.0
 11
-73.497635
 21
-65.590393
 31
0.0
  0
LINE
  5
BE
100
AcDbEntity
  8
LY_3
  6
CONTINUOUS
 62
       251
100
AcDbLine
 10
-71.397644
 20
-64.736389
 30
0.0
 11
-73.497635
 21
-64.736389
 31
0.0
  0
LINE
  5
BF
100
AcDbEntity
  8
LY_3
  6
CONTINUOUS
 62
       251
100
AcDbLine
 10
-72.397644
 20
-67.736389
 30
0.0
 11
-73.497635
 21
-67.736389
 31
0.0
  0
LINE
  5
C0
100
AcDbEntity
  8
LY_3
  6
CONTINUOUS
 62
       251
100
AcDbLine
 10
-73.497635
 20
-67.736389
 30
0.0
 11
-73.497635
 21
-71.065384
 31
0.0
  0
LINE
  5
C1
100
AcDbEntity
  8
LY_3
  6
CONTINUOUS
 62
       251
100
AcDbLine
 10
-75.197693
 20
-65.590393
 30
0.0
 11
-73.497635
 21
-65.590393
 31
0.0
  0
LINE
  5
C2
100
AcDbEntity
  8
LY_3
  6
CONTINUOUS
 62
       251
100
AcDbLine
 10
-54.597748
 20
-1.8694
 30
0.0
 11
-54.597748
 21
1.1306
 31
0.0
  0
LINE
  5
C3
100
AcDbEntity
  8
LY_3
  6
CONTINUOUS
 62
       251
100
AcDbLine
 10
-52.497757
 20
2.1306
 30
0.0
 11
-52.497757
 21
5.134598
 31
0.0
  0
LINE
  5
C4
100
AcDbEntity
  8
LY_3
  6
CONTINUOUS
 62
       251
100
AcDbLine
 10
-53.597748
 20
2.1306
 30
0.0
 11
-52.497757
 21
2.1306
 31
0.0
  0
LINE
  5
C5
100
AcDbEntity
  8
LY_3
  6
CONTINUOUS
 62
       251
100
AcDbLine
 10
-54.597748
 20
-1.8694
 30
0.0
 11
-50.797699
 21
-1.8694
 31
0.0
  0
LINE
  5
C6
100
AcDbEntity
  8
LY_3
  6
CONTINUOUS
 62
       251
100
AcDbLine
 10
-52.497757
 20
-3.194397
 30
0.0
 11
-52.497757
 21
-1.8694
 31
0.0
  0
LINE
  5
C7
100
AcDbEntity
  8
LY_3
  6
CONTINUOUS
 62
       251
100
AcDbLine
 10
-54.597748
 20
-66.736389
 30
0.0
 11
-54.597748
 21
-64.061386
 31
0.0
  0
LINE
  5
C8
100
AcDbEntity
  8
LY_3
  6
CONTINUOUS
 62
       251
100
AcDbLine
 10
-52.497757
 20
-64.061386
 30
0.0
 11
-52.497757
 21
-62.736389
 31
0.0
  0
LINE
  5
C9
100
AcDbEntity
  8
LY_3
  6
CONTINUOUS
 62
       251
100
AcDbLine
 10
-52.497757
 20
-67.736389
 30
0.0
 11
-53.597748
 21
-67.736389
 31
0.0
  0
LINE
  5
CA
100
AcDbEntity
  8
LY_3
  6
CONTINUOUS
 62
       251
100
AcDbLine
 10
-52.497757
 20
-71.065384
 30
0.0
 11
-52.497757
 21
-67.736389
 31
0.0
  0
LINE
  5
CB
100
AcDbEntity
  8
LY_3
  6
CONTINUOUS
 62
       251
100
AcDbLine
 10
-50.797699
 20
-64.065384
 30
0.0
 11
-52.497757
 21
-64.065384
 31
0.0
  0
LINE
  5
CC
100
AcDbEntity
  8
LY_3
  6
CONTINUOUS
 62
       251
100
AcDbLine
 10
-89.485687
 20
5.134598
 30
0.0
 11
-36.509689
 21
5.134598
 31
0.0
  0
LINE
  5
CD
100
AcDbEntity
  8
LY_3
  6
CONTINUOUS
 62
       251
100
AcDbLine
 10
-73.497635
 20
-0.340393
 30
0.0
 11
-75.197693
 21
-0.340393
 31
0.0
  0
LINE
  5
CE
100
AcDbEntity
  8
LY_3
  6
CONTINUOUS
 62
       251
100
AcDbLine
 10
-36.509689
 20
-71.065384
 30
0.0
 11
-89.485687
 21
-71.065384
 31
0.0
  0
LINE
  5
CF
100
AcDbEntity
  8
LY_3
  6
CONTINUOUS
 62
         7
100
AcDbLine
 10
-19.99765
 20
-82.965378
 30
0.0
 11
-35.99765
 21
-82.965378
 31
0.0
  0
LINE
  5
D0
100
AcDbEntity
  8
LY_3
  6
CONTINUOUS
 62
         7
100
AcDbLine
 10
-19.99765
 20
-74.965378
 30
0.0
 11
-35.99765
 21
-74.965378
 31
0.0
  0
LINE
  5
D1
100
AcDbEntity
  8
LY_3
  6
CONTINUOUS
 62
       251
100
AcDbLine
 10
-35.99765
 20
-82.965378
 30
0.0
 11
-35.99765
 21
-74.965378
 31
0.0
  0
LINE
  5
D2
100
AcDbEntity
  8
LY_3
  6
CONTINUOUS
 62
       251
100
AcDbLine
 10
-42.297638
 20
-82.415375
 30
0.0
 11
-42.297638
 21
-75.515366
 31
0.0
  0
LINE
  5
D3
100
AcDbEntity
  8
LY_3
  6
CONTINUOUS
 62
       251
100
AcDbLine
 10
-19.99765
 20
-82.415375
 30
0.0
 11
-42.297638
 21
-82.415375
 31
0.0
  0
LINE
  5
D4
100
AcDbEntity
  8
LY_3
  6
CONTINUOUS
 62
       251
100
AcDbLine
 10
-19.99765
 20
-75.515366
 30
0.0
 11
-42.297638
 21
-75.515366
 31
0.0
  0
LINE
  5
D5
100
AcDbEntity
  8
LY_3
  6
CONTINUOUS
 62
       251
100
AcDbLine
 10
-44.370633
 20
-78.965375
 30
0.0
 11
-42.297663
 21
-82.415376
 31
0.0
  0
LINE
  5
D6
100
AcDbEntity
  8
LY_3
  6
CONTINUOUS
 62
       251
100
AcDbLine
 10
-42.297655
 20
-75.515367
 30
0.0
 11
-44.370625
 21
-78.965369
 31
0.0
  0
LINE
  5
D7
100
AcDbEntity
  8
LY_3
  6
CONTINUOUS
 62
         7
100
AcDbLine
 10
-89.997711
 20
-82.965363
 30
0.0
 11
-105.997711
 21
-82.965363
 31
0.0
  0
LINE
  5
D8
100
AcDbEntity
  8
LY_3
  6
CONTINUOUS
 62
         7
100
AcDbLine
 10
-89.997711
 20
-74.965363
 30
0.0
 11
-105.997711
 21
-74.965363
 31
0.0
  0
LINE
  5
D9
100
AcDbEntity
  8
LY_3
  6
CONTINUOUS
 62
       251
100
AcDbLine
 10
-89.997711
 20
-74.965363
 30
0.0
 11
-89.997711
 21
-82.965363
 31
0.0
  0
LINE
  5
DA
100
AcDbEntity
  8
LY_3
  6
CONTINUOUS
 62
       251
100
AcDbLine
 10
-83.697723
 20
-75.51535
 30
0.0
 11
-83.697723
 21
-82.415359
 31
0.0
  0
LINE
  5
DB
100
AcDbEntity
  8
LY_3
  6
CONTINUOUS
 62
       251
100
AcDbLine
 10
-83.697723
 20
-82.415359
 30
0.0
 11
-105.997711
 21
-82.415359
 31
0.0
  0
LINE
  5
DC
100
AcDbEntity
  8
LY_3
  6
CONTINUOUS
 62
       251
100
AcDbLine
 10
-83.697723
 20
-75.51535
 30
0.0
 11
-105.997711
 21
-75.51535
 31
0.0
  0
LINE
  5
DD
100
AcDbEntity
  8
LY_3
  6
CONTINUOUS
 62
       251
100
AcDbLine
 10
-83.697696
 20
-82.415376
 30
0.0
 11
-81.624725
 21
-78.965375
 31
0.0
  0
LINE
  5
DE
100
AcDbEntity
  8
LY_3
  6
CONTINUOUS
 62
       251
100
AcDbLine
 10
-81.624739
 20
-78.965371
 30
0.0
 11
-83.697709
 21
-75.51537
 31
0.0
  0
LINE
  5
DF
100
AcDbEntity
  8
LY_3
  6
CONTINUOUS
 62
       251
100
AcDbLine
 10
-107.497696
 20
-17.215393
 30
0.0
 11
-18.497696
 21
-17.215393
 31
0.0
  0
LINE
  5
E0
100
AcDbEntity
  8
LY_3
  6
CONTINUOUS
 62
       251
100
AcDbLine
 10
-50.797699
 20
-64.061386
 30
0.0
 11
-54.597748
 21
-64.061386
 31
0.0
  0
ARC
  5
E1
100
AcDbEntity
  8
LY_3
  6
DASHED
 62
         7
100
AcDbCircle
 10
106.693741
 20
-32.965424
 30
0.0
 40
6.132812
100
AcDbArc
 50
290.351086
 51
354.385496
  0
ARC
  5
E2
100
AcDbEntity
  8
LY_3
  6
DASHED
 62
         7
100
AcDbCircle
 10
106.693741
 20
-32.965424
 30
0.0
 40
6.132812
100
AcDbArc
 50
5.614433
 51
69.648969
  0
ARC
  5
E3
100
AcDbEntity
  8
LY_3
  6
CONTINUOUS
 62
       251
100
AcDbCircle
 10
60.126556
 20
-32.965393
 30
0.0
 40
15.75
100
AcDbArc
 50
102.839645
 51
77.160357
  0
CIRCLE
  5
E4
100
AcDbEntity
  8
LY_3
  6
CONTINUOUS
 62
       251
100
AcDbCircle
 10
60.126556
 20
-32.965393
 30
0.0
 40
22.199463
  0
CIRCLE
  5
E5
100
AcDbEntity
  8
LY_3
  6
CONTINUOUS
 62
       251
100
AcDbCircle
 10
60.126556
 20
-32.965393
 30
0.0
 40
38.099991
  0
CIRCLE
  5
E6
100
AcDbEntity
  8
LY_3
  6
CONTINUOUS
 62
       251
100
AcDbCircle
 10
60.126556
 20
-32.965393
 30
0.0
 40
54.0
  0
ARC
  5
E7
100
AcDbEntity
  8
LY_3
  6
CONTINUOUS
 62
       251
100
AcDbCircle
 10
-93.697678
 20
13.601791
 30
0.0
 40
6.132812
100
AcDbArc
 50
20.351023
 51
84.385457
  0
ARC
  5
E8
100
AcDbEntity
  8
LY_3
  6
CONTINUOUS
 62
       251
100
AcDbCircle
 10
-93.697678
 20
13.601791
 30
0.0
 40
6.132812
100
AcDbArc
 50
95.614343
 51
159.648951
  0
ARC
  5
E9
100
AcDbEntity
  8
LY_3
  6
DASHED
 62
         7
100
AcDbCircle
 10
60.126556
 20
13.601791
 30
0.0
 40
6.132812
100
AcDbArc
 50
20.351023
 51
84.385457
  0
ARC
  5
EA
100
AcDbEntity
  8
LY_3
  6
DASHED
 62
         7
100
AcDbCircle
 10
60.126556
 20
13.601791
 30
0.0
 40
6.132812
100
AcDbArc
 50
95.614343
 51
159.648951
  0
ARC
  5
EB
100
AcDbEntity
  8
LY_3
  6
DASHED
 62
         7
100
AcDbCircle
 10
13.559372
 20
-32.965393
 30
0.0
 40
6.132812
100
AcDbArc
 50
110.350995
 51
174.385439
  0
ARC
  5
EC
100
AcDbEntity
  8
LY_3
  6
DASHED
 62
         7
100
AcDbCircle
 10
13.559372
 20
-32.965393
 30
0.0
 40
6.132812
100
AcDbArc
 50
185.614397
 51
249.649005
  0
ARC
  5
ED
100
AcDbEntity
  8
LY_3
  6
DASHED
 62
         7
100
AcDbCircle
 10
60.126541
 20
-79.532578
 30
0.0
 40
6.132812
100
AcDbArc
 50
200.351049
 51
264.385493
  0
ARC
  5
EE
100
AcDbEntity
  8
LY_3
  6
DASHED
 62
         7
100
AcDbCircle
 10
60.126541
 20
-79.532578
 30
0.0
 40
6.132812
100
AcDbArc
 50
275.614433
 51
339.649007
  0
ARC
  5
EF
100
AcDbEntity
  8
LY_3
  6
CENTER
 62
         7
100
AcDbCircle
 10
60.126556
 20
-32.965393
 30
0.0
 40
46.0
100
AcDbArc
 50
36.53696
 51
54.526435
  0
ARC
  5
F0
100
AcDbEntity
  8
LY_3
  6
CENTER
 62
         7
100
AcDbCircle
 10
60.126556
 20
-32.965393
 30
0.0
 40
46.0
100
AcDbArc
 50
125.473526
 51
143.462987
  0
ARC
  5
F1
100
AcDbEntity
  8
LY_3
  6
CENTER
 62
         7
100
AcDbCircle
 10
60.126541
 20
-32.965408
 30
0.0
 40
46.0
100
AcDbArc
 50
305.473565
 51
323.46304
  0
ARC
  5
F2
100
AcDbEntity
  8
LY_3
  6
CENTER
 62
         7
100
AcDbCircle
 10
60.126541
 20
-32.965408
 30
0.0
 40
46.0
100
AcDbArc
 50
216.537013
 51
234.526474
  0
CIRCLE
  5
F3
100
AcDbEntity
  8
LY_3
  6
CONTINUOUS
 62
       251
100
AcDbCircle
 10
-82.341675
 20
-2.965393
 30
0.0
 40
3.969
  0
CIRCLE
  5
F4
100
AcDbEntity
  8
LY_3
  6
CONTINUOUS
 62
       251
100
AcDbCircle
 10
-82.341675
 20
-62.965393
 30
0.0
 40
3.969
  0
CIRCLE
  5
F5
100
AcDbEntity
  8
LY_3
  6
CONTINUOUS
 62
       251
100
AcDbCircle
 10
-43.653687
 20
-2.965393
 30
0.0
 40
3.969
  0
CIRCLE
  5
F6
100
AcDbEntity
  8
LY_3
  6
CONTINUOUS
 62
       251
100
AcDbCircle
 10
-43.653687
 20
-62.965393
 30
0.0
 40
3.969
  0
CIRCLE
  5
F7
100
AcDbEntity
  8
LY_3
  6
CONTINUOUS
 62
       251
100
AcDbCircle
 10
-72.397644
 20
1.1306
 30
0.0
 40
1.0
  0
CIRCLE
  5
F8
100
AcDbEntity
  8
LY_3
  6
CONTINUOUS
 62
       251
100
AcDbCircle
 10
-72.397644
 20
-66.736389
 30
0.0
 40
1.0
  0
CIRCLE
  5
F9
100
AcDbEntity
  8
LY_3
  6
CONTINUOUS
 62
       251
100
AcDbCircle
 10
-53.597748
 20
1.1306
 30
0.0
 40
1.0
  0
CIRCLE
  5
FA
100
AcDbEntity
  8
LY_3
  6
CONTINUOUS
 62
       251
100
AcDbCircle
 10
-53.597748
 20
-66.736389
 30
0.0
 40
1.0
  0
MTEXT
  5
FB
100
AcDbEntity
  8
LY_3
  6
CONTINUOUS
 62
         7
100
AcDbMText
 10
-47.4594590441
 20
68.667357702
 30
0.0
 40
15.0
 41
0.0
 71
         1
 72
         1
  1
\W1.216;\A1;MI 500
  0
MTEXT
  5
FC
100
AcDbEntity
  8
LY_3
  6
CONTINUOUS
 62
         7
100
AcDbMText
 10
-68.2430559669
 20
92.6673580596
 30
0.0
 40
13.0
 41
0.0
 71
         1
 72
         1
  1
\W1.042;\A1;CAM CLUTCH
  0
ENDSEC
  0
SECTION
  2
OBJECTS
  0
DICTIONARY
  5
19
100
AcDbDictionary
  3
ACAD_GROUP
350
1A
  3
ACAD_MLINESTYLE
350
1B
  0
DICTIONARY
  5
1A
102
{ACAD_REACTORS
330
19
102
}
100
AcDbDictionary
  0
DICTIONARY
  5
1B
102
{ACAD_REACTORS
330
19
102
}
100
AcDbDictionary
  3
STANDARD
350
1C
  0
MLINESTYLE
  5
1C
102
{ACAD_REACTORS
330
1B
102
}
100
AcDbMlineStyle
  2
Standard
 70
         0
  3

 62
         0
 51
90.0
 52
90.0
 71
         2
 49
0.5
 62
       256
  6
ByLayer
 49
-0.5
 62
       256
  6
ByLayer
  0
ENDSEC
  0
EOF
