  0
SECTION
  2
HEADER
  9
$ACADVER
  1
AC1014
  9
$ACADMAINTVER
 70
         0
  9
$DWGCODEPAGE
  3
ANSI_932
  9
$INSBASE
 10
0.0
 20
0.0
 30
0.0
  9
$EXTMIN
 10
-149.7484177085
 20
-84.258018
 30
0.0
  9
$EXTMAX
 10
88.592078
 20
122.1256910721
 30
0.0
  9
$LIMMIN
 10
-149.7484177085
 20
-84.258018
  9
$LIMMAX
 10
88.592078
 20
122.1256910721
  9
$ORTHOMODE
 70
         0
  9
$REGENMODE
 70
         1
  9
$FILLMODE
 70
         1
  9
$QTEXTMODE
 70
         0
  9
$MIRRTEXT
 70
         1
  9
$DRAGMODE
 70
         2
  9
$LTSCALE
 40
1.0
  9
$OSMODE
 70
         0
  9
$ATTMODE
 70
         1
  9
$TEXTSIZE
 40
3.2000000477
  9
$TRACEWID
 40
0.05
  9
$TEXTSTYLE
  7
MX_NOTE_STANDARD
  9
$CLAYER
  8
LY_3
  9
$CELTYPE
  6
CONTINUOUS
  9
$CECOLOR
 62
       256
  9
$CELTSCALE
 40
1.0
  9
$DELOBJ
 70
         1
  9
$DISPSILH
 70
         0
  9
$DIMSCALE
 40
1.0
  9
$DIMASZ
 40
2.5
  9
$DIMEXO
 40
0.0
  9
$DIMDLI
 40
3.75
  9
$DIMRND
 40
0.0
  9
$DIMDLE
 40
0.0
  9
$DIMEXE
 40
2.5
  9
$DIMTP
 40
0.0
  9
$DIMTM
 40
0.0
  9
$DIMTXT
 40
3.2000000477
  9
$DIMCEN
 40
2.5
  9
$DIMTSZ
 40
0.0
  9
$DIMTOL
 70
         0
  9
$DIMLIM
 70
         0
  9
$DIMTIH
 70
         0
  9
$DIMTOH
 70
         0
  9
$DIMSE1
 70
         0
  9
$DIMSE2
 70
         0
  9
$DIMTAD
 70
         1
  9
$DIMZIN
 70
         8
  9
$DIMBLK
  1

  9
$DIMASO
 70
         1
  9
$DIMSHO
 70
         1
  9
$DIMPOST
  1

  9
$DIMAPOST
  1

  9
$DIMALT
 70
         0
  9
$DIMALTD
 70
         4
  9
$DIMALTF
 40
0.0393700787
  9
$DIMLFAC
 40
1.0
  9
$DIMTOFL
 70
         1
  9
$DIMTVP
 40
0.0
  9
$DIMTIX
 70
         0
  9
$DIMSOXD
 70
         0
  9
$DIMSAH
 70
         1
  9
$DIMBLK1
  1
_OPEN30
  9
$DIMBLK2
  1
_OPEN30
  9
$DIMSTYLE
  2
MXDIMSTYLE
  9
$DIMCLRD
 70
         0
  9
$DIMCLRE
 70
         0
  9
$DIMCLRT
 70
         0
  9
$DIMTFAC
 40
1.0
  9
$DIMGAP
 40
1.0
  9
$DIMJUST
 70
         0
  9
$DIMSD1
 70
         0
  9
$DIMSD2
 70
         0
  9
$DIMTOLJ
 70
         0
  9
$DIMTZIN
 70
         0
  9
$DIMALTZ
 70
         0
  9
$DIMALTTZ
 70
         0
  9
$DIMFIT
 70
         3
  9
$DIMUPT
 70
         0
  9
$DIMUNIT
 70
         2
  9
$DIMDEC
 70
         2
  9
$DIMTDEC
 70
         2
  9
$DIMALTU
 70
         2
  9
$DIMALTTD
 70
         4
  9
$DIMTXSTY
  7
MX_NOTE_STANDARD
  9
$DIMAUNIT
 70
         0
  9
$LUNITS
 70
         2
  9
$LUPREC
 70
         4
  9
$SKETCHINC
 40
0.1
  9
$FILLETRAD
 40
0.0
  9
$AUNITS
 70
         0
  9
$AUPREC
 70
         0
  9
$MENU
  1
acad
  9
$ELEVATION
 40
0.0
  9
$PELEVATION
 40
0.0
  9
$THICKNESS
 40
0.0
  9
$LIMCHECK
 70
         0
  9
$BLIPMODE
 70
         1
  9
$CHAMFERA
 40
0.0
  9
$CHAMFERB
 40
0.0
  9
$CHAMFERC
 40
0.0
  9
$CHAMFERD
 40
0.0
  9
$SKPOLY
 70
         0
  9
$TDCREATE
 40
2456603.419502315
  9
$TDUPDATE
 40
2456603.419502315
  9
$TDINDWG
 40
0.0000000000
  9
$TDUSRTIMER
 40
0.0000000000
  9
$USRTIMER
 70
         1
  9
$ANGBASE
 50
0.0
  9
$ANGDIR
 70
         0
  9
$PDMODE
 70
         0
  9
$PDSIZE
 40
0.0
  9
$PLINEWID
 40
0.0
  9
$COORDS
 70
         1
  9
$SPLFRAME
 70
         0
  9
$SPLINETYPE
 70
         6
  9
$SPLINESEGS
 70
         8
  9
$ATTDIA
 70
         0
  9
$ATTREQ
 70
         1
  9
$HANDLING
 70
         1
  9
$HANDSEED
  5
119
  9
$SURFTAB1
 70
         6
  9
$SURFTAB2
 70
         6
  9
$SURFTYPE
 70
         6
  9
$SURFU
 70
         6
  9
$SURFV
 70
         6
  9
$UCSNAME
  2

  9
$UCSORG
 10
0.0
 20
0.0
 30
0.0
  9
$UCSXDIR
 10
1.0
 20
0.0
 30
0.0
  9
$UCSYDIR
 10
0.0
 20
1.0
 30
0.0
  9
$PUCSNAME
  2

  9
$PUCSORG
 10
0.0
 20
0.0
 30
0.0
  9
$PUCSXDIR
 10
1.0
 20
0.0
 30
0.0
  9
$PUCSYDIR
 10
0.0
 20
1.0
 30
0.0
  9
$USERI1
 70
         0
  9
$USERI2
 70
         0
  9
$USERI3
 70
         0
  9
$USERI4
 70
         0
  9
$USERI5
 70
         0
  9
$USERR1
 40
0.0
  9
$USERR2
 40
0.0
  9
$USERR3
 40
0.0
  9
$USERR4
 40
0.0
  9
$USERR5
 40
0.0
  9
$WORLDVIEW
 70
         1
  9
$SHADEDGE
 70
         3
  9
$SHADEDIF
 70
        70
  9
$TILEMODE
 70
         1
  9
$MAXACTVP
 70
        16
  9
$PINSBASE
 10
0.0
 20
0.0
 30
0.0
  9
$PLIMCHECK
 70
         0
  9
$PEXTMIN
 10
1.0000000000E+20
 20
1.0000000000E+20
 30
1.0000000000E+20
  9
$PEXTMAX
 10
-1.0000000000E+20
 20
-1.0000000000E+20
 30
-1.0000000000E+20
  9
$PLIMMIN
 10
0.0
 20
0.0
  9
$PLIMMAX
 10
12.0
 20
9.0
  9
$UNITMODE
 70
         0
  9
$VISRETAIN
 70
         0
  9
$PLINEGEN
 70
         1
  9
$PSLTSCALE
 70
         0
  9
$TREEDEPTH
 70
      3020
  9
$PICKSTYLE
 70
         1
  9
$CMLSTYLE
  2
Standard
  9
$CMLJUST
 70
         0
  9
$CMLSCALE
 40
1.0
  9
$PROXYGRAPHICS
 70
         0
  9
$MEASUREMENT
 70
         1
  0
ENDSEC
  0
SECTION
  2
CLASSES
  0
CLASS
  1
LWPOLYLINE
  2
AcDbPolyline
  3
"AutoCAD"
 90
        0
280
         0
281
         1
  0
CLASS
  1
IMAGE
  2
AcDbRasterImage
  3
ISM
 90
      127
280
         0
281
         1
  0
CLASS
  1
OLE2FRAME
  2
AcDbOle2Frame
  3
""
 90
        0
280
         0
281
         1
  0
CLASS
  1
HATCH
  2
AcDbHatch
  3
"ACAD_SEDONA"
 90
        0
280
         0
281
         1
  0
CLASS
  1
DICTIONARYVAR
  2
AcDbDictionaryVar
  3
"AutoCAD"
 90
        0
280
         0
281
         0
  0
CLASS
  1
RASTERVARIABLES
  2
AcDbRasterVariables
  3
ISM
 90
        0
280
         0
281
         0
  0
CLASS
  1
IMAGEDEF
  2
AcDbRasterImageDef
  3
ISM
 90
        0
280
         0
281
         0
  0
CLASS
  1
IMAGEDEF_REACTOR
  2
AcDbRasterImageDefReactor
  3
ISM
 90
        1
280
         0
281
         0
  0
CLASS
  1
IDBUFFER
  2
AcDbIdBuffer
  3
"Acad"
 90
        0
280
         0
281
         0
  0
CLASS
  1
SPATIAL_FILTER
  2
AcDbSpatialFilter
  3
"Acad"
 90
        0
280
         0
281
         0
  0
CLASS
  1
XRECORD
  2
AcDbXrecord
  3
"<Built In>"
 90
        0
280
         0
281
         0
  0
CLASS
  1
SORTENTSTABLE
  2
AcDbSortentsTable
  3
"AutoCAD"
 90
        0
280
         0
281
         0
  0
CLASS
  1
LAYER_INDEX
  2
AcDbLayerIndex
  3
"Acad"
 90
        0
280
         0
281
         0
  0
CLASS
  1
SPATIAL_INDEX
  2
AcDbSpatialIndex
  3
"Acad"
 90
        0
280
         0
281
         0
  0
CLASS
  1
OBJECT_PTR
  2
CAseDLPNTableRecord
  3
"ASE-LPNTableRecord"
 90
        1
280
         0
281
         0
  0
CLASS
  1
LAYOUT
  2
AcDbLayout
  3
"AutoCAD 2000"
 90
        0
280
         0
281
         0
  0
CLASS
  1
PLOTSETTINGS
  2
AcDbPlotSettings
  3
"AutoCAD 2000"
 90
        0
280
         0
281
         0
  0
CLASS
  1
ACDBDICTIONARYWDFLT
  2
AcDbDictionaryWithDefault
  3
"AutoCAD 2000"
 90
        0
280
         0
281
         0
  0
CLASS
  1
ACDBPLACEHOLDER
  2
AcDbPlaceHolder
  3
"AutoCAD 2000"
 90
        0
280
         0
281
         0
  0
ENDSEC
  0
SECTION
  2
TABLES
  0
TABLE
  2
VPORT
  5
7
100
AcDbSymbolTable
 70
         1
  0
VPORT
  5
15
100
AcDbSymbolTableRecord
100
AcDbViewportTableRecord
  2
*ACTIVE
 70
         0
 10
0.0
 20
0.0
 11
1.0
 21
1.0
 12
-30.5781698542
 22
18.933836536
 13
0.0
 23
0.0
 14
1.0
 24
1.0
 15
0.0
 25
0.0
 16
0.0
 26
0.0
 36
1.0
 17
0.0
 27
0.0
 37
0.0
 40
208.4475461628
 41
1.7320508076
 42
50.0
 43
0.0
 44
0.0
 50
0.0
 51
0.0
 71
         0
 72
       100
 73
         1
 74
         1
 75
         0
 76
         0
 77
         0
 78
         0
  0
ENDTAB
  0
TABLE
  2
LTYPE
  5
4
100
AcDbSymbolTable
 70
         5
  0
LTYPE
  5
11
100
AcDbSymbolTableRecord
100
AcDbLinetypeTableRecord
  2
BYBLOCK
 70
        64
  3

 72
        65
 73
         0
 40
0.0
  0
LTYPE
  5
12
100
AcDbSymbolTableRecord
100
AcDbLinetypeTableRecord
  2
BYLAYER
 70
        64
  3

 72
        65
 73
         0
 40
0.0
  0
LTYPE
  5
13
100
AcDbSymbolTableRecord
100
AcDbLinetypeTableRecord
  2
CONTINUOUS
 70
        64
  3
Solid line
 72
        65
 73
         0
 40
0.0
  0
LTYPE
  5
CA
100
AcDbSymbolTableRecord
100
AcDbLinetypeTableRecord
  2
CENTER
 70
        64
  3
Center ____ _ ____ _ ____ _ ____ _ ____ _ ____
 72
        65
 73
         4
 40
50.8
 49
31.75
 74
         0
 49
-6.35
 74
         0
 49
6.35
 74
         0
 49
-6.35
 74
         0
  0
LTYPE
  5
E9
100
AcDbSymbolTableRecord
100
AcDbLinetypeTableRecord
  2
DASHED
 70
        64
  3
Dashed __ __ __ __ __ __ __ __ __ __ __ __ __ _
 72
        65
 73
         2
 40
19.05
 49
12.7
 74
         0
 49
-6.35
 74
         0
  0
ENDTAB
  0
TABLE
  2
LAYER
  5
2
100
AcDbSymbolTable
 70
         3
  0
LAYER
  5
14
100
AcDbSymbolTableRecord
100
AcDbLayerTableRecord
  2
0
 70
         0
 62
         7
  6
CONTINUOUS
  0
LAYER
  5
1D
100
AcDbSymbolTableRecord
100
AcDbLayerTableRecord
  2
DEFPOINTS
 70
         0
 62
         7
  6
CONTINUOUS
  0
LAYER
  5
1E
100
AcDbSymbolTableRecord
100
AcDbLayerTableRecord
  2
LY_3
 70
         0
 62
         7
  6
CONTINUOUS
  0
ENDTAB
  0
TABLE
  2
STYLE
  5
3
100
AcDbSymbolTable
 70
         1
  0
STYLE
  5
17
100
AcDbSymbolTableRecord
100
AcDbTextStyleTableRecord
  2
MX_NOTE_STANDARD
 70
         0
 40
0.0
 41
1.0
 50
0.0
 71
         0
 42
3.2000000477
  3
txt.shx
  4
extfont.shx
  0
ENDTAB
  0
TABLE
  2
VIEW
  5
5
100
AcDbSymbolTable
 70
         0
  0
ENDTAB
  0
TABLE
  2
UCS
  5
6
100
AcDbSymbolTable
 70
         0
  0
ENDTAB
  0
TABLE
  2
APPID
  5
8
100
AcDbSymbolTable
 70
         1
  0
APPID
  5
16
100
AcDbSymbolTableRecord
100
AcDbRegAppTableRecord
  2
ACAD
 70
         0
  0
ENDTAB
  0
TABLE
  2
DIMSTYLE
  5
9
100
AcDbSymbolTable
 70
         1
  0
DIMSTYLE
105
18
100
AcDbSymbolTableRecord
100
AcDbDimStyleTableRecord
  2
MXDIMSTYLE
 70
         0
  3

  4

  5

  6
_OPEN30
  7
_OPEN30
 40
1.0
 41
2.5
 42
0.0
 43
3.75
 44
2.5
 45
0.0
 46
0.0
 47
0.0
 48
0.0
 71
         0
 72
         0
 73
         0
 74
         0
 75
         0
 76
         0
 77
         1
 78
         8
140
3.2000000477
141
2.5
142
0.0
143
0.0393700787
144
1.0
145
0.0
146
1.0
147
1.0
170
         0
171
         4
172
         1
173
         1
174
         0
175
         0
176
         0
177
         0
178
         0
270
         2
271
         2
272
         2
273
         2
274
         4
275
         0
280
         0
281
         0
282
         0
283
         0
284
         0
285
         0
286
         0
287
         3
288
         0
340
17
  0
ENDTAB
  0
TABLE
  2
BLOCK_RECORD
  5
1
100
AcDbSymbolTable
 70
         1
  0
BLOCK_RECORD
  5
A
100
AcDbSymbolTableRecord
100
AcDbBlockTableRecord
  2
*MODEL_SPACE
  0
BLOCK_RECORD
  5
B
100
AcDbSymbolTableRecord
100
AcDbBlockTableRecord
  2
*PAPER_SPACE
  0
BLOCK_RECORD
  5
1F
100
AcDbSymbolTableRecord
100
AcDbBlockTableRecord
  2
_OPEN30
  0
ENDTAB
  0
ENDSEC
  0
SECTION
  2
BLOCKS
  0
BLOCK
  5
D
100
AcDbEntity
  8
0
100
AcDbBlockBegin
  2
*MODEL_SPACE
 70
         0
 10
0.0
 20
0.0
 30
0.0
  3
*MODEL_SPACE
  1

  0
ENDBLK
  5
E
100
AcDbEntity
  8
0
100
AcDbBlockEnd
  0
BLOCK
  5
F
100
AcDbEntity
 67
         1
  8
0
100
AcDbBlockBegin
  2
*PAPER_SPACE
 70
         0
 10
0.0
 20
0.0
 30
0.0
  3
*PAPER_SPACE
  1

  0
ENDBLK
  5
10
100
AcDbEntity
 67
         1
  8
0
100
AcDbBlockEnd
  0
BLOCK
  5
20
100
AcDbEntity
  8
0
  6
ByBlock
 62
         0
100
AcDbBlockBegin
  2
_OPEN30
 70
         2
 10
0.0
 20
0.0
 30
0.0
  3
_OPEN30
  1

  0
LINE
  5
21
100
AcDbEntity
  8
0
  6
ByBlock
 62
         0
100
AcDbLine
 10
-1.0
 20
0.267949
 30
0.0
 11
0.0
 21
0.0
 31
0.0
  0
LINE
  5
22
100
AcDbEntity
  8
0
  6
ByBlock
 62
         0
100
AcDbLine
 10
0.0
 20
0.0
 30
0.0
 11
-1.0
 21
-0.267949
 31
0.0
  0
LINE
  5
23
100
AcDbEntity
  8
0
  6
ByBlock
 62
         0
100
AcDbLine
 10
0.0
 20
0.0
 30
0.0
 11
-1.0
 21
0.0
 31
0.0
  0
ENDBLK
  5
24
100
AcDbEntity
  8
0
  6
ByBlock
 62
         0
100
AcDbBlockEnd
  0
ENDSEC
  0
SECTION
  2
ENTITIES
  0
MTEXT
  5
25
100
AcDbEntity
  8
LY_3
  6
CONTINUOUS
 62
       110
100
AcDbMText
 10
-147.446440963
 20
117.7423578659
 30
0.0
 40
13.1499996185
 41
0.0
 71
         1
 72
         1
  1
\W1.050;\A1;TSUBAKI
  0
MTEXT
  5
26
100
AcDbEntity
  8
LY_3
  6
CONTINUOUS
 62
         7
100
AcDbMText
 10
-47.7727270271
 20
68.667357702
 30
0.0
 40
15.0
 41
0.0
 71
         1
 72
         1
  1
\W1.091;\A1;MI20-S
  0
MTEXT
  5
27
100
AcDbEntity
  8
LY_3
  6
CONTINUOUS
 62
         7
100
AcDbMText
 10
-68.2430559669
 20
92.6673580596
 30
0.0
 40
13.0
 41
0.0
 71
         1
 72
         1
  1
\W1.042;\A1;CAM CLUTCH
  0
LINE
  5
28
100
AcDbEntity
  8
LY_3
  6
CONTINUOUS
 62
       251
100
AcDbLine
 10
-44.906683
 20
-70.878409
 30
0.0
 11
-46.438878
 21
-73.333397
 31
0.0
  0
LINE
  5
29
100
AcDbEntity
  8
LY_3
  6
CONTINUOUS
 62
       251
100
AcDbLine
 10
-44.906685
 20
-75.788389
 30
0.0
 11
-46.438881
 21
-73.333387
 31
0.0
  0
LINE
  5
2A
100
AcDbEntity
  8
LY_3
  6
CONTINUOUS
 62
         7
100
AcDbLine
 10
-26.43895
 20
-70.333386
 30
0.0
 11
-39.438889
 21
-70.333389
 31
0.0
  0
LINE
  5
2B
100
AcDbEntity
  8
LY_3
  6
CONTINUOUS
 62
         7
100
AcDbLine
 10
-26.43895
 20
-76.333386
 30
0.0
 11
-39.438888
 21
-76.333389
 31
0.0
  0
LINE
  5
2C
100
AcDbEntity
  8
LY_3
  6
CONTINUOUS
 62
       251
100
AcDbLine
 10
-39.438888
 20
-76.333389
 30
0.0
 11
-39.438889
 21
-70.333389
 31
0.0
  0
LINE
  5
2D
100
AcDbEntity
  8
LY_3
  6
CONTINUOUS
 62
       251
100
AcDbLine
 10
-44.906692
 20
-75.788393
 30
0.0
 11
-26.43895
 21
-75.788389
 31
0.0
  0
LINE
  5
2E
100
AcDbEntity
  8
LY_3
  6
CONTINUOUS
 62
       251
100
AcDbLine
 10
-44.906693
 20
-70.878403
 30
0.0
 11
-26.43895
 21
-70.878399
 31
0.0
  0
LINE
  5
2F
100
AcDbEntity
  8
LY_3
  6
CONTINUOUS
 62
       251
100
AcDbLine
 10
-44.906692
 20
-75.788393
 30
0.0
 11
-44.906693
 21
-70.878403
 31
0.0
  0
LINE
  5
30
100
AcDbEntity
  8
LY_3
  6
CONTINUOUS
 62
       251
100
AcDbLine
 10
-72.971217
 20
-75.788374
 30
0.0
 11
-71.439021
 21
-73.333386
 31
0.0
  0
LINE
  5
31
100
AcDbEntity
  8
LY_3
  6
CONTINUOUS
 62
       251
100
AcDbLine
 10
-72.971214
 20
-70.878393
 30
0.0
 11
-71.439018
 21
-73.333396
 31
0.0
  0
LINE
  5
32
100
AcDbEntity
  8
LY_3
  6
CONTINUOUS
 62
         7
100
AcDbLine
 10
-91.43895
 20
-76.333392
 30
0.0
 11
-78.439011
 21
-76.333392
 31
0.0
  0
LINE
  5
33
100
AcDbEntity
  8
LY_3
  6
CONTINUOUS
 62
         7
100
AcDbLine
 10
-91.43895
 20
-70.333392
 30
0.0
 11
-78.439011
 21
-70.333392
 31
0.0
  0
LINE
  5
34
100
AcDbEntity
  8
LY_3
  6
CONTINUOUS
 62
       251
100
AcDbLine
 10
-78.439011
 20
-70.333392
 30
0.0
 11
-78.439011
 21
-76.333392
 31
0.0
  0
LINE
  5
35
100
AcDbEntity
  8
LY_3
  6
CONTINUOUS
 62
       251
100
AcDbLine
 10
-72.971207
 20
-70.878389
 30
0.0
 11
-91.43895
 21
-70.878389
 31
0.0
  0
LINE
  5
36
100
AcDbEntity
  8
LY_3
  6
CONTINUOUS
 62
       251
100
AcDbLine
 10
-72.971207
 20
-75.78838
 30
0.0
 11
-91.43895
 21
-75.78838
 31
0.0
  0
LINE
  5
37
100
AcDbEntity
  8
LY_3
  6
CONTINUOUS
 62
       251
100
AcDbLine
 10
-72.971207
 20
-70.878389
 30
0.0
 11
-72.971207
 21
-75.78838
 31
0.0
  0
CIRCLE
  5
38
100
AcDbEntity
  8
LY_3
  6
CONTINUOUS
 62
       251
100
AcDbCircle
 10
-54.238957
 20
-62.152538
 30
0.0
 40
1.0
  0
CIRCLE
  5
39
100
AcDbEntity
  8
LY_3
  6
CONTINUOUS
 62
       251
100
AcDbCircle
 10
-63.638941
 20
-62.152538
 30
0.0
 40
1.0
  0
LINE
  5
3A
100
AcDbEntity
  8
LY_3
  6
CONTINUOUS
 62
       251
100
AcDbLine
 10
-53.13896
 20
-63.126631
 30
0.0
 11
-54.215155
 21
-63.152255
 31
0.0
  0
LINE
  5
3B
100
AcDbEntity
  8
LY_3
  6
CONTINUOUS
 62
       251
100
AcDbLine
 10
-53.138958
 20
-66.268167
 30
0.0
 11
-53.138958
 21
-63.126631
 31
0.0
  0
LINE
  5
3C
100
AcDbEntity
  8
LY_3
  6
CONTINUOUS
 62
       251
100
AcDbLine
 10
-53.138958
 20
-61.152538
 30
0.0
 11
-53.138958
 21
-58.045883
 31
0.0
  0
LINE
  5
3D
100
AcDbEntity
  8
LY_3
  6
CONTINUOUS
 62
       251
100
AcDbLine
 10
-63.662744
 20
-63.152255
 30
0.0
 11
-64.73894
 21
-63.126631
 31
0.0
  0
LINE
  5
3E
100
AcDbEntity
  8
LY_3
  6
CONTINUOUS
 62
       251
100
AcDbLine
 10
-64.738941
 20
-63.126631
 30
0.0
 11
-64.738941
 21
-66.268168
 31
0.0
  0
LINE
  5
3F
100
AcDbEntity
  8
LY_3
  6
CONTINUOUS
 62
       251
100
AcDbLine
 10
-64.738941
 20
-58.045882
 30
0.0
 11
-64.738941
 21
-61.152538
 31
0.0
  0
CIRCLE
  5
40
100
AcDbEntity
  8
LY_3
  6
CONTINUOUS
 62
       251
100
AcDbCircle
 10
-63.638942
 20
-16.51424
 30
0.0
 40
1.0
  0
CIRCLE
  5
41
100
AcDbEntity
  8
LY_3
  6
CONTINUOUS
 62
       251
100
AcDbCircle
 10
-54.238957
 20
-16.51424
 30
0.0
 40
1.0
  0
LINE
  5
42
100
AcDbEntity
  8
LY_3
  6
CONTINUOUS
 62
       251
100
AcDbLine
 10
-64.738939
 20
-15.540148
 30
0.0
 11
-63.662745
 21
-15.514524
 31
0.0
  0
LINE
  5
43
100
AcDbEntity
  8
LY_3
  6
CONTINUOUS
 62
       251
100
AcDbLine
 10
-64.738941
 20
-12.398611
 30
0.0
 11
-64.738941
 21
-15.540147
 31
0.0
  0
LINE
  5
44
100
AcDbEntity
  8
LY_3
  6
CONTINUOUS
 62
       251
100
AcDbLine
 10
-64.738941
 20
-17.51424
 30
0.0
 11
-64.738941
 21
-20.670898
 31
0.0
  0
LINE
  5
45
100
AcDbEntity
  8
LY_3
  6
CONTINUOUS
 62
       251
100
AcDbLine
 10
-54.215155
 20
-15.514524
 30
0.0
 11
-53.138959
 21
-15.540147
 31
0.0
  0
LINE
  5
46
100
AcDbEntity
  8
LY_3
  6
CONTINUOUS
 62
       251
100
AcDbLine
 10
-53.138958
 20
-15.540147
 30
0.0
 11
-53.138958
 21
-12.39861
 31
0.0
  0
LINE
  5
47
100
AcDbEntity
  8
LY_3
  6
CONTINUOUS
 62
       251
100
AcDbLine
 10
-53.138958
 20
-20.620896
 30
0.0
 11
-53.138958
 21
-17.51424
 31
0.0
  0
ARC
  5
48
100
AcDbEntity
  8
LY_3
  6
CONTINUOUS
 62
       251
100
AcDbCircle
 10
-58.93895
 20
-0.533401
 30
0.0
 40
5.25
100
AcDbArc
 50
96.561991
 51
166.787045
  0
ARC
  5
49
100
AcDbEntity
  8
LY_3
  6
CONTINUOUS
 62
       251
100
AcDbCircle
 10
-58.93895
 20
-0.533401
 30
0.0
 40
5.25
100
AcDbArc
 50
13.212943
 51
83.437154
  0
CIRCLE
  5
4A
100
AcDbEntity
  8
LY_3
  6
CONTINUOUS
 62
       251
100
AcDbCircle
 10
-39.193954
 20
-56.208374
 30
0.0
 40
0.35
  0
CIRCLE
  5
4B
100
AcDbEntity
  8
LY_3
  6
CONTINUOUS
 62
       251
100
AcDbCircle
 10
-39.193954
 20
-22.45842
 30
0.0
 40
0.35
  0
CIRCLE
  5
4C
100
AcDbEntity
  8
LY_3
  6
CONTINUOUS
 62
       251
100
AcDbCircle
 10
-78.683929
 20
-22.458405
 30
0.0
 40
0.35
  0
CIRCLE
  5
4D
100
AcDbEntity
  8
LY_3
  6
CONTINUOUS
 62
       251
100
AcDbCircle
 10
-78.683929
 20
-56.208374
 30
0.0
 40
0.35
  0
CIRCLE
  5
4E
100
AcDbEntity
  8
LY_3
  6
CONTINUOUS
 62
       251
100
AcDbCircle
 10
-46.988953
 20
-60.583389
 30
0.0
 40
3.175
  0
CIRCLE
  5
4F
100
AcDbEntity
  8
LY_3
  6
CONTINUOUS
 62
       251
100
AcDbCircle
 10
-46.988953
 20
-18.083389
 30
0.0
 40
3.175
  0
CIRCLE
  5
50
100
AcDbEntity
  8
LY_3
  6
CONTINUOUS
 62
       251
100
AcDbCircle
 10
-70.888947
 20
-60.583389
 30
0.0
 40
3.175
  0
CIRCLE
  5
51
100
AcDbEntity
  8
LY_3
  6
CONTINUOUS
 62
       251
100
AcDbCircle
 10
-70.888947
 20
-18.083389
 30
0.0
 40
3.175
  0
LINE
  5
52
100
AcDbEntity
  8
LY_3
  6
CONTINUOUS
 62
       251
100
AcDbLine
 10
-59.53891
 20
4.68219
 30
0.0
 11
-59.53891
 21
2.316589
 31
0.0
  0
LINE
  5
53
100
AcDbEntity
  8
LY_3
  6
CONTINUOUS
 62
       251
100
AcDbLine
 10
-58.338913
 20
4.68219
 30
0.0
 11
-58.338913
 21
2.316589
 31
0.0
  0
LINE
  5
54
100
AcDbEntity
  8
LY_3
  6
CONTINUOUS
 62
       251
100
AcDbLine
 10
-59.53891
 20
2.316589
 30
0.0
 11
-58.338913
 21
2.316589
 31
0.0
  0
LINE
  5
55
100
AcDbEntity
  8
LY_3
  6
CONTINUOUS
 62
       251
100
AcDbLine
 10
-61.938934
 20
-12.345901
 30
0.0
 11
-61.938934
 21
-0.533401
 31
0.0
  0
LINE
  5
56
100
AcDbEntity
  8
LY_3
  6
CONTINUOUS
 62
         7
100
AcDbLine
 10
-61.488937
 20
-12.345901
 30
0.0
 11
-61.488937
 21
-0.533401
 31
0.0
  0
LINE
  5
57
100
AcDbEntity
  8
LY_3
  6
CONTINUOUS
 62
         7
100
AcDbLine
 10
-56.388931
 20
-12.345901
 30
0.0
 11
-56.388931
 21
-0.533401
 31
0.0
  0
LINE
  5
58
100
AcDbEntity
  8
LY_3
  6
CONTINUOUS
 62
       251
100
AcDbLine
 10
-55.938934
 20
-12.345901
 30
0.0
 11
-55.938934
 21
-0.533401
 31
0.0
  0
LINE
  5
59
100
AcDbEntity
  8
LY_3
  6
CONTINUOUS
 62
       251
100
AcDbLine
 10
-60.438919
 20
-0.533401
 30
0.0
 11
-57.438965
 21
-0.533401
 31
0.0
  0
LINE
  5
5A
100
AcDbEntity
  8
LY_3
  6
CONTINUOUS
 62
       251
100
AcDbLine
 10
-64.68895
 20
-0.533401
 30
0.0
 11
-53.68895
 21
-0.533401
 31
0.0
  0
LINE
  5
5B
100
AcDbEntity
  8
LY_3
  6
CONTINUOUS
 62
       251
100
AcDbLine
 10
-64.688934
 20
-0.533401
 30
0.0
 11
-53.188934
 21
-0.533401
 31
0.0
  0
LINE
  5
5C
100
AcDbEntity
  8
LY_3
  6
CONTINUOUS
 62
       251
100
AcDbLine
 10
-53.18895
 20
-0.533401
 30
0.0
 11
-53.18895
 21
0.666611
 31
0.0
  0
LINE
  5
5D
100
AcDbEntity
  8
LY_3
  6
CONTINUOUS
 62
       251
100
AcDbLine
 10
-64.688934
 20
-0.533401
 30
0.0
 11
-64.688934
 21
0.666611
 31
0.0
  0
LINE
  5
5E
100
AcDbEntity
  8
LY_3
  6
CONTINUOUS
 62
       251
100
AcDbLine
 10
-53.188934
 20
-0.533401
 30
0.0
 11
-53.188934
 21
0.666611
 31
0.0
  0
LINE
  5
5F
100
AcDbEntity
  8
LY_3
  6
CONTINUOUS
 62
       251
100
AcDbLine
 10
-64.68895
 20
-0.533401
 30
0.0
 11
-64.68895
 21
0.666611
 31
0.0
  0
LINE
  5
60
100
AcDbEntity
  8
LY_3
  6
CONTINUOUS
 62
       251
100
AcDbLine
 10
-51.488953
 20
-66.833415
 30
0.0
 11
-42.488953
 21
-66.833415
 31
0.0
  0
LINE
  5
61
100
AcDbEntity
  8
LY_3
  6
CONTINUOUS
 62
       251
100
AcDbLine
 10
-40.918961
 20
-66.833415
 30
0.0
 11
-26.43895
 21
-66.833415
 31
0.0
  0
LINE
  5
62
100
AcDbEntity
  8
LY_3
  6
CONTINUOUS
 62
       251
100
AcDbLine
 10
-75.388947
 20
-66.833415
 30
0.0
 11
-66.388947
 21
-66.833415
 31
0.0
  0
LINE
  5
63
100
AcDbEntity
  8
LY_3
  6
CONTINUOUS
 62
       251
100
AcDbLine
 10
-91.43895
 20
-66.833415
 30
0.0
 11
-76.958939
 21
-66.833415
 31
0.0
  0
LINE
  5
64
100
AcDbEntity
  8
LY_3
  6
CONTINUOUS
 62
       251
100
AcDbLine
 10
-51.488937
 20
-11.833389
 30
0.0
 11
-42.488953
 21
-11.833389
 31
0.0
  0
LINE
  5
65
100
AcDbEntity
  8
LY_3
  6
CONTINUOUS
 62
       251
100
AcDbLine
 10
-40.918961
 20
-11.833389
 30
0.0
 11
-26.43895
 21
-11.833389
 31
0.0
  0
LINE
  5
66
100
AcDbEntity
  8
LY_3
  6
CONTINUOUS
 62
       251
100
AcDbLine
 10
-75.388947
 20
-11.833389
 30
0.0
 11
-66.388962
 21
-11.833389
 31
0.0
  0
LINE
  5
67
100
AcDbEntity
  8
LY_3
  6
CONTINUOUS
 62
       251
100
AcDbLine
 10
-91.43895
 20
-11.833389
 30
0.0
 11
-76.958939
 21
-11.833389
 31
0.0
  0
LINE
  5
68
100
AcDbEntity
  8
LY_3
  6
CONTINUOUS
 62
       251
100
AcDbLine
 10
-39.193955
 20
-54.333413
 30
0.0
 11
-40.018936
 21
-56.208357
 31
0.0
  0
LINE
  5
69
100
AcDbEntity
  8
LY_3
  6
CONTINUOUS
 62
       251
100
AcDbLine
 10
-36.668972
 20
-58.333336
 30
0.0
 11
-39.193954
 21
-54.333381
 31
0.0
  0
LINE
  5
6A
100
AcDbEntity
  8
LY_3
  6
CONTINUOUS
 62
       251
100
AcDbLine
 10
-36.668961
 20
-64.958389
 30
0.0
 11
-36.668961
 21
-58.333375
 31
0.0
  0
LINE
  5
6B
100
AcDbEntity
  8
LY_3
  6
CONTINUOUS
 62
       251
100
AcDbLine
 10
-40.168961
 20
-64.958389
 30
0.0
 11
-36.668961
 21
-64.958389
 31
0.0
  0
LINE
  5
6C
100
AcDbEntity
  8
LY_3
  6
CONTINUOUS
 62
       251
100
AcDbLine
 10
-35.918961
 20
-54.33339
 30
0.0
 11
-35.918961
 21
-66.833389
 31
0.0
  0
LINE
  5
6D
100
AcDbEntity
  8
LY_3
  6
CONTINUOUS
 62
       251
100
AcDbLine
 10
-40.918961
 20
-54.33339
 30
0.0
 11
-35.918961
 21
-54.33339
 31
0.0
  0
LINE
  5
6E
100
AcDbEntity
  8
LY_3
  6
CONTINUOUS
 62
       251
100
AcDbLine
 10
-40.918961
 20
-68.108383
 30
0.0
 11
-40.918961
 21
-54.33339
 31
0.0
  0
LINE
  5
6F
100
AcDbEntity
  8
LY_3
  6
CONTINUOUS
 62
       251
100
AcDbLine
 10
-39.193949
 20
-24.333381
 30
0.0
 11
-40.018936
 21
-22.458423
 31
0.0
  0
LINE
  5
70
100
AcDbEntity
  8
LY_3
  6
CONTINUOUS
 62
       251
100
AcDbLine
 10
-36.668973
 20
-20.333459
 30
0.0
 11
-39.193951
 21
-24.333408
 31
0.0
  0
LINE
  5
71
100
AcDbEntity
  8
LY_3
  6
CONTINUOUS
 62
       251
100
AcDbLine
 10
-36.668961
 20
-13.708405
 30
0.0
 11
-36.668961
 21
-20.33342
 31
0.0
  0
LINE
  5
72
100
AcDbEntity
  8
LY_3
  6
CONTINUOUS
 62
       251
100
AcDbLine
 10
-40.168961
 20
-13.708405
 30
0.0
 11
-36.668961
 21
-13.708405
 31
0.0
  0
LINE
  5
73
100
AcDbEntity
  8
LY_3
  6
CONTINUOUS
 62
       251
100
AcDbLine
 10
-35.918961
 20
-24.333405
 30
0.0
 11
-35.918961
 21
-11.833405
 31
0.0
  0
LINE
  5
74
100
AcDbEntity
  8
LY_3
  6
CONTINUOUS
 62
       251
100
AcDbLine
 10
-40.918961
 20
-24.333405
 30
0.0
 11
-35.918961
 21
-24.333405
 31
0.0
  0
LINE
  5
75
100
AcDbEntity
  8
LY_3
  6
CONTINUOUS
 62
       251
100
AcDbLine
 10
-40.918961
 20
-10.558395
 30
0.0
 11
-40.918961
 21
-24.333405
 31
0.0
  0
LINE
  5
76
100
AcDbEntity
  8
LY_3
  6
CONTINUOUS
 62
       251
100
AcDbLine
 10
-78.683922
 20
-24.333373
 30
0.0
 11
-77.858935
 21
-22.458416
 31
0.0
  0
LINE
  5
77
100
AcDbEntity
  8
LY_3
  6
CONTINUOUS
 62
       251
100
AcDbLine
 10
-81.2089
 20
-20.333454
 30
0.0
 11
-78.683918
 21
-24.333409
 31
0.0
  0
LINE
  5
78
100
AcDbEntity
  8
LY_3
  6
CONTINUOUS
 62
       251
100
AcDbLine
 10
-81.208939
 20
-13.708405
 30
0.0
 11
-81.208939
 21
-20.33342
 31
0.0
  0
LINE
  5
79
100
AcDbEntity
  8
LY_3
  6
CONTINUOUS
 62
       251
100
AcDbLine
 10
-77.708939
 20
-13.708405
 30
0.0
 11
-81.208923
 21
-13.708405
 31
0.0
  0
LINE
  5
7A
100
AcDbEntity
  8
LY_3
  6
CONTINUOUS
 62
       251
100
AcDbLine
 10
-81.958939
 20
-24.333405
 30
0.0
 11
-81.958939
 21
-11.833405
 31
0.0
  0
LINE
  5
7B
100
AcDbEntity
  8
LY_3
  6
CONTINUOUS
 62
       251
100
AcDbLine
 10
-76.958939
 20
-24.333405
 30
0.0
 11
-81.958939
 21
-24.333405
 31
0.0
  0
LINE
  5
7C
100
AcDbEntity
  8
LY_3
  6
CONTINUOUS
 62
       251
100
AcDbLine
 10
-76.958939
 20
-11.833405
 30
0.0
 11
-76.958939
 21
-24.333405
 31
0.0
  0
LINE
  5
7D
100
AcDbEntity
  8
LY_3
  6
CONTINUOUS
 62
       251
100
AcDbLine
 10
-78.683916
 20
-54.33342
 30
0.0
 11
-77.858935
 21
-56.208364
 31
0.0
  0
LINE
  5
7E
100
AcDbEntity
  8
LY_3
  6
CONTINUOUS
 62
       251
100
AcDbLine
 10
-81.208896
 20
-58.333333
 30
0.0
 11
-78.683914
 21
-54.333378
 31
0.0
  0
LINE
  5
7F
100
AcDbEntity
  8
LY_3
  6
CONTINUOUS
 62
       251
100
AcDbLine
 10
-81.208939
 20
-64.958389
 30
0.0
 11
-81.208939
 21
-58.333375
 31
0.0
  0
LINE
  5
80
100
AcDbEntity
  8
LY_3
  6
CONTINUOUS
 62
       251
100
AcDbLine
 10
-77.708939
 20
-64.958389
 30
0.0
 11
-81.208923
 21
-64.958389
 31
0.0
  0
LINE
  5
81
100
AcDbEntity
  8
LY_3
  6
CONTINUOUS
 62
       251
100
AcDbLine
 10
-81.958939
 20
-54.33339
 30
0.0
 11
-81.958939
 21
-66.833389
 31
0.0
  0
LINE
  5
82
100
AcDbEntity
  8
LY_3
  6
CONTINUOUS
 62
       251
100
AcDbLine
 10
-76.958939
 20
-54.33339
 30
0.0
 11
-81.958939
 21
-54.33339
 31
0.0
  0
LINE
  5
83
100
AcDbEntity
  8
LY_3
  6
CONTINUOUS
 62
       251
100
AcDbLine
 10
-76.958939
 20
-68.108383
 30
0.0
 11
-76.958939
 21
-54.33339
 31
0.0
  0
LINE
  5
84
100
AcDbEntity
  8
LY_3
  6
CONTINUOUS
 62
       251
100
AcDbLine
 10
-40.918961
 20
-68.108383
 30
0.0
 11
-42.488953
 21
-68.108383
 31
0.0
  0
LINE
  5
85
100
AcDbEntity
  8
LY_3
  6
CONTINUOUS
 62
       251
100
AcDbLine
 10
-42.488953
 20
-68.108383
 30
0.0
 11
-42.488953
 21
-54.333389
 31
0.0
  0
LINE
  5
86
100
AcDbEntity
  8
LY_3
  6
CONTINUOUS
 62
       251
100
AcDbLine
 10
-40.918961
 20
-64.098373
 30
0.0
 11
-42.488953
 21
-64.098373
 31
0.0
  0
LINE
  5
87
100
AcDbEntity
  8
LY_3
  6
CONTINUOUS
 62
       251
100
AcDbLine
 10
-49.494965
 20
-58.633363
 30
0.0
 11
-51.488937
 21
-58.633363
 31
0.0
  0
LINE
  5
88
100
AcDbEntity
  8
LY_3
  6
CONTINUOUS
 62
       251
100
AcDbLine
 10
-42.488953
 20
-58.633363
 30
0.0
 11
-44.482956
 21
-58.633363
 31
0.0
  0
LINE
  5
89
100
AcDbEntity
  8
LY_3
  6
CONTINUOUS
 62
       251
100
AcDbLine
 10
-49.494965
 20
-62.533371
 30
0.0
 11
-51.488937
 21
-62.533371
 31
0.0
  0
LINE
  5
8A
100
AcDbEntity
  8
LY_3
  6
CONTINUOUS
 62
       251
100
AcDbLine
 10
-42.488953
 20
-62.533371
 30
0.0
 11
-44.482956
 21
-62.533371
 31
0.0
  0
LINE
  5
8B
100
AcDbEntity
  8
LY_3
  6
CONTINUOUS
 62
       251
100
AcDbLine
 10
-51.488937
 20
-54.333389
 30
0.0
 11
-51.488937
 21
-66.833415
 31
0.0
  0
LINE
  5
8C
100
AcDbEntity
  8
LY_3
  6
CONTINUOUS
 62
       251
100
AcDbLine
 10
-42.488953
 20
-10.558395
 30
0.0
 11
-40.918961
 21
-10.558395
 31
0.0
  0
LINE
  5
8D
100
AcDbEntity
  8
LY_3
  6
CONTINUOUS
 62
       251
100
AcDbLine
 10
-42.488953
 20
-14.568405
 30
0.0
 11
-40.918961
 21
-14.568405
 31
0.0
  0
LINE
  5
8E
100
AcDbEntity
  8
LY_3
  6
CONTINUOUS
 62
       251
100
AcDbLine
 10
-51.488937
 20
-24.333389
 30
0.0
 11
-51.488937
 21
-11.833389
 31
0.0
  0
LINE
  5
8F
100
AcDbEntity
  8
LY_3
  6
CONTINUOUS
 62
       251
100
AcDbLine
 10
-42.488937
 20
-24.333405
 30
0.0
 11
-42.488937
 21
-10.558395
 31
0.0
  0
LINE
  5
90
100
AcDbEntity
  8
LY_3
  6
CONTINUOUS
 62
       251
100
AcDbLine
 10
-51.488937
 20
-20.033417
 30
0.0
 11
-49.494949
 21
-20.033417
 31
0.0
  0
LINE
  5
91
100
AcDbEntity
  8
LY_3
  6
CONTINUOUS
 62
       251
100
AcDbLine
 10
-44.482941
 20
-20.033417
 30
0.0
 11
-42.488937
 21
-20.033417
 31
0.0
  0
LINE
  5
92
100
AcDbEntity
  8
LY_3
  6
CONTINUOUS
 62
       251
100
AcDbLine
 10
-51.488937
 20
-16.133408
 30
0.0
 11
-49.494949
 21
-16.133408
 31
0.0
  0
LINE
  5
93
100
AcDbEntity
  8
LY_3
  6
CONTINUOUS
 62
       251
100
AcDbLine
 10
-44.482941
 20
-16.133408
 30
0.0
 11
-42.488937
 21
-16.133408
 31
0.0
  0
LINE
  5
94
100
AcDbEntity
  8
LY_3
  6
CONTINUOUS
 62
       251
100
AcDbLine
 10
-75.388947
 20
-68.108383
 30
0.0
 11
-76.958939
 21
-68.108383
 31
0.0
  0
LINE
  5
95
100
AcDbEntity
  8
LY_3
  6
CONTINUOUS
 62
       251
100
AcDbLine
 10
-75.388947
 20
-54.333389
 30
0.0
 11
-75.388947
 21
-68.108383
 31
0.0
  0
LINE
  5
96
100
AcDbEntity
  8
LY_3
  6
CONTINUOUS
 62
       251
100
AcDbLine
 10
-75.388947
 20
-64.098373
 30
0.0
 11
-76.958939
 21
-64.098373
 31
0.0
  0
LINE
  5
97
100
AcDbEntity
  8
LY_3
  6
CONTINUOUS
 62
       251
100
AcDbLine
 10
-66.388962
 20
-58.633362
 30
0.0
 11
-68.382935
 21
-58.633362
 31
0.0
  0
LINE
  5
98
100
AcDbEntity
  8
LY_3
  6
CONTINUOUS
 62
       251
100
AcDbLine
 10
-73.394943
 20
-58.633362
 30
0.0
 11
-75.388947
 21
-58.633362
 31
0.0
  0
LINE
  5
99
100
AcDbEntity
  8
LY_3
  6
CONTINUOUS
 62
       251
100
AcDbLine
 10
-66.388962
 20
-62.533371
 30
0.0
 11
-68.382935
 21
-62.533371
 31
0.0
  0
LINE
  5
9A
100
AcDbEntity
  8
LY_3
  6
CONTINUOUS
 62
       251
100
AcDbLine
 10
-73.394943
 20
-62.533371
 30
0.0
 11
-75.388947
 21
-62.533371
 31
0.0
  0
LINE
  5
9B
100
AcDbEntity
  8
LY_3
  6
CONTINUOUS
 62
       251
100
AcDbLine
 10
-66.388962
 20
-57.395874
 30
0.0
 11
-66.388962
 21
-54.833389
 31
0.0
  0
LINE
  5
9C
100
AcDbEntity
  8
LY_3
  6
CONTINUOUS
 62
       251
100
AcDbLine
 10
-76.958939
 20
-10.558395
 30
0.0
 11
-75.388947
 21
-10.558395
 31
0.0
  0
LINE
  5
9D
100
AcDbEntity
  8
LY_3
  6
CONTINUOUS
 62
       251
100
AcDbLine
 10
-76.958939
 20
-14.568405
 30
0.0
 11
-75.388947
 21
-14.568405
 31
0.0
  0
LINE
  5
9E
100
AcDbEntity
  8
LY_3
  6
CONTINUOUS
 62
       251
100
AcDbLine
 10
-76.958939
 20
-10.558395
 30
0.0
 11
-76.958939
 21
-24.333389
 31
0.0
  0
LINE
  5
9F
100
AcDbEntity
  8
LY_3
  6
CONTINUOUS
 62
       251
100
AcDbLine
 10
-42.488953
 20
-24.333389
 30
0.0
 11
-50.488953
 21
-24.333389
 31
0.0
  0
LINE
  5
A0
100
AcDbEntity
  8
LY_3
  6
CONTINUOUS
 62
       251
100
AcDbLine
 10
-66.388962
 20
-11.833389
 30
0.0
 11
-66.388962
 21
-24.333405
 31
0.0
  0
LINE
  5
A1
100
AcDbEntity
  8
LY_3
  6
CONTINUOUS
 62
       251
100
AcDbLine
 10
-75.388962
 20
-10.558395
 30
0.0
 11
-75.388962
 21
-24.333405
 31
0.0
  0
LINE
  5
A2
100
AcDbEntity
  8
LY_3
  6
CONTINUOUS
 62
       251
100
AcDbLine
 10
-68.38295
 20
-20.033417
 30
0.0
 11
-66.388962
 21
-20.033417
 31
0.0
  0
LINE
  5
A3
100
AcDbEntity
  8
LY_3
  6
CONTINUOUS
 62
       251
100
AcDbLine
 10
-75.388962
 20
-20.033417
 30
0.0
 11
-73.394958
 21
-20.033417
 31
0.0
  0
LINE
  5
A4
100
AcDbEntity
  8
LY_3
  6
CONTINUOUS
 62
       251
100
AcDbLine
 10
-68.38295
 20
-16.133408
 30
0.0
 11
-66.388962
 21
-16.133408
 31
0.0
  0
LINE
  5
A5
100
AcDbEntity
  8
LY_3
  6
CONTINUOUS
 62
       251
100
AcDbLine
 10
-75.388962
 20
-16.133408
 30
0.0
 11
-73.394958
 21
-16.133408
 31
0.0
  0
LINE
  5
A6
100
AcDbEntity
  8
LY_3
  6
CONTINUOUS
 62
       251
100
AcDbLine
 10
-52.638947
 20
-57.99588
 30
0.0
 11
-52.638947
 21
-66.320877
 31
0.0
  0
LINE
  5
A7
100
AcDbEntity
  8
LY_3
  6
CONTINUOUS
 62
       251
100
AcDbLine
 10
-65.238937
 20
-57.99588
 30
0.0
 11
-65.238937
 21
-66.320877
 31
0.0
  0
LINE
  5
A8
100
AcDbEntity
  8
LY_3
  6
CONTINUOUS
 62
       251
100
AcDbLine
 10
-52.638947
 20
-19.333389
 30
0.0
 11
-51.488937
 21
-19.333389
 31
0.0
  0
LINE
  5
A9
100
AcDbEntity
  8
LY_3
  6
CONTINUOUS
 62
       251
100
AcDbLine
 10
-66.388962
 20
-60.833389
 30
0.0
 11
-65.238937
 21
-60.833389
 31
0.0
  0
LINE
  5
AA
100
AcDbEntity
  8
LY_3
  6
CONTINUOUS
 62
       251
100
AcDbLine
 10
-51.488953
 20
-66.320877
 30
0.0
 11
-66.389099
 21
-66.320877
 31
0.0
  0
LINE
  5
AB
100
AcDbEntity
  8
LY_3
  6
CONTINUOUS
 62
       251
100
AcDbLine
 10
-66.388947
 20
-12.345901
 30
0.0
 11
-51.488937
 21
-12.345901
 31
0.0
  0
LINE
  5
AC
100
AcDbEntity
  8
LY_3
  6
CONTINUOUS
 62
       251
100
AcDbLine
 10
-52.638947
 20
-12.345901
 30
0.0
 11
-52.638947
 21
-20.670898
 31
0.0
  0
LINE
  5
AD
100
AcDbEntity
  8
LY_3
  6
CONTINUOUS
 62
       251
100
AcDbLine
 10
-65.238937
 20
-12.345901
 30
0.0
 11
-65.238937
 21
-20.670898
 31
0.0
  0
LINE
  5
AE
100
AcDbEntity
  8
LY_3
  6
CONTINUOUS
 62
       251
100
AcDbLine
 10
-39.43895
 20
-24.333405
 30
0.0
 11
-34.43895
 21
-24.333405
 31
0.0
  0
LINE
  5
AF
100
AcDbEntity
  8
LY_3
  6
CONTINUOUS
 62
       251
100
AcDbLine
 10
-91.43895
 20
-79.333389
 30
0.0
 11
-26.43895
 21
-79.333389
 31
0.0
  0
LINE
  5
B0
100
AcDbEntity
  8
LY_3
  6
CONTINUOUS
 62
       251
100
AcDbLine
 10
-26.43895
 20
-79.333389
 30
0.0
 11
-26.43895
 21
-54.333389
 31
0.0
  0
LINE
  5
B1
100
AcDbEntity
  8
LY_3
  6
CONTINUOUS
 62
       251
100
AcDbLine
 10
-91.43895
 20
-54.333389
 30
0.0
 11
-91.43895
 21
-79.333389
 31
0.0
  0
LINE
  5
B2
100
AcDbEntity
  8
LY_3
  6
CONTINUOUS
 62
       251
100
AcDbLine
 10
-26.43895
 20
-24.333389
 30
0.0
 11
-26.43895
 21
0.666611
 31
0.0
  0
LINE
  5
B3
100
AcDbEntity
  8
LY_3
  6
CONTINUOUS
 62
       251
100
AcDbLine
 10
-91.43895
 20
0.666611
 30
0.0
 11
-26.43895
 21
0.666611
 31
0.0
  0
LINE
  5
B4
100
AcDbEntity
  8
LY_3
  6
CONTINUOUS
 62
       251
100
AcDbLine
 10
-91.43895
 20
0.666611
 30
0.0
 11
-91.43895
 21
-24.333389
 31
0.0
  0
LINE
  5
B5
100
AcDbEntity
  8
LY_3
  6
CONTINUOUS
 62
       251
100
AcDbLine
 10
-92.43895
 20
-24.333389
 30
0.0
 11
-92.43895
 21
-29.794006
 31
0.0
  0
LINE
  5
B6
100
AcDbEntity
  8
LY_3
  6
CONTINUOUS
 62
       251
100
AcDbLine
 10
-92.43895
 20
-29.794006
 30
0.0
 11
-25.43898
 21
-29.794006
 31
0.0
  0
LINE
  5
B7
100
AcDbEntity
  8
LY_3
  6
CONTINUOUS
 62
       251
100
AcDbLine
 10
-25.43898
 20
-49.333389
 30
0.0
 11
-92.43895
 21
-49.333389
 31
0.0
  0
LINE
  5
B8
100
AcDbEntity
  8
LY_3
  6
CONTINUOUS
 62
       251
100
AcDbLine
 10
-92.43895
 20
-26.533401
 30
0.0
 11
-25.439011
 21
-26.533401
 31
0.0
  0
LINE
  5
B9
100
AcDbEntity
  8
LY_3
  6
CONTINUOUS
 62
       251
100
AcDbLine
 10
-92.43895
 20
-24.333389
 30
0.0
 11
-66.388962
 21
-24.333389
 31
0.0
  0
LINE
  5
BA
100
AcDbEntity
  8
LY_3
  6
CONTINUOUS
 62
       251
100
AcDbLine
 10
-66.388962
 20
-54.333389
 30
0.0
 11
-92.43895
 21
-54.333389
 31
0.0
  0
LINE
  5
BB
100
AcDbEntity
  8
LY_3
  6
CONTINUOUS
 62
       251
100
AcDbLine
 10
-66.388962
 20
-66.833415
 30
0.0
 11
-66.388962
 21
-54.333389
 31
0.0
  0
LINE
  5
BC
100
AcDbEntity
  8
LY_3
  6
CONTINUOUS
 62
       251
100
AcDbLine
 10
-51.488953
 20
-57.99588
 30
0.0
 11
-66.388962
 21
-57.99588
 31
0.0
  0
LINE
  5
BD
100
AcDbEntity
  8
LY_3
  6
CONTINUOUS
 62
       251
100
AcDbLine
 10
-25.43898
 20
-54.333389
 30
0.0
 11
-51.488937
 21
-54.333389
 31
0.0
  0
LINE
  5
BE
100
AcDbEntity
  8
LY_3
  6
CONTINUOUS
 62
       251
100
AcDbLine
 10
-25.43898
 20
-24.333389
 30
0.0
 11
-25.43898
 21
-29.794006
 31
0.0
  0
LINE
  5
BF
100
AcDbEntity
  8
LY_3
  6
CONTINUOUS
 62
       251
100
AcDbLine
 10
-51.488937
 20
-24.333389
 30
0.0
 11
-25.43898
 21
-24.333389
 31
0.0
  0
LINE
  5
C0
100
AcDbEntity
  8
LY_3
  6
CONTINUOUS
 62
       251
100
AcDbLine
 10
-66.388962
 20
-20.670898
 30
0.0
 11
-51.488937
 21
-20.670898
 31
0.0
  0
POINT
  5
C1
100
AcDbEntity
  8
LY_3
  6
CONTINUOUS
 62
        20
100
AcDbPoint
 10
-25.43898
 20
-39.333389
 30
0.0
  0
POINT
  5
C2
100
AcDbEntity
  8
LY_3
  6
CONTINUOUS
 62
        20
100
AcDbPoint
 10
-92.43895
 20
-39.333389
 30
0.0
  0
LINE
  5
C3
100
AcDbEntity
  8
LY_3
  6
CONTINUOUS
 62
       251
100
AcDbLine
 10
-63.638942
 20
-17.51424
 30
0.0
 11
-64.738941
 21
-17.51424
 31
0.0
  0
LINE
  5
C4
100
AcDbEntity
  8
LY_3
  6
CONTINUOUS
 62
       251
100
AcDbLine
 10
-54.238957
 20
-17.51424
 30
0.0
 11
-53.138958
 21
-17.51424
 31
0.0
  0
LINE
  5
C5
100
AcDbEntity
  8
LY_3
  6
CONTINUOUS
 62
       251
100
AcDbLine
 10
-63.638941
 20
-61.152538
 30
0.0
 11
-64.738941
 21
-61.152538
 31
0.0
  0
LINE
  5
C6
100
AcDbEntity
  8
LY_3
  6
CONTINUOUS
 62
       251
100
AcDbLine
 10
-54.238957
 20
-61.152538
 30
0.0
 11
-53.138958
 21
-61.152538
 31
0.0
  0
POINT
  5
C7
100
AcDbEntity
  8
LY_3
  6
CONTINUOUS
 62
        20
100
AcDbPoint
 10
48.220306
 20
-39.333389
 30
0.0
  0
ARC
  5
C8
100
AcDbEntity
  8
LY_3
  6
CONTINUOUS
 62
       251
100
AcDbCircle
 10
58.636527
 20
-76.810687
 30
0.0
 40
5.25
100
AcDbArc
 50
291.536369
 51
1.787057
  0
ARC
  5
C9
100
AcDbEntity
  8
LY_3
  6
CONTINUOUS
 62
       251
100
AcDbCircle
 10
11.114783
 20
-49.377838
 30
0.0
 40
5.25
100
AcDbArc
 50
201.536551
 51
271.787014
  0
ARC
  5
CB
100
AcDbEntity
  8
LY_3
  6
CENTER
 62
         7
100
AcDbCircle
 10
48.592078
 20
-39.333389
 30
0.0
 40
34.0
100
AcDbArc
 50
319.847135
 51
340.15285
  0
ARC
  5
CC
100
AcDbEntity
  8
LY_3
  6
CENTER
 62
         7
100
AcDbCircle
 10
48.592078
 20
-39.333389
 30
0.0
 40
34.0
100
AcDbArc
 50
259.847133
 51
280.152848
  0
ARC
  5
CD
100
AcDbEntity
  8
LY_3
  6
CENTER
 62
         7
100
AcDbCircle
 10
48.592078
 20
-39.333389
 30
0.0
 40
34.0
100
AcDbArc
 50
199.84709
 51
220.152806
  0
ARC
  5
CE
100
AcDbEntity
  8
LY_3
  6
CENTER
 62
         7
100
AcDbCircle
 10
48.592078
 20
-39.333389
 30
0.0
 40
34.0
100
AcDbArc
 50
139.847085
 51
160.1528
  0
ARC
  5
CF
100
AcDbEntity
  8
LY_3
  6
CENTER
 62
         7
100
AcDbCircle
 10
48.592078
 20
-39.333389
 30
0.0
 40
34.0
100
AcDbArc
 50
79.847097
 51
100.152812
  0
ARC
  5
D0
100
AcDbEntity
  8
LY_3
  6
CONTINUOUS
 62
       251
100
AcDbCircle
 10
38.54763
 20
-1.856094
 30
0.0
 40
5.25
100
AcDbArc
 50
111.536552
 51
181.787015
  0
ARC
  5
D1
100
AcDbEntity
  8
LY_3
  6
CONTINUOUS
 62
       251
100
AcDbCircle
 10
38.54763
 20
-1.856094
 30
0.0
 40
5.25
100
AcDbArc
 50
28.212909
 51
98.41177
  0
ARC
  5
D2
100
AcDbEntity
  8
LY_3
  6
CONTINUOUS
 62
       251
100
AcDbCircle
 10
58.636527
 20
-76.810687
 30
0.0
 40
5.25
100
AcDbArc
 50
208.212979
 51
278.411533
  0
ARC
  5
D3
100
AcDbEntity
  8
LY_3
  6
CONTINUOUS
 62
       251
100
AcDbCircle
 10
11.114783
 20
-49.377838
 30
0.0
 40
5.25
100
AcDbArc
 50
118.212925
 51
188.411643
  0
ARC
  5
D4
100
AcDbEntity
  8
LY_3
  6
CENTER
 62
         7
100
AcDbCircle
 10
48.592078
 20
-39.333389
 30
0.0
 40
34.0
100
AcDbArc
 50
19.847133
 51
40.152848
  0
CIRCLE
  5
D5
100
AcDbEntity
  8
LY_3
  6
CONTINUOUS
 62
       251
100
AcDbCircle
 10
48.592078
 20
-39.333389
 30
0.0
 40
40.0
  0
CIRCLE
  5
D6
100
AcDbEntity
  8
LY_3
  6
CONTINUOUS
 62
       251
100
AcDbCircle
 10
48.592078
 20
-39.333389
 30
0.0
 40
28.799988
  0
CIRCLE
  5
D7
100
AcDbEntity
  8
LY_3
  6
CONTINUOUS
 62
       251
100
AcDbCircle
 10
48.592078
 20
-39.333389
 30
0.0
 40
15.0
  0
ARC
  5
D8
100
AcDbEntity
  8
LY_3
  6
CONTINUOUS
 62
       251
100
AcDbCircle
 10
48.592078
 20
-39.333389
 30
0.0
 40
10.0
100
AcDbArc
 50
107.457672
 51
72.542329
  0
LINE
  5
D9
100
AcDbEntity
  8
LY_3
  6
CONTINUOUS
 62
       251
100
AcDbLine
 10
64.161283
 20
-76.178997
 30
0.0
 11
64.259698
 21
-76.546289
 31
0.0
  0
LINE
  5
DA
100
AcDbEntity
  8
LY_3
  6
CONTINUOUS
 62
       251
100
AcDbLine
 10
53.536269
 20
-79.02664
 30
0.0
 11
53.634514
 21
-79.393298
 31
0.0
  0
LINE
  5
DB
100
AcDbEntity
  8
LY_3
  6
CONTINUOUS
 62
       251
100
AcDbLine
 10
58.792306
 20
-79.719456
 30
0.0
 11
59.404502
 21
-82.0042
 31
0.0
  0
LINE
  5
DC
100
AcDbEntity
  8
LY_3
  6
CONTINUOUS
 62
       251
100
AcDbLine
 10
59.951414
 20
-79.408874
 30
0.0
 11
60.563752
 21
-81.694149
 31
0.0
  0
LINE
  5
DD
100
AcDbEntity
  8
LY_3
  6
CONTINUOUS
 62
       251
100
AcDbLine
 10
58.792296
 20
-79.719475
 30
0.0
 11
59.951404
 21
-79.408892
 31
0.0
  0
LINE
  5
DE
100
AcDbEntity
  8
LY_3
  6
CONTINUOUS
 62
       251
100
AcDbLine
 10
8.898812
 20
-44.277595
 30
0.0
 11
8.532169
 21
-44.375837
 31
0.0
  0
LINE
  5
DF
100
AcDbEntity
  8
LY_3
  6
CONTINUOUS
 62
       251
100
AcDbLine
 10
11.746455
 20
-54.902608
 30
0.0
 11
11.379178
 21
-55.00102
 31
0.0
  0
LINE
  5
E0
100
AcDbEntity
  8
LY_3
  6
CONTINUOUS
 62
       251
100
AcDbLine
 10
8.516552
 20
-50.692758
 30
0.0
 11
6.231306
 21
-51.305088
 31
0.0
  0
LINE
  5
E1
100
AcDbEntity
  8
LY_3
  6
CONTINUOUS
 62
       251
100
AcDbLine
 10
8.205969
 20
-49.533647
 30
0.0
 11
5.921254
 21
-50.145835
 31
0.0
  0
LINE
  5
E2
100
AcDbEntity
  8
LY_3
  6
CONTINUOUS
 62
       251
100
AcDbLine
 10
8.516566
 20
-50.692754
 30
0.0
 11
8.205983
 21
-49.533643
 31
0.0
  0
LINE
  5
E3
100
AcDbEntity
  8
LY_3
  6
CONTINUOUS
 62
       251
100
AcDbLine
 10
43.647874
 20
0.359869
 30
0.0
 11
43.549632
 21
0.726513
 31
0.0
  0
LINE
  5
E4
100
AcDbEntity
  8
LY_3
  6
CONTINUOUS
 62
       251
100
AcDbLine
 10
33.02286
 20
-2.487775
 30
0.0
 11
32.924448
 21
-2.120497
 31
0.0
  0
LINE
  5
E5
100
AcDbEntity
  8
LY_3
  6
CONTINUOUS
 62
       251
100
AcDbLine
 10
37.232717
 20
0.742084
 30
0.0
 11
36.62038
 21
3.027359
 31
0.0
  0
LINE
  5
E6
100
AcDbEntity
  8
LY_3
  6
CONTINUOUS
 62
       251
100
AcDbLine
 10
38.391826
 20
1.052666
 30
0.0
 11
37.779626
 21
3.337425
 31
0.0
  0
LINE
  5
E7
100
AcDbEntity
  8
LY_3
  6
CONTINUOUS
 62
       251
100
AcDbLine
 10
37.232699
 20
0.742095
 30
0.0
 11
38.391807
 21
1.052677
 31
0.0
  0
LINE
  5
E8
100
AcDbEntity
  8
LY_3
  6
CENTER
 62
         7
100
AcDbLine
 10
55.050088
 20
-63.435062
 30
0.0
 11
60.629582
 21
-84.258018
 31
0.0
  0
LINE
  5
EA
100
AcDbEntity
  8
LY_3
  6
DASHED
 62
         7
100
AcDbLine
 10
44.412448
 20
-12.152878
 30
0.0
 11
41.445385
 21
-1.079647
 31
0.0
  0
LINE
  5
EB
100
AcDbEntity
  8
LY_3
  6
DASHED
 62
         7
100
AcDbLine
 10
43.96598
 20
-12.225291
 30
0.0
 11
41.010721
 21
-1.196115
 31
0.0
  0
LINE
  5
EC
100
AcDbEntity
  8
LY_3
  6
DASHED
 62
         7
100
AcDbLine
 10
39.039867
 20
-13.545697
 30
0.0
 11
36.084494
 21
-2.516094
 31
0.0
  0
LINE
  5
ED
100
AcDbEntity
  8
LY_3
  6
DASHED
 62
         7
100
AcDbLine
 10
38.617028
 20
-13.706293
 30
0.0
 11
35.64983
 21
-2.632561
 31
0.0
  0
LINE
  5
EE
100
AcDbEntity
  8
LY_3
  6
DASHED
 62
         7
100
AcDbLine
 10
43.088873
 20
-7.213286
 30
0.0
 11
37.293333
 21
-8.766196
 31
0.0
  0
LINE
  5
EF
100
AcDbEntity
  8
LY_3
  6
DASHED
 62
         7
100
AcDbLine
 10
37.293253
 20
-8.766162
 30
0.0
 11
37.84439
 21
-9.084361
 31
0.0
  0
LINE
  5
F0
100
AcDbEntity
  8
LY_3
  6
DASHED
 62
         7
100
AcDbLine
 10
43.088815
 20
-7.213246
 30
0.0
 11
42.770615
 21
-7.764383
 31
0.0
  0
LINE
  5
F1
100
AcDbEntity
  8
LY_3
  6
DASHED
 62
         7
100
AcDbLine
 10
42.770677
 20
-7.764417
 30
0.0
 11
37.844479
 21
-9.084388
 31
0.0
  0
LINE
  5
F2
100
AcDbEntity
  8
LY_3
  6
CONTINUOUS
 62
       251
100
AcDbLine
 10
43.549632
 20
0.726513
 30
0.0
 11
32.924448
 21
-2.120497
 31
0.0
  0
LINE
  5
F3
100
AcDbEntity
  8
LY_3
  6
DASHED
 62
         7
100
AcDbLine
 10
33.23503
 20
-3.279605
 30
0.0
 11
33.02286
 21
-2.487775
 31
0.0
  0
LINE
  5
F4
100
AcDbEntity
  8
LY_3
  6
DASHED
 62
         7
100
AcDbLine
 10
43.860214
 20
-0.432595
 30
0.0
 11
43.647874
 21
0.359869
 31
0.0
  0
LINE
  5
F5
100
AcDbEntity
  8
LY_3
  6
DASHED
 62
         7
100
AcDbLine
 10
43.8602
 20
-0.432599
 30
0.0
 11
33.235016
 21
-3.279609
 31
0.0
  0
LINE
  5
F6
100
AcDbEntity
  8
LY_3
  6
DASHED
 62
         7
100
AcDbLine
 10
52.771698
 20
-66.513908
 30
0.0
 11
55.738762
 21
-77.587139
 31
0.0
  0
LINE
  5
F7
100
AcDbEntity
  8
LY_3
  6
DASHED
 62
         7
100
AcDbLine
 10
53.218162
 20
-66.44148
 30
0.0
 11
56.173425
 21
-77.470671
 31
0.0
  0
LINE
  5
F8
100
AcDbEntity
  8
LY_3
  6
DASHED
 62
         7
100
AcDbLine
 10
58.144276
 20
-65.121074
 30
0.0
 11
61.099653
 21
-76.150692
 31
0.0
  0
LINE
  5
F9
100
AcDbEntity
  8
LY_3
  6
DASHED
 62
         7
100
AcDbLine
 10
58.567119
 20
-64.960493
 30
0.0
 11
61.534317
 21
-76.034225
 31
0.0
  0
LINE
  5
FA
100
AcDbEntity
  8
LY_3
  6
DASHED
 62
         7
100
AcDbLine
 10
54.095274
 20
-71.4535
 30
0.0
 11
59.890814
 21
-69.90059
 31
0.0
  0
LINE
  5
FB
100
AcDbEntity
  8
LY_3
  6
DASHED
 62
         7
100
AcDbLine
 10
59.890894
 20
-69.900619
 30
0.0
 11
59.339757
 21
-69.58242
 31
0.0
  0
LINE
  5
FC
100
AcDbEntity
  8
LY_3
  6
DASHED
 62
         7
100
AcDbLine
 10
54.095333
 20
-71.453535
 30
0.0
 11
54.413532
 21
-70.902398
 31
0.0
  0
LINE
  5
FD
100
AcDbEntity
  8
LY_3
  6
DASHED
 62
         7
100
AcDbLine
 10
54.41347
 20
-70.902369
 30
0.0
 11
59.339668
 21
-69.582398
 31
0.0
  0
LINE
  5
FE
100
AcDbEntity
  8
LY_3
  6
CONTINUOUS
 62
       251
100
AcDbLine
 10
53.634514
 20
-79.393298
 30
0.0
 11
64.259698
 21
-76.546289
 31
0.0
  0
LINE
  5
FF
100
AcDbEntity
  8
LY_3
  6
DASHED
 62
         7
100
AcDbLine
 10
63.949116
 20
-75.387181
 30
0.0
 11
64.161283
 21
-76.178997
 31
0.0
  0
LINE
  5
100
100
AcDbEntity
  8
LY_3
  6
DASHED
 62
         7
100
AcDbLine
 10
53.323932
 20
-78.23419
 30
0.0
 11
53.536269
 21
-79.02664
 31
0.0
  0
LINE
  5
101
100
AcDbEntity
  8
LY_3
  6
DASHED
 62
         7
100
AcDbLine
 10
53.323918
 20
-78.234194
 30
0.0
 11
63.949102
 21
-75.387185
 31
0.0
  0
LINE
  5
102
100
AcDbEntity
  8
LY_3
  6
DASHED
 62
         7
100
AcDbLine
 10
21.411544
 20
-43.513025
 30
0.0
 11
10.338328
 21
-46.480084
 31
0.0
  0
LINE
  5
103
100
AcDbEntity
  8
LY_3
  6
DASHED
 62
         7
100
AcDbLine
 10
21.483972
 20
-43.959489
 30
0.0
 11
10.454796
 21
-46.914748
 31
0.0
  0
LINE
  5
104
100
AcDbEntity
  8
LY_3
  6
DASHED
 62
         7
100
AcDbLine
 10
22.804378
 20
-48.885602
 30
0.0
 11
11.774775
 21
-51.840975
 31
0.0
  0
LINE
  5
105
100
AcDbEntity
  8
LY_3
  6
DASHED
 62
         7
100
AcDbLine
 10
22.964974
 20
-49.308441
 30
0.0
 11
11.891242
 21
-52.275639
 31
0.0
  0
LINE
  5
106
100
AcDbEntity
  8
LY_3
  6
DASHED
 62
         7
100
AcDbLine
 10
16.471967
 20
-44.836596
 30
0.0
 11
18.024877
 21
-50.632136
 31
0.0
  0
LINE
  5
107
100
AcDbEntity
  8
LY_3
  6
DASHED
 62
         7
100
AcDbLine
 10
18.024845
 20
-50.632211
 30
0.0
 11
18.343044
 21
-50.081074
 31
0.0
  0
LINE
  5
108
100
AcDbEntity
  8
LY_3
  6
DASHED
 62
         7
100
AcDbLine
 10
16.471929
 20
-44.83665
 30
0.0
 11
17.023066
 21
-45.154849
 31
0.0
  0
LINE
  5
109
100
AcDbEntity
  8
LY_3
  6
DASHED
 62
         7
100
AcDbLine
 10
17.023098
 20
-45.154792
 30
0.0
 11
18.343069
 21
-50.08099
 31
0.0
  0
LINE
  5
10A
100
AcDbEntity
  8
LY_3
  6
CONTINUOUS
 62
       251
100
AcDbLine
 10
8.532169
 20
-44.375837
 30
0.0
 11
11.379178
 21
-55.00102
 31
0.0
  0
LINE
  5
10B
100
AcDbEntity
  8
LY_3
  6
DASHED
 62
         7
100
AcDbLine
 10
12.538286
 20
-54.690438
 30
0.0
 11
11.746455
 21
-54.902608
 31
0.0
  0
LINE
  5
10C
100
AcDbEntity
  8
LY_3
  6
DASHED
 62
         7
100
AcDbLine
 10
9.691277
 20
-44.065255
 30
0.0
 11
8.898812
 21
-44.277595
 31
0.0
  0
LINE
  5
10D
100
AcDbEntity
  8
LY_3
  6
DASHED
 62
         7
100
AcDbLine
 10
9.691277
 20
-44.065256
 30
0.0
 11
12.538286
 21
-54.690437
 31
0.0
  0
LINE
  5
10E
100
AcDbEntity
  8
LY_3
  6
CENTER
 62
         7
100
AcDbLine
 10
81.199543
 20
-58.159343
 30
0.0
 11
74.270124
 21
-54.158641
 31
0.0
  0
LINE
  5
10F
100
AcDbEntity
  8
LY_3
  6
CENTER
 62
         7
100
AcDbLine
 10
15.98458
 20
-58.159325
 30
0.0
 11
22.913999
 21
-54.158624
 31
0.0
  0
LINE
  5
110
100
AcDbEntity
  8
LY_3
  6
CENTER
 62
         7
100
AcDbLine
 10
15.984587
 20
-20.507449
 30
0.0
 11
22.914003
 21
-24.508149
 31
0.0
  0
LINE
  5
111
100
AcDbEntity
  8
LY_3
  6
CENTER
 62
         7
100
AcDbLine
 10
81.199555
 20
-20.507463
 30
0.0
 11
74.270136
 21
-24.508165
 31
0.0
  0
LINE
  5
112
100
AcDbEntity
  8
LY_3
  6
CONTINUOUS
 62
       251
100
AcDbLine
 10
45.592078
 20
-26.533401
 30
0.0
 11
51.592078
 21
-26.533401
 31
0.0
  0
LINE
  5
113
100
AcDbEntity
  8
LY_3
  6
CONTINUOUS
 62
       251
100
AcDbLine
 10
51.592078
 20
-26.533401
 30
0.0
 11
51.592078
 21
-29.794006
 31
0.0
  0
LINE
  5
114
100
AcDbEntity
  8
LY_3
  6
CONTINUOUS
 62
       251
100
AcDbLine
 10
45.592078
 20
-26.533401
 30
0.0
 11
45.592078
 21
-29.794006
 31
0.0
  0
LINE
  5
115
100
AcDbEntity
  8
LY_3
  6
CENTER
 62
         7
100
AcDbLine
 10
48.406201
 20
-1.359559
 30
0.0
 11
48.4062
 21
-9.360963
 31
0.0
  0
LINE
  5
116
100
AcDbEntity
  8
LY_3
  6
CENTER
 62
         7
100
AcDbLine
 10
48.406182
 20
-76.663316
 30
0.0
 11
48.406182
 21
-68.661912
 31
0.0
  0
LINE
  5
117
100
AcDbEntity
  8
LY_3
  6
CONTINUOUS
 62
       251
100
AcDbLine
 10
-25.43898
 20
-49.333389
 30
0.0
 11
-25.43898
 21
-54.333389
 31
0.0
  0
LINE
  5
118
100
AcDbEntity
  8
LY_3
  6
CONTINUOUS
 62
       251
100
AcDbLine
 10
-92.43895
 20
-49.333389
 30
0.0
 11
-92.43895
 21
-54.333389
 31
0.0
  0
ENDSEC
  0
SECTION
  2
OBJECTS
  0
DICTIONARY
  5
19
100
AcDbDictionary
  3
ACAD_GROUP
350
1A
  3
ACAD_MLINESTYLE
350
1B
  0
DICTIONARY
  5
1A
102
{ACAD_REACTORS
330
19
102
}
100
AcDbDictionary
  0
DICTIONARY
  5
1B
102
{ACAD_REACTORS
330
19
102
}
100
AcDbDictionary
  3
STANDARD
350
1C
  0
MLINESTYLE
  5
1C
102
{ACAD_REACTORS
330
1B
102
}
100
AcDbMlineStyle
  2
Standard
 70
         0
  3

 62
         0
 51
90.0
 52
90.0
 71
         2
 49
0.5
 62
       256
  6
ByLayer
 49
-0.5
 62
       256
  6
ByLayer
  0
ENDSEC
  0
EOF
