  0
SECTION
  2
HEADER
  9
$ACADVER
  1
AC1014
  9
$ACADMAINTVER
 70
         0
  9
$DWGCODEPAGE
  3
ANSI_932
  9
$INSBASE
 10
0.0
 20
0.0
 30
0.0
  9
$EXTMIN
 10
-149.7476530076
 20
-70.1192626953
 30
0.0
  9
$EXTMAX
 10
101.1499938965
 20
122.1256914138
 30
0.0
  9
$LIMMIN
 10
-149.7476530076
 20
-70.1192626953
  9
$LIMMAX
 10
101.1499938965
 20
122.1256914138
  9
$ORTHOMODE
 70
         0
  9
$REGENMODE
 70
         1
  9
$FILLMODE
 70
         1
  9
$QTEXTMODE
 70
         0
  9
$MIRRTEXT
 70
         1
  9
$DRAGMODE
 70
         2
  9
$LTSCALE
 40
1.0
  9
$OSMODE
 70
         0
  9
$ATTMODE
 70
         1
  9
$TEXTSIZE
 40
3.2000000477
  9
$TRACEWID
 40
0.05
  9
$TEXTSTYLE
  7
MX_NOTE_STANDARD
  9
$CLAYER
  8
0
  9
$CELTYPE
  6
CONTINUOUS
  9
$CECOLOR
 62
       256
  9
$CELTSCALE
 40
1.0
  9
$DELOBJ
 70
         1
  9
$DISPSILH
 70
         0
  9
$DIMSCALE
 40
1.0
  9
$DIMASZ
 40
2.5
  9
$DIMEXO
 40
0.0
  9
$DIMDLI
 40
3.75
  9
$DIMRND
 40
0.0
  9
$DIMDLE
 40
0.0
  9
$DIMEXE
 40
2.5
  9
$DIMTP
 40
0.0
  9
$DIMTM
 40
0.0
  9
$DIMTXT
 40
3.2000000477
  9
$DIMCEN
 40
2.5
  9
$DIMTSZ
 40
0.0
  9
$DIMTOL
 70
         0
  9
$DIMLIM
 70
         0
  9
$DIMTIH
 70
         0
  9
$DIMTOH
 70
         0
  9
$DIMSE1
 70
         0
  9
$DIMSE2
 70
         0
  9
$DIMTAD
 70
         1
  9
$DIMZIN
 70
         8
  9
$DIMBLK
  1

  9
$DIMASO
 70
         1
  9
$DIMSHO
 70
         1
  9
$DIMPOST
  1

  9
$DIMAPOST
  1

  9
$DIMALT
 70
         0
  9
$DIMALTD
 70
         4
  9
$DIMALTF
 40
0.0393700787
  9
$DIMLFAC
 40
1.0
  9
$DIMTOFL
 70
         1
  9
$DIMTVP
 40
0.0
  9
$DIMTIX
 70
         0
  9
$DIMSOXD
 70
         0
  9
$DIMSAH
 70
         1
  9
$DIMBLK1
  1
_OPEN30
  9
$DIMBLK2
  1
_OPEN30
  9
$DIMSTYLE
  2
MXDIMSTYLE
  9
$DIMCLRD
 70
         0
  9
$DIMCLRE
 70
         0
  9
$DIMCLRT
 70
         0
  9
$DIMTFAC
 40
1.0
  9
$DIMGAP
 40
1.0
  9
$DIMJUST
 70
         0
  9
$DIMSD1
 70
         0
  9
$DIMSD2
 70
         0
  9
$DIMTOLJ
 70
         0
  9
$DIMTZIN
 70
         0
  9
$DIMALTZ
 70
         0
  9
$DIMALTTZ
 70
         0
  9
$DIMFIT
 70
         3
  9
$DIMUPT
 70
         0
  9
$DIMUNIT
 70
         2
  9
$DIMDEC
 70
         2
  9
$DIMTDEC
 70
         2
  9
$DIMALTU
 70
         2
  9
$DIMALTTD
 70
         4
  9
$DIMTXSTY
  7
MX_NOTE_STANDARD
  9
$DIMAUNIT
 70
         0
  9
$LUNITS
 70
         2
  9
$LUPREC
 70
         4
  9
$SKETCHINC
 40
0.1
  9
$FILLETRAD
 40
0.0
  9
$AUNITS
 70
         0
  9
$AUPREC
 70
         0
  9
$MENU
  1
acad
  9
$ELEVATION
 40
0.0
  9
$PELEVATION
 40
0.0
  9
$THICKNESS
 40
0.0
  9
$LIMCHECK
 70
         0
  9
$BLIPMODE
 70
         1
  9
$CHAMFERA
 40
0.0
  9
$CHAMFERB
 40
0.0
  9
$CHAMFERC
 40
0.0
  9
$CHAMFERD
 40
0.0
  9
$SKPOLY
 70
         0
  9
$TDCREATE
 40
2456603.419502315
  9
$TDUPDATE
 40
2456603.419502315
  9
$TDINDWG
 40
0.0000000000
  9
$TDUSRTIMER
 40
0.0000000000
  9
$USRTIMER
 70
         1
  9
$ANGBASE
 50
0.0
  9
$ANGDIR
 70
         0
  9
$PDMODE
 70
         0
  9
$PDSIZE
 40
0.0
  9
$PLINEWID
 40
0.0
  9
$COORDS
 70
         1
  9
$SPLFRAME
 70
         0
  9
$SPLINETYPE
 70
         6
  9
$SPLINESEGS
 70
         8
  9
$ATTDIA
 70
         0
  9
$ATTREQ
 70
         1
  9
$HANDLING
 70
         1
  9
$HANDSEED
  5
FF
  9
$SURFTAB1
 70
         6
  9
$SURFTAB2
 70
         6
  9
$SURFTYPE
 70
         6
  9
$SURFU
 70
         6
  9
$SURFV
 70
         6
  9
$UCSNAME
  2

  9
$UCSORG
 10
0.0
 20
0.0
 30
0.0
  9
$UCSXDIR
 10
1.0
 20
0.0
 30
0.0
  9
$UCSYDIR
 10
0.0
 20
1.0
 30
0.0
  9
$PUCSNAME
  2

  9
$PUCSORG
 10
0.0
 20
0.0
 30
0.0
  9
$PUCSXDIR
 10
1.0
 20
0.0
 30
0.0
  9
$PUCSYDIR
 10
0.0
 20
1.0
 30
0.0
  9
$USERI1
 70
         0
  9
$USERI2
 70
         0
  9
$USERI3
 70
         0
  9
$USERI4
 70
         0
  9
$USERI5
 70
         0
  9
$USERR1
 40
0.0
  9
$USERR2
 40
0.0
  9
$USERR3
 40
0.0
  9
$USERR4
 40
0.0
  9
$USERR5
 40
0.0
  9
$WORLDVIEW
 70
         1
  9
$SHADEDGE
 70
         3
  9
$SHADEDIF
 70
        70
  9
$TILEMODE
 70
         1
  9
$MAXACTVP
 70
        16
  9
$PINSBASE
 10
0.0
 20
0.0
 30
0.0
  9
$PLIMCHECK
 70
         0
  9
$PEXTMIN
 10
1.0000000000E+20
 20
1.0000000000E+20
 30
1.0000000000E+20
  9
$PEXTMAX
 10
-1.0000000000E+20
 20
-1.0000000000E+20
 30
-1.0000000000E+20
  9
$PLIMMIN
 10
0.0
 20
0.0
  9
$PLIMMAX
 10
12.0
 20
9.0
  9
$UNITMODE
 70
         0
  9
$VISRETAIN
 70
         0
  9
$PLINEGEN
 70
         1
  9
$PSLTSCALE
 70
         0
  9
$TREEDEPTH
 70
      3020
  9
$PICKSTYLE
 70
         1
  9
$CMLSTYLE
  2
Standard
  9
$CMLJUST
 70
         0
  9
$CMLSCALE
 40
1.0
  9
$PROXYGRAPHICS
 70
         0
  9
$MEASUREMENT
 70
         1
  0
ENDSEC
  0
SECTION
  2
CLASSES
  0
CLASS
  1
LWPOLYLINE
  2
AcDbPolyline
  3
"AutoCAD"
 90
        0
280
         0
281
         1
  0
CLASS
  1
IMAGE
  2
AcDbRasterImage
  3
ISM
 90
      127
280
         0
281
         1
  0
CLASS
  1
OLE2FRAME
  2
AcDbOle2Frame
  3
""
 90
        0
280
         0
281
         1
  0
CLASS
  1
HATCH
  2
AcDbHatch
  3
"ACAD_SEDONA"
 90
        0
280
         0
281
         1
  0
CLASS
  1
DICTIONARYVAR
  2
AcDbDictionaryVar
  3
"AutoCAD"
 90
        0
280
         0
281
         0
  0
CLASS
  1
RASTERVARIABLES
  2
AcDbRasterVariables
  3
ISM
 90
        0
280
         0
281
         0
  0
CLASS
  1
IMAGEDEF
  2
AcDbRasterImageDef
  3
ISM
 90
        0
280
         0
281
         0
  0
CLASS
  1
IMAGEDEF_REACTOR
  2
AcDbRasterImageDefReactor
  3
ISM
 90
        1
280
         0
281
         0
  0
CLASS
  1
IDBUFFER
  2
AcDbIdBuffer
  3
"Acad"
 90
        0
280
         0
281
         0
  0
CLASS
  1
SPATIAL_FILTER
  2
AcDbSpatialFilter
  3
"Acad"
 90
        0
280
         0
281
         0
  0
CLASS
  1
XRECORD
  2
AcDbXrecord
  3
"<Built In>"
 90
        0
280
         0
281
         0
  0
CLASS
  1
SORTENTSTABLE
  2
AcDbSortentsTable
  3
"AutoCAD"
 90
        0
280
         0
281
         0
  0
CLASS
  1
LAYER_INDEX
  2
AcDbLayerIndex
  3
"Acad"
 90
        0
280
         0
281
         0
  0
CLASS
  1
SPATIAL_INDEX
  2
AcDbSpatialIndex
  3
"Acad"
 90
        0
280
         0
281
         0
  0
CLASS
  1
OBJECT_PTR
  2
CAseDLPNTableRecord
  3
"ASE-LPNTableRecord"
 90
        1
280
         0
281
         0
  0
CLASS
  1
LAYOUT
  2
AcDbLayout
  3
"AutoCAD 2000"
 90
        0
280
         0
281
         0
  0
CLASS
  1
PLOTSETTINGS
  2
AcDbPlotSettings
  3
"AutoCAD 2000"
 90
        0
280
         0
281
         0
  0
CLASS
  1
ACDBDICTIONARYWDFLT
  2
AcDbDictionaryWithDefault
  3
"AutoCAD 2000"
 90
        0
280
         0
281
         0
  0
CLASS
  1
ACDBPLACEHOLDER
  2
AcDbPlaceHolder
  3
"AutoCAD 2000"
 90
        0
280
         0
281
         0
  0
ENDSEC
  0
SECTION
  2
TABLES
  0
TABLE
  2
VPORT
  5
7
100
AcDbSymbolTable
 70
         1
  0
VPORT
  5
15
100
AcDbSymbolTableRecord
100
AcDbViewportTableRecord
  2
*ACTIVE
 70
         0
 10
0.0
 20
0.0
 11
1.0
 21
1.0
 12
-24.2988295555
 22
26.0032143593
 13
0.0
 23
0.0
 14
1.0
 24
1.0
 15
0.0
 25
0.0
 16
0.0
 26
0.0
 36
1.0
 17
0.0
 27
0.0
 37
0.0
 40
194.1674036502
 41
1.7320508076
 42
50.0
 43
0.0
 44
0.0
 50
0.0
 51
0.0
 71
         0
 72
       100
 73
         1
 74
         1
 75
         0
 76
         0
 77
         0
 78
         0
  0
ENDTAB
  0
TABLE
  2
LTYPE
  5
4
100
AcDbSymbolTable
 70
         5
  0
LTYPE
  5
11
100
AcDbSymbolTableRecord
100
AcDbLinetypeTableRecord
  2
BYBLOCK
 70
        64
  3

 72
        65
 73
         0
 40
0.0
  0
LTYPE
  5
12
100
AcDbSymbolTableRecord
100
AcDbLinetypeTableRecord
  2
BYLAYER
 70
        64
  3

 72
        65
 73
         0
 40
0.0
  0
LTYPE
  5
13
100
AcDbSymbolTableRecord
100
AcDbLinetypeTableRecord
  2
CONTINUOUS
 70
        64
  3
Solid line
 72
        65
 73
         0
 40
0.0
  0
LTYPE
  5
2B
100
AcDbSymbolTableRecord
100
AcDbLinetypeTableRecord
  2
CENTER
 70
        64
  3
Center ____ _ ____ _ ____ _ ____ _ ____ _ ____
 72
        65
 73
         4
 40
50.8
 49
31.75
 74
         0
 49
-6.35
 74
         0
 49
6.35
 74
         0
 49
-6.35
 74
         0
  0
LTYPE
  5
62
100
AcDbSymbolTableRecord
100
AcDbLinetypeTableRecord
  2
DASHED
 70
        64
  3
Dashed __ __ __ __ __ __ __ __ __ __ __ __ __ _
 72
        65
 73
         2
 40
19.05
 49
12.7
 74
         0
 49
-6.35
 74
         0
  0
ENDTAB
  0
TABLE
  2
LAYER
  5
2
100
AcDbSymbolTable
 70
         3
  0
LAYER
  5
14
100
AcDbSymbolTableRecord
100
AcDbLayerTableRecord
  2
0
 70
         0
 62
         7
  6
CONTINUOUS
  0
LAYER
  5
1D
100
AcDbSymbolTableRecord
100
AcDbLayerTableRecord
  2
DEFPOINTS
 70
         0
 62
         7
  6
CONTINUOUS
  0
LAYER
  5
1E
100
AcDbSymbolTableRecord
100
AcDbLayerTableRecord
  2
LY_3
 70
         0
 62
         7
  6
CONTINUOUS
  0
ENDTAB
  0
TABLE
  2
STYLE
  5
3
100
AcDbSymbolTable
 70
         1
  0
STYLE
  5
17
100
AcDbSymbolTableRecord
100
AcDbTextStyleTableRecord
  2
MX_NOTE_STANDARD
 70
         0
 40
0.0
 41
1.0
 50
0.0
 71
         0
 42
3.2000000477
  3
txt.shx
  4
extfont.shx
  0
ENDTAB
  0
TABLE
  2
VIEW
  5
5
100
AcDbSymbolTable
 70
         0
  0
ENDTAB
  0
TABLE
  2
UCS
  5
6
100
AcDbSymbolTable
 70
         0
  0
ENDTAB
  0
TABLE
  2
APPID
  5
8
100
AcDbSymbolTable
 70
         1
  0
APPID
  5
16
100
AcDbSymbolTableRecord
100
AcDbRegAppTableRecord
  2
ACAD
 70
         0
  0
ENDTAB
  0
TABLE
  2
DIMSTYLE
  5
9
100
AcDbSymbolTable
 70
         1
  0
DIMSTYLE
105
18
100
AcDbSymbolTableRecord
100
AcDbDimStyleTableRecord
  2
MXDIMSTYLE
 70
         0
  3

  4

  5

  6
_OPEN30
  7
_OPEN30
 40
1.0
 41
2.5
 42
0.0
 43
3.75
 44
2.5
 45
0.0
 46
0.0
 47
0.0
 48
0.0
 71
         0
 72
         0
 73
         0
 74
         0
 75
         0
 76
         0
 77
         1
 78
         8
140
3.2000000477
141
2.5
142
0.0
143
0.0393700787
144
1.0
145
0.0
146
1.0
147
1.0
170
         0
171
         4
172
         1
173
         1
174
         0
175
         0
176
         0
177
         0
178
         0
270
         2
271
         2
272
         2
273
         2
274
         4
275
         0
280
         0
281
         0
282
         0
283
         0
284
         0
285
         0
286
         0
287
         3
288
         0
340
17
  0
ENDTAB
  0
TABLE
  2
BLOCK_RECORD
  5
1
100
AcDbSymbolTable
 70
         1
  0
BLOCK_RECORD
  5
A
100
AcDbSymbolTableRecord
100
AcDbBlockTableRecord
  2
*MODEL_SPACE
  0
BLOCK_RECORD
  5
B
100
AcDbSymbolTableRecord
100
AcDbBlockTableRecord
  2
*PAPER_SPACE
  0
BLOCK_RECORD
  5
1F
100
AcDbSymbolTableRecord
100
AcDbBlockTableRecord
  2
_OPEN30
  0
ENDTAB
  0
ENDSEC
  0
SECTION
  2
BLOCKS
  0
BLOCK
  5
D
100
AcDbEntity
  8
0
100
AcDbBlockBegin
  2
*MODEL_SPACE
 70
         0
 10
0.0
 20
0.0
 30
0.0
  3
*MODEL_SPACE
  1

  0
ENDBLK
  5
E
100
AcDbEntity
  8
0
100
AcDbBlockEnd
  0
BLOCK
  5
F
100
AcDbEntity
 67
         1
  8
0
100
AcDbBlockBegin
  2
*PAPER_SPACE
 70
         0
 10
0.0
 20
0.0
 30
0.0
  3
*PAPER_SPACE
  1

  0
ENDBLK
  5
10
100
AcDbEntity
 67
         1
  8
0
100
AcDbBlockEnd
  0
BLOCK
  5
20
100
AcDbEntity
  8
0
  6
ByBlock
 62
         0
100
AcDbBlockBegin
  2
_OPEN30
 70
         2
 10
0.0
 20
0.0
 30
0.0
  3
_OPEN30
  1

  0
LINE
  5
21
100
AcDbEntity
  8
0
  6
ByBlock
 62
         0
100
AcDbLine
 10
-1.0
 20
0.267949
 30
0.0
 11
0.0
 21
0.0
 31
0.0
  0
LINE
  5
22
100
AcDbEntity
  8
0
  6
ByBlock
 62
         0
100
AcDbLine
 10
0.0
 20
0.0
 30
0.0
 11
-1.0
 21
-0.267949
 31
0.0
  0
LINE
  5
23
100
AcDbEntity
  8
0
  6
ByBlock
 62
         0
100
AcDbLine
 10
0.0
 20
0.0
 30
0.0
 11
-1.0
 21
0.0
 31
0.0
  0
ENDBLK
  5
24
100
AcDbEntity
  8
0
  6
ByBlock
 62
         0
100
AcDbBlockEnd
  0
ENDSEC
  0
SECTION
  2
ENTITIES
  0
MTEXT
  5
25
100
AcDbEntity
  8
0
  6
CONTINUOUS
 62
       110
100
AcDbMText
 10
-147.4464030812
 20
117.7423582077
 30
0.0
 40
13.1499996185
 41
0.0
 71
         1
 72
         1
  1
\W1.050;\A1;TSUBAKI
  0
POINT
  5
26
100
AcDbEntity
  8
LY_3
  6
CONTINUOUS
 62
       172
100
AcDbPoint
 10
-88.4792175293
 20
-26.1192626953
 30
0.0
  0
POINT
  5
27
100
AcDbEntity
  8
LY_3
  6
CONTINUOUS
 62
       172
100
AcDbPoint
 10
-18.4792175293
 20
-26.1192626953
 30
0.0
  0
POINT
  5
28
100
AcDbEntity
  8
LY_3
  6
CONTINUOUS
 62
       172
100
AcDbPoint
 10
57.1499938965
 20
-26.1193237305
 30
0.0
  0
LINE
  5
29
100
AcDbEntity
  8
LY_3
  6
CONTINUOUS
 62
         3
100
AcDbLine
 10
-64.129196167
 20
-5.8732757568
 30
0.0
 11
-42.8292236328
 21
-5.8732757568
 31
0.0
  0
LINE
  5
2A
100
AcDbEntity
  8
LY_3
  6
CONTINUOUS
 62
         3
100
AcDbLine
 10
-64.1292114258
 20
2.4557342529
 30
0.0
 11
-64.1292114258
 21
-10.2697753906
 31
0.0
  0
LINE
  5
2C
100
AcDbEntity
  8
LY_3
  6
CENTER
 62
        80
100
AcDbLine
 10
-68.6292114258
 20
-9.7713775635
 30
0.0
 11
-68.6292114258
 21
-13.4128417969
 31
0.0
  0
LINE
  5
2D
100
AcDbEntity
  8
LY_3
  6
CONTINUOUS
 62
         3
100
AcDbLine
 10
-42.8292236328
 20
-10.269821167
 30
0.0
 11
-42.8292236328
 21
2.4557342529
 31
0.0
  0
LINE
  5
2E
100
AcDbEntity
  8
LY_3
  6
CONTINUOUS
 62
         3
100
AcDbLine
 10
-88.4792175293
 20
-10.2442626953
 30
0.0
 11
-88.4792175293
 21
-15.1192626953
 31
0.0
  0
LINE
  5
2F
100
AcDbEntity
  8
LY_3
  6
CONTINUOUS
 62
         3
100
AcDbLine
 10
-42.8292236328
 20
-46.3652496338
 30
0.0
 11
-64.1292114258
 21
-46.3652496338
 31
0.0
  0
LINE
  5
30
100
AcDbEntity
  8
LY_3
  6
CONTINUOUS
 62
         3
100
AcDbLine
 10
-64.1607818604
 20
-10.2697753906
 30
0.0
 11
-88.4792175293
 21
-10.2697753906
 31
0.0
  0
LINE
  5
31
100
AcDbEntity
  8
LY_3
  6
CONTINUOUS
 62
         3
100
AcDbLine
 10
-64.1292114258
 20
-41.96875
 30
0.0
 11
-64.1292114258
 21
-54.6942596436
 31
0.0
  0
LINE
  5
32
100
AcDbEntity
  8
LY_3
  6
CONTINUOUS
 62
         3
100
AcDbLine
 10
-18.4792175293
 20
-41.96875
 30
0.0
 11
-18.4792175293
 21
-37.1192626953
 31
0.0
  0
LINE
  5
33
100
AcDbEntity
  8
LY_3
  6
CONTINUOUS
 62
         3
100
AcDbLine
 10
-42.8292236328
 20
-54.6942596436
 30
0.0
 11
-42.8292236328
 21
-41.96875
 31
0.0
  0
LINE
  5
34
100
AcDbEntity
  8
LY_3
  6
CONTINUOUS
 62
         3
100
AcDbLine
 10
-18.4792175293
 20
-37.1192626953
 30
0.0
 11
-88.4792175293
 21
-37.1192626953
 31
0.0
  0
LINE
  5
35
100
AcDbEntity
  8
LY_3
  6
CONTINUOUS
 62
         3
100
AcDbLine
 10
-86.9792175293
 20
17.8807373047
 30
0.0
 11
-86.9792175293
 21
-10.2697753906
 31
0.0
  0
LINE
  5
36
100
AcDbEntity
  8
LY_3
  6
CONTINUOUS
 62
         3
100
AcDbLine
 10
-86.9792175293
 20
2.4557342529
 30
0.0
 11
-75.7792053223
 21
2.4557342529
 31
0.0
  0
LINE
  5
37
100
AcDbEntity
  8
LY_3
  6
CONTINUOUS
 62
         3
100
AcDbLine
 10
-75.7792053223
 20
4.1307373047
 30
0.0
 11
-73.6541900635
 21
4.1307373047
 31
0.0
  0
LINE
  5
38
100
AcDbEntity
  8
LY_3
  6
CONTINUOUS
 62
         3
100
AcDbLine
 10
-75.7792053223
 20
4.1307373047
 30
0.0
 11
-75.7792053223
 21
-10.2697753906
 31
0.0
  0
LINE
  5
39
100
AcDbEntity
  8
LY_3
  6
CONTINUOUS
 62
         3
100
AcDbLine
 10
-73.6541900635
 20
2.4557342529
 30
0.0
 11
-33.3042144775
 21
2.4557342529
 31
0.0
  0
LINE
  5
3A
100
AcDbEntity
  8
LY_3
  6
CONTINUOUS
 62
         3
100
AcDbLine
 10
-85.17918396
 20
2.4557342529
 30
0.0
 11
-85.17918396
 21
-10.2697753906
 31
0.0
  0
LINE
  5
3B
100
AcDbEntity
  8
LY_3
  6
CONTINUOUS
 62
         3
100
AcDbLine
 10
-75.7792053223
 20
-0.1392669678
 30
0.0
 11
-73.6541900635
 21
-0.1392669678
 31
0.0
  0
LINE
  5
3C
100
AcDbEntity
  8
LY_3
  6
CONTINUOUS
 62
         3
100
AcDbLine
 10
-86.9791717529
 20
-54.694229126
 30
0.0
 11
-75.7791595459
 21
-54.694229126
 31
0.0
  0
LINE
  5
3D
100
AcDbEntity
  8
LY_3
  6
CONTINUOUS
 62
         3
100
AcDbLine
 10
-86.9792175293
 20
-41.96875
 30
0.0
 11
-86.9792175293
 21
-70.1192626953
 31
0.0
  0
LINE
  5
3E
100
AcDbEntity
  8
LY_3
  6
CONTINUOUS
 62
         3
100
AcDbLine
 10
-33.3042144775
 20
-54.6942596436
 30
0.0
 11
-73.6542053223
 21
-54.6942596436
 31
0.0
  0
LINE
  5
3F
100
AcDbEntity
  8
LY_3
  6
CONTINUOUS
 62
         3
100
AcDbLine
 10
-85.17918396
 20
-41.96875
 30
0.0
 11
-85.17918396
 21
-54.6942596436
 31
0.0
  0
LINE
  5
40
100
AcDbEntity
  8
LY_3
  6
CONTINUOUS
 62
         3
100
AcDbLine
 10
-19.9792175293
 20
-10.2697753906
 30
0.0
 11
-19.9792175293
 21
17.8807373047
 31
0.0
  0
LINE
  5
41
100
AcDbEntity
  8
LY_3
  6
CONTINUOUS
 62
         3
100
AcDbLine
 10
-86.9792175293
 20
17.8807373047
 30
0.0
 11
-19.9792175293
 21
17.8807373047
 31
0.0
  0
LINE
  5
42
100
AcDbEntity
  8
LY_3
  6
CONTINUOUS
 62
         3
100
AcDbLine
 10
-31.1792297363
 20
2.4557342529
 30
0.0
 11
-19.9792175293
 21
2.4557342529
 31
0.0
  0
LINE
  5
43
100
AcDbEntity
  8
LY_3
  6
CONTINUOUS
 62
         3
100
AcDbLine
 10
-21.7792510986
 20
-10.269821167
 30
0.0
 11
-21.7792510986
 21
2.4557342529
 31
0.0
  0
LINE
  5
44
100
AcDbEntity
  8
LY_3
  6
CONTINUOUS
 62
         3
100
AcDbLine
 10
-19.9792175293
 20
-70.1192626953
 30
0.0
 11
-19.9792175293
 21
-41.96875
 31
0.0
  0
LINE
  5
45
100
AcDbEntity
  8
LY_3
  6
CONTINUOUS
 62
         3
100
AcDbLine
 10
-19.9792175293
 20
-70.1192626953
 30
0.0
 11
-86.9792175293
 21
-70.1192626953
 31
0.0
  0
LINE
  5
46
100
AcDbEntity
  8
LY_3
  6
CONTINUOUS
 62
         3
100
AcDbLine
 10
-19.9792175293
 20
-54.6942596436
 30
0.0
 11
-31.1792297363
 21
-54.6942596436
 31
0.0
  0
LINE
  5
47
100
AcDbEntity
  8
LY_3
  6
CONTINUOUS
 62
         3
100
AcDbLine
 10
-21.7792510986
 20
-54.6942596436
 30
0.0
 11
-21.7792510986
 21
-41.96875
 31
0.0
  0
LINE
  5
48
100
AcDbEntity
  8
LY_3
  6
CONTINUOUS
 62
         3
100
AcDbLine
 10
-33.3042144775
 20
4.1307373047
 30
0.0
 11
-31.1792297363
 21
4.1307373047
 31
0.0
  0
LINE
  5
49
100
AcDbEntity
  8
LY_3
  6
CONTINUOUS
 62
         3
100
AcDbLine
 10
-31.1792297363
 20
-10.269821167
 30
0.0
 11
-31.1792297363
 21
4.1307373047
 31
0.0
  0
LINE
  5
4A
100
AcDbEntity
  8
LY_3
  6
CONTINUOUS
 62
         3
100
AcDbLine
 10
-33.3042144775
 20
-0.1392669678
 30
0.0
 11
-31.1792297363
 21
-0.1392669678
 31
0.0
  0
LINE
  5
4B
100
AcDbEntity
  8
LY_3
  6
CONTINUOUS
 62
         3
100
AcDbLine
 10
-73.6542053223
 20
-56.3692626953
 30
0.0
 11
-75.7792053223
 21
-56.3692626953
 31
0.0
  0
LINE
  5
4C
100
AcDbEntity
  8
LY_3
  6
CONTINUOUS
 62
         3
100
AcDbLine
 10
-75.7792053223
 20
-41.96875
 30
0.0
 11
-75.7792053223
 21
-56.3692626953
 31
0.0
  0
LINE
  5
4D
100
AcDbEntity
  8
LY_3
  6
CONTINUOUS
 62
         3
100
AcDbLine
 10
-73.6542053223
 20
-52.0992584229
 30
0.0
 11
-75.7792053223
 21
-52.0992584229
 31
0.0
  0
LINE
  5
4E
100
AcDbEntity
  8
LY_3
  6
CONTINUOUS
 62
         3
100
AcDbLine
 10
-31.1792297363
 20
-56.3692626953
 30
0.0
 11
-33.3042144775
 21
-56.3692626953
 31
0.0
  0
LINE
  5
4F
100
AcDbEntity
  8
LY_3
  6
CONTINUOUS
 62
         3
100
AcDbLine
 10
-31.1792297363
 20
-56.3692626953
 30
0.0
 11
-31.1792297363
 21
-41.96875
 31
0.0
  0
LINE
  5
50
100
AcDbEntity
  8
LY_3
  6
CONTINUOUS
 62
         3
100
AcDbLine
 10
-31.1792297363
 20
-52.0992584229
 30
0.0
 11
-33.3042144775
 21
-52.0992584229
 31
0.0
  0
LINE
  5
51
100
AcDbEntity
  8
LY_3
  6
CONTINUOUS
 62
         3
100
AcDbLine
 10
-42.8291931152
 20
-10.269821167
 30
0.0
 11
-18.4791870117
 21
-10.269821167
 31
0.0
  0
LINE
  5
52
100
AcDbEntity
  8
LY_3
  6
CONTINUOUS
 62
         3
100
AcDbLine
 10
-42.8291931152
 20
-41.96875
 30
0.0
 11
-18.4791870117
 21
-41.96875
 31
0.0
  0
LINE
  5
53
100
AcDbEntity
  8
LY_3
  6
CONTINUOUS
 62
         3
100
AcDbLine
 10
-18.4792175293
 20
-13.1192626953
 30
0.0
 11
-88.4792175293
 21
-13.1192626953
 31
0.0
  0
LINE
  5
54
100
AcDbEntity
  8
LY_3
  6
CONTINUOUS
 62
         3
100
AcDbLine
 10
54.6499938965
 20
-15.407119751
 30
0.0
 11
54.6499938965
 21
-13.1192779541
 31
0.0
  0
LINE
  5
55
100
AcDbEntity
  8
LY_3
  6
CONTINUOUS
 62
         3
100
AcDbLine
 10
54.6499938965
 20
-13.1192626953
 30
0.0
 11
59.6499938965
 21
-13.1192626953
 31
0.0
  0
LINE
  5
56
100
AcDbEntity
  8
LY_3
  6
CONTINUOUS
 62
         3
100
AcDbLine
 10
59.6499938965
 20
-13.1192626953
 30
0.0
 11
59.6499938965
 21
-15.407119751
 31
0.0
  0
LINE
  5
57
100
AcDbEntity
  8
LY_3
  6
CENTER
 62
        80
100
AcDbLine
 10
-76.2792053223
 20
19.2419586182
 30
0.0
 11
-76.2792053223
 21
1.7480163574
 31
0.0
  0
LINE
  5
58
100
AcDbEntity
  8
LY_3
  6
CONTINUOUS
 62
         3
100
AcDbLine
 10
-70.5292053223
 20
17.8807373047
 30
0.0
 11
-70.5292053223
 21
10.8807373047
 31
0.0
  0
LINE
  5
59
100
AcDbEntity
  8
LY_3
  6
CONTINUOUS
 62
         3
100
AcDbLine
 10
-82.0292053223
 20
17.8807373047
 30
0.0
 11
-82.0292053223
 21
10.8807373047
 31
0.0
  0
LINE
  5
5A
100
AcDbEntity
  8
LY_3
  6
CONTINUOUS
 62
         3
100
AcDbLine
 10
-82.0292053223
 20
10.8807373047
 30
0.0
 11
-70.5292053223
 21
10.8807373047
 31
0.0
  0
LINE
  5
5B
100
AcDbEntity
  8
LY_3
  6
CONTINUOUS
 62
        80
100
AcDbLine
 10
-79.2792053223
 20
10.8807373047
 30
0.0
 11
-79.2792053223
 21
2.4557342529
 31
0.0
  0
LINE
  5
5C
100
AcDbEntity
  8
LY_3
  6
CONTINUOUS
 62
         3
100
AcDbLine
 10
-75.6791992188
 20
16.0513000488
 30
0.0
 11
-75.6791992188
 21
13.6807250977
 31
0.0
  0
LINE
  5
5D
100
AcDbEntity
  8
LY_3
  6
CONTINUOUS
 62
         3
100
AcDbLine
 10
-76.879196167
 20
16.0513000488
 30
0.0
 11
-76.879196167
 21
13.6807250977
 31
0.0
  0
LINE
  5
5E
100
AcDbEntity
  8
LY_3
  6
CONTINUOUS
 62
         3
100
AcDbLine
 10
-76.879196167
 20
13.6807250977
 30
0.0
 11
-75.6791992188
 21
13.6807250977
 31
0.0
  0
LINE
  5
5F
100
AcDbEntity
  8
LY_3
  6
CONTINUOUS
 62
         3
100
AcDbLine
 10
-78.7341918945
 20
10.8807373047
 30
0.0
 11
-78.7341918945
 21
2.4557189941
 31
0.0
  0
LINE
  5
60
100
AcDbEntity
  8
LY_3
  6
CONTINUOUS
 62
        80
100
AcDbLine
 10
-73.2792053223
 20
2.4557342529
 30
0.0
 11
-73.2792053223
 21
10.8807373047
 31
0.0
  0
LINE
  5
61
100
AcDbEntity
  8
LY_3
  6
CONTINUOUS
 62
         3
100
AcDbLine
 10
-73.82421875
 20
4.1307373047
 30
0.0
 11
-73.82421875
 21
10.8807373047
 31
0.0
  0
LINE
  5
63
100
AcDbEntity
  8
LY_3
  6
DASHED
 62
        80
100
AcDbLine
 10
100.772644043
 20
-31.8692474365
 30
0.0
 11
94.1499786377
 21
-31.8692474365
 31
0.0
  0
LINE
  5
64
100
AcDbEntity
  8
LY_3
  6
DASHED
 62
        80
100
AcDbLine
 10
100.772644043
 20
-20.3692779541
 30
0.0
 11
94.1499786377
 21
-20.3692779541
 31
0.0
  0
LINE
  5
65
100
AcDbEntity
  8
LY_3
  6
DASHED
 62
        80
100
AcDbLine
 10
94.1499786377
 20
-20.3692779541
 30
0.0
 11
94.1499786377
 21
-31.8692474365
 31
0.0
  0
LINE
  5
66
100
AcDbEntity
  8
LY_3
  6
DASHED
 62
        80
100
AcDbLine
 10
94.1499786377
 20
-23.1192779541
 30
0.0
 11
85.5670623779
 21
-23.1192779541
 31
0.0
  0
LINE
  5
67
100
AcDbEntity
  8
LY_3
  6
DASHED
 62
        80
100
AcDbLine
 10
94.1499786377
 20
-23.6642913818
 30
0.0
 11
85.6193237305
 21
-23.6642913818
 31
0.0
  0
LINE
  5
68
100
AcDbEntity
  8
LY_3
  6
DASHED
 62
        80
100
AcDbLine
 10
85.5670623779
 20
-29.1192474365
 30
0.0
 11
94.1499786377
 21
-29.1192474365
 31
0.0
  0
LINE
  5
69
100
AcDbEntity
  8
LY_3
  6
DASHED
 62
        80
100
AcDbLine
 10
85.6193237305
 20
-28.5742340088
 30
0.0
 11
94.1499786377
 21
-28.5742340088
 31
0.0
  0
LINE
  5
6A
100
AcDbEntity
  8
LY_3
  6
DASHED
 62
        80
100
AcDbLine
 10
99.3205413818
 20
-26.7192687988
 30
0.0
 11
96.9499664307
 21
-26.7192687988
 31
0.0
  0
LINE
  5
6B
100
AcDbEntity
  8
LY_3
  6
DASHED
 62
        80
100
AcDbLine
 10
99.3205413818
 20
-25.5193023682
 30
0.0
 11
96.9499664307
 21
-25.5193023682
 31
0.0
  0
LINE
  5
6C
100
AcDbEntity
  8
LY_3
  6
DASHED
 62
        80
100
AcDbLine
 10
96.9499664307
 20
-25.5193023682
 30
0.0
 11
96.9499664307
 21
-26.7192687988
 31
0.0
  0
LINE
  5
6D
100
AcDbEntity
  8
LY_3
  6
DASHED
 62
        80
100
AcDbLine
 10
62.8999786377
 20
17.50340271
 30
0.0
 11
62.8999786377
 21
10.8807373047
 31
0.0
  0
LINE
  5
6E
100
AcDbEntity
  8
LY_3
  6
DASHED
 62
        80
100
AcDbLine
 10
51.3999786377
 20
17.50340271
 30
0.0
 11
51.3999786377
 21
10.8807373047
 31
0.0
  0
LINE
  5
6F
100
AcDbEntity
  8
LY_3
  6
DASHED
 62
        80
100
AcDbLine
 10
51.3999786377
 20
10.8807373047
 30
0.0
 11
62.8999786377
 21
10.8807373047
 31
0.0
  0
LINE
  5
70
100
AcDbEntity
  8
LY_3
  6
DASHED
 62
        80
100
AcDbLine
 10
54.1499786377
 20
10.8807373047
 30
0.0
 11
54.1499786377
 21
2.2978057861
 31
0.0
  0
LINE
  5
71
100
AcDbEntity
  8
LY_3
  6
DASHED
 62
        80
100
AcDbLine
 10
54.6949920654
 20
10.8807373047
 30
0.0
 11
54.6949920654
 21
2.3500671387
 31
0.0
  0
LINE
  5
72
100
AcDbEntity
  8
LY_3
  6
DASHED
 62
        80
100
AcDbLine
 10
60.1499786377
 20
2.2978057861
 30
0.0
 11
60.1499786377
 21
10.8807373047
 31
0.0
  0
LINE
  5
73
100
AcDbEntity
  8
LY_3
  6
DASHED
 62
        80
100
AcDbLine
 10
59.60496521
 20
2.3500671387
 30
0.0
 11
59.60496521
 21
10.8807373047
 31
0.0
  0
LINE
  5
74
100
AcDbEntity
  8
LY_3
  6
DASHED
 62
        80
100
AcDbLine
 10
57.75
 20
16.0513000488
 30
0.0
 11
57.75
 21
13.6807250977
 31
0.0
  0
LINE
  5
75
100
AcDbEntity
  8
LY_3
  6
DASHED
 62
        80
100
AcDbLine
 10
56.5500030518
 20
16.0513000488
 30
0.0
 11
56.5500030518
 21
13.6807250977
 31
0.0
  0
LINE
  5
76
100
AcDbEntity
  8
LY_3
  6
DASHED
 62
        80
100
AcDbLine
 10
56.5500030518
 20
13.6807250977
 30
0.0
 11
57.75
 21
13.6807250977
 31
0.0
  0
LINE
  5
77
100
AcDbEntity
  8
LY_3
  6
DASHED
 62
        80
100
AcDbLine
 10
13.5273284912
 20
-20.3693084717
 30
0.0
 11
20.1499938965
 21
-20.3693084717
 31
0.0
  0
LINE
  5
78
100
AcDbEntity
  8
LY_3
  6
DASHED
 62
        80
100
AcDbLine
 10
13.5273284912
 20
-31.8692779541
 30
0.0
 11
20.1499938965
 21
-31.8692779541
 31
0.0
  0
LINE
  5
79
100
AcDbEntity
  8
LY_3
  6
DASHED
 62
        80
100
AcDbLine
 10
20.1499938965
 20
-31.8692779541
 30
0.0
 11
20.1499938965
 21
-20.3693084717
 31
0.0
  0
LINE
  5
7A
100
AcDbEntity
  8
LY_3
  6
DASHED
 62
        80
100
AcDbLine
 10
20.1499938965
 20
-29.1192779541
 30
0.0
 11
28.732925415
 21
-29.1192779541
 31
0.0
  0
LINE
  5
7B
100
AcDbEntity
  8
LY_3
  6
DASHED
 62
        80
100
AcDbLine
 10
20.1499938965
 20
-28.5742645264
 30
0.0
 11
28.6806640625
 21
-28.5742645264
 31
0.0
  0
LINE
  5
7C
100
AcDbEntity
  8
LY_3
  6
DASHED
 62
        80
100
AcDbLine
 10
28.7329101563
 20
-23.1193084717
 30
0.0
 11
20.1499938965
 21
-23.1193084717
 31
0.0
  0
LINE
  5
7D
100
AcDbEntity
  8
LY_3
  6
DASHED
 62
        80
100
AcDbLine
 10
28.6806488037
 20
-23.6643218994
 30
0.0
 11
20.1499938965
 21
-23.6643218994
 31
0.0
  0
LINE
  5
7E
100
AcDbEntity
  8
LY_3
  6
DASHED
 62
        80
100
AcDbLine
 10
14.9794311523
 20
-25.5192871094
 30
0.0
 11
17.3500061035
 21
-25.5192871094
 31
0.0
  0
LINE
  5
7F
100
AcDbEntity
  8
LY_3
  6
DASHED
 62
        80
100
AcDbLine
 10
14.9794311523
 20
-26.71925354
 30
0.0
 11
17.3500061035
 21
-26.71925354
 31
0.0
  0
LINE
  5
80
100
AcDbEntity
  8
LY_3
  6
DASHED
 62
        80
100
AcDbLine
 10
17.3500061035
 20
-26.71925354
 30
0.0
 11
17.3500061035
 21
-25.5192871094
 31
0.0
  0
LINE
  5
81
100
AcDbEntity
  8
LY_3
  6
DASHED
 62
        80
100
AcDbLine
 10
51.4000091553
 20
-69.741897583
 30
0.0
 11
51.4000091553
 21
-63.1192321777
 31
0.0
  0
LINE
  5
82
100
AcDbEntity
  8
LY_3
  6
DASHED
 62
        80
100
AcDbLine
 10
62.8999938965
 20
-69.741897583
 30
0.0
 11
62.8999938965
 21
-63.1192321777
 31
0.0
  0
LINE
  5
83
100
AcDbEntity
  8
LY_3
  6
DASHED
 62
        80
100
AcDbLine
 10
62.8999938965
 20
-63.1192321777
 30
0.0
 11
51.4000091553
 21
-63.1192321777
 31
0.0
  0
LINE
  5
84
100
AcDbEntity
  8
LY_3
  6
DASHED
 62
        80
100
AcDbLine
 10
60.1499938965
 20
-63.1192321777
 30
0.0
 11
60.1499938965
 21
-54.536315918
 31
0.0
  0
LINE
  5
85
100
AcDbEntity
  8
LY_3
  6
DASHED
 62
        80
100
AcDbLine
 10
59.6049804688
 20
-63.1192321777
 30
0.0
 11
59.6049804688
 21
-54.5885772705
 31
0.0
  0
LINE
  5
86
100
AcDbEntity
  8
LY_3
  6
DASHED
 62
        80
100
AcDbLine
 10
54.1500091553
 20
-54.536315918
 30
0.0
 11
54.1500091553
 21
-63.1192321777
 31
0.0
  0
LINE
  5
87
100
AcDbEntity
  8
LY_3
  6
DASHED
 62
        80
100
AcDbLine
 10
54.695022583
 20
-54.5885772705
 30
0.0
 11
54.695022583
 21
-63.1192321777
 31
0.0
  0
LINE
  5
88
100
AcDbEntity
  8
LY_3
  6
DASHED
 62
        80
100
AcDbLine
 10
56.549987793
 20
-68.2897949219
 30
0.0
 11
56.549987793
 21
-65.9192199707
 31
0.0
  0
LINE
  5
89
100
AcDbEntity
  8
LY_3
  6
DASHED
 62
        80
100
AcDbLine
 10
57.7499694824
 20
-68.2897949219
 30
0.0
 11
57.7499694824
 21
-65.9192199707
 31
0.0
  0
LINE
  5
8A
100
AcDbEntity
  8
LY_3
  6
DASHED
 62
        80
100
AcDbLine
 10
57.7499694824
 20
-65.9192199707
 30
0.0
 11
56.549987793
 21
-65.9192199707
 31
0.0
  0
LINE
  5
8B
100
AcDbEntity
  8
LY_3
  6
CENTER
 62
        80
100
AcDbLine
 10
77.7794585368
 20
-5.4897666089
 30
0.0
 11
88.0033965415
 21
4.7341713958
 31
0.0
  0
LINE
  5
8C
100
AcDbEntity
  8
LY_3
  6
CENTER
 62
        80
100
AcDbLine
 10
26.2965604598
 20
4.7341585832
 30
0.0
 11
36.5204964414
 21
-5.4897773985
 31
0.0
  0
LINE
  5
8D
100
AcDbEntity
  8
LY_3
  6
CENTER
 62
        80
100
AcDbLine
 10
36.5204829544
 20
-46.7487853496
 30
0.0
 11
26.2965476471
 21
-56.9727206569
 31
0.0
  0
LINE
  5
8E
100
AcDbEntity
  8
LY_3
  6
CENTER
 62
        80
100
AcDbLine
 10
-68.552230835
 20
-40.1612243652
 30
0.0
 11
-68.552230835
 21
-43.0341339111
 31
0.0
  0
LINE
  5
8F
100
AcDbEntity
  8
LY_3
  6
CONTINUOUS
 62
         3
100
AcDbLine
 10
-78.7791748047
 20
-54.6942596436
 30
0.0
 11
-78.7791748047
 21
-41.96875
 31
0.0
  0
LINE
  5
90
100
AcDbEntity
  8
LY_3
  6
CONTINUOUS
 62
         3
100
AcDbLine
 10
-79.7391815186
 20
-52.7854309082
 30
0.0
 11
-84.2191772461
 21
-52.7854309082
 31
0.0
  0
LINE
  5
91
100
AcDbEntity
  8
LY_3
  6
CONTINUOUS
 62
         3
100
AcDbLine
 10
-84.2191772461
 20
-52.7854309082
 30
0.0
 11
-84.2191772461
 21
-46.0409088135
 31
0.0
  0
LINE
  5
92
100
AcDbEntity
  8
LY_3
  6
CONTINUOUS
 62
         3
100
AcDbLine
 10
-84.2191327239
 20
-46.0408442369
 30
0.0
 11
-80.98714264
 21
-41.9687062456
 31
0.0
  0
LINE
  5
93
100
AcDbEntity
  8
LY_3
  6
CONTINUOUS
 62
         3
100
AcDbLine
 10
-80.9870919742
 20
-41.9687740267
 30
0.0
 11
-79.9310970139
 21
-43.8775864797
 31
0.0
  0
LINE
  5
94
100
AcDbEntity
  8
LY_3
  6
CONTINUOUS
 62
         3
100
AcDbLine
 10
-78.7791748047
 20
2.4557342529
 30
0.0
 11
-78.7791748047
 21
-10.2697753906
 31
0.0
  0
LINE
  5
95
100
AcDbEntity
  8
LY_3
  6
CONTINUOUS
 62
         3
100
AcDbLine
 10
-79.7391815186
 20
0.5469055176
 30
0.0
 11
-84.2191772461
 21
0.5469055176
 31
0.0
  0
LINE
  5
96
100
AcDbEntity
  8
LY_3
  6
CONTINUOUS
 62
         3
100
AcDbLine
 10
-84.2191772461
 20
0.5469055176
 30
0.0
 11
-84.2191772461
 21
-6.1976165771
 31
0.0
  0
LINE
  5
97
100
AcDbEntity
  8
LY_3
  6
CONTINUOUS
 62
         3
100
AcDbLine
 10
-84.2191197554
 20
-6.1976600895
 30
0.0
 11
-80.9871296715
 21
-10.2697980809
 31
0.0
  0
LINE
  5
98
100
AcDbEntity
  8
LY_3
  6
CONTINUOUS
 62
         3
100
AcDbLine
 10
-80.98710306
 20
-10.2697534877
 30
0.0
 11
-79.9311080997
 21
-8.3609410348
 31
0.0
  0
LINE
  5
99
100
AcDbEntity
  8
LY_3
  6
CONTINUOUS
 62
         3
100
AcDbLine
 10
-73.6541748047
 20
-56.3692321777
 30
0.0
 11
-73.6541748047
 21
-41.96875
 31
0.0
  0
LINE
  5
9A
100
AcDbEntity
  8
LY_3
  6
CONTINUOUS
 62
         3
100
AcDbLine
 10
-64.1291656494
 20
-46.6692199707
 30
0.0
 11
-66.3860473633
 21
-46.6692199707
 31
0.0
  0
LINE
  5
9B
100
AcDbEntity
  8
LY_3
  6
CONTINUOUS
 62
         3
100
AcDbLine
 10
-64.1291656494
 20
-50.569229126
 30
0.0
 11
-66.3860626221
 21
-50.569229126
 31
0.0
  0
LINE
  5
9C
100
AcDbEntity
  8
LY_3
  6
CONTINUOUS
 62
         3
100
AcDbLine
 10
-71.3972930908
 20
-46.6692199707
 30
0.0
 11
-73.6541595459
 21
-46.6692199707
 31
0.0
  0
LINE
  5
9D
100
AcDbEntity
  8
LY_3
  6
CONTINUOUS
 62
         3
100
AcDbLine
 10
-71.397277832
 20
-50.569229126
 30
0.0
 11
-73.6541595459
 21
-50.569229126
 31
0.0
  0
LINE
  5
9E
100
AcDbEntity
  8
LY_3
  6
CONTINUOUS
 62
         3
100
AcDbLine
 10
-73.6541748047
 20
-10.2697906494
 30
0.0
 11
-73.6541748047
 21
4.1307067871
 31
0.0
  0
LINE
  5
9F
100
AcDbEntity
  8
LY_3
  6
CONTINUOUS
 62
         3
100
AcDbLine
 10
-66.3860473633
 20
-5.5693044662
 30
0.0
 11
-64.1291656494
 21
-5.5693044662
 31
0.0
  0
LINE
  5
A0
100
AcDbEntity
  8
LY_3
  6
CONTINUOUS
 62
         3
100
AcDbLine
 10
-66.3860626221
 20
-1.669295311
 30
0.0
 11
-64.1291656494
 21
-1.669295311
 31
0.0
  0
LINE
  5
A1
100
AcDbEntity
  8
LY_3
  6
CONTINUOUS
 62
         3
100
AcDbLine
 10
-73.6541595459
 20
-5.5693044662
 30
0.0
 11
-71.3972930908
 21
-5.5693044662
 31
0.0
  0
LINE
  5
A2
100
AcDbEntity
  8
LY_3
  6
CONTINUOUS
 62
         3
100
AcDbLine
 10
-73.6541595459
 20
-1.669295311
 30
0.0
 11
-71.397277832
 21
-1.669295311
 31
0.0
  0
LINE
  5
A3
100
AcDbEntity
  8
LY_3
  6
CONTINUOUS
 62
         3
100
AcDbLine
 10
-33.3042144775
 20
4.1307373047
 30
0.0
 11
-33.3042144775
 21
-10.269821167
 31
0.0
  0
LINE
  5
A4
100
AcDbEntity
  8
LY_3
  6
CONTINUOUS
 62
         3
100
AcDbLine
 10
-42.8292236328
 20
-5.5692749023
 30
0.0
 11
-40.5723419189
 21
-5.5692749023
 31
0.0
  0
LINE
  5
A5
100
AcDbEntity
  8
LY_3
  6
CONTINUOUS
 62
         3
100
AcDbLine
 10
-42.8292236328
 20
-1.6692657471
 30
0.0
 11
-40.5723266602
 21
-1.6692657471
 31
0.0
  0
LINE
  5
A6
100
AcDbEntity
  8
LY_3
  6
CONTINUOUS
 62
         3
100
AcDbLine
 10
-35.5610961914
 20
-5.5692749023
 30
0.0
 11
-33.3042144775
 21
-5.5692749023
 31
0.0
  0
LINE
  5
A7
100
AcDbEntity
  8
LY_3
  6
CONTINUOUS
 62
         3
100
AcDbLine
 10
-35.5611114502
 20
-1.6692657471
 30
0.0
 11
-33.3042144775
 21
-1.6692657471
 31
0.0
  0
LINE
  5
A8
100
AcDbEntity
  8
LY_3
  6
CONTINUOUS
 62
         3
100
AcDbLine
 10
-33.3042144775
 20
-41.96875
 30
0.0
 11
-33.3042144775
 21
-56.3692626953
 31
0.0
  0
LINE
  5
A9
100
AcDbEntity
  8
LY_3
  6
CONTINUOUS
 62
         3
100
AcDbLine
 10
-40.5723419189
 20
-46.6692504883
 30
0.0
 11
-42.8292236328
 21
-46.6692504883
 31
0.0
  0
LINE
  5
AA
100
AcDbEntity
  8
LY_3
  6
CONTINUOUS
 62
         3
100
AcDbLine
 10
-40.5723266602
 20
-50.5692596436
 30
0.0
 11
-42.8292236328
 21
-50.5692596436
 31
0.0
  0
LINE
  5
AB
100
AcDbEntity
  8
LY_3
  6
CONTINUOUS
 62
         3
100
AcDbLine
 10
-33.3042144775
 20
-46.6692504883
 30
0.0
 11
-35.5610961914
 21
-46.6692504883
 31
0.0
  0
LINE
  5
AC
100
AcDbEntity
  8
LY_3
  6
CONTINUOUS
 62
         3
100
AcDbLine
 10
-33.3042144775
 20
-50.5692596436
 30
0.0
 11
-35.5611114502
 21
-50.5692596436
 31
0.0
  0
LINE
  5
AD
100
AcDbEntity
  8
LY_3
  6
CONTINUOUS
 62
         3
100
AcDbLine
 10
-28.1792144775
 20
2.4557037354
 30
0.0
 11
-28.1792144775
 21
-10.2697753906
 31
0.0
  0
LINE
  5
AE
100
AcDbEntity
  8
LY_3
  6
CONTINUOUS
 62
         3
100
AcDbLine
 10
-27.2192077637
 20
0.546875
 30
0.0
 11
-22.7392120361
 21
0.546875
 31
0.0
  0
LINE
  5
AF
100
AcDbEntity
  8
LY_3
  6
CONTINUOUS
 62
         3
100
AcDbLine
 10
-22.7392120361
 20
0.546875
 30
0.0
 11
-22.7392120361
 21
-6.1976461411
 31
0.0
  0
LINE
  5
B0
100
AcDbEntity
  8
LY_3
  6
CONTINUOUS
 62
         3
100
AcDbLine
 10
-22.7392594462
 20
-6.1976142098
 30
0.0
 11
-25.9712400442
 21
-10.2697402493
 31
0.0
  0
LINE
  5
B1
100
AcDbEntity
  8
LY_3
  6
CONTINUOUS
 62
         3
100
AcDbLine
 10
-25.9711843144
 20
-10.2697780192
 30
0.0
 11
-27.0271718882
 21
-8.360978918
 31
0.0
  0
LINE
  5
B2
100
AcDbEntity
  8
LY_3
  6
CONTINUOUS
 62
         3
100
AcDbLine
 10
-28.1792144775
 20
-54.694229126
 30
0.0
 11
-28.1792144775
 21
-41.96875
 31
0.0
  0
LINE
  5
B3
100
AcDbEntity
  8
LY_3
  6
CONTINUOUS
 62
         3
100
AcDbLine
 10
-27.2192077637
 20
-52.7854003906
 30
0.0
 11
-22.7392120361
 21
-52.7854003906
 31
0.0
  0
LINE
  5
B4
100
AcDbEntity
  8
LY_3
  6
CONTINUOUS
 62
         3
100
AcDbLine
 10
-22.7392120361
 20
-52.7854003906
 30
0.0
 11
-22.7392120361
 21
-46.0408782959
 31
0.0
  0
LINE
  5
B5
100
AcDbEntity
  8
LY_3
  6
CONTINUOUS
 62
         3
100
AcDbLine
 10
-22.7392145097
 20
-46.040942667
 30
0.0
 11
-25.9712045936
 21
-41.9688046757
 31
0.0
  0
LINE
  5
B6
100
AcDbEntity
  8
LY_3
  6
CONTINUOUS
 62
         3
100
AcDbLine
 10
-25.9711737035
 20
-41.9687614983
 30
0.0
 11
-27.0271612774
 21
-43.8775605995
 31
0.0
  0
LINE
  5
B7
100
AcDbEntity
  8
LY_3
  6
CONTINUOUS
 62
         3
100
AcDbLine
 10
-88.4792175293
 20
-41.96875
 30
0.0
 11
-64.1607818604
 21
-41.96875
 31
0.0
  0
LINE
  5
B8
100
AcDbEntity
  8
LY_3
  6
CONTINUOUS
 62
         3
100
AcDbLine
 10
-60.3791656494
 20
-1.5482635498
 30
0.0
 11
-60.3791656494
 21
-4.5482635498
 31
0.0
  0
LINE
  5
B9
100
AcDbEntity
  8
LY_3
  6
CONTINUOUS
 62
         3
100
AcDbLine
 10
-62.4791564941
 20
2.4557342529
 30
0.0
 11
-62.4791564941
 21
-0.5482635498
 31
0.0
  0
LINE
  5
BA
100
AcDbEntity
  8
LY_3
  6
CONTINUOUS
 62
         3
100
AcDbLine
 10
-62.4791564941
 20
-0.5482635498
 30
0.0
 11
-61.3791656494
 21
-0.5482635498
 31
0.0
  0
LINE
  5
BB
100
AcDbEntity
  8
LY_3
  6
CONTINUOUS
 62
         3
100
AcDbLine
 10
-62.4791564941
 20
-4.5482635498
 30
0.0
 11
-60.3791656494
 21
-4.5482635498
 31
0.0
  0
LINE
  5
BC
100
AcDbEntity
  8
LY_3
  6
CONTINUOUS
 62
         3
100
AcDbLine
 10
-62.4791564941
 20
-3.0192565918
 30
0.0
 11
-62.4791564941
 21
-5.8032684326
 31
0.0
  0
LINE
  5
BD
100
AcDbEntity
  8
LY_3
  6
CONTINUOUS
 62
         3
100
AcDbLine
 10
-60.3791656494
 20
-48.365234375
 30
0.0
 11
-60.3791656494
 21
-50.365234375
 31
0.0
  0
LINE
  5
BE
100
AcDbEntity
  8
LY_3
  6
CONTINUOUS
 62
         3
100
AcDbLine
 10
-62.4791564941
 20
-46.365234375
 30
0.0
 11
-62.4791564941
 21
-49.2192382813
 31
0.0
  0
LINE
  5
BF
100
AcDbEntity
  8
LY_3
  6
CONTINUOUS
 62
         3
100
AcDbLine
 10
-60.3791656494
 20
-48.365234375
 30
0.0
 11
-62.4791564941
 21
-48.365234375
 31
0.0
  0
LINE
  5
C0
100
AcDbEntity
  8
LY_3
  6
CONTINUOUS
 62
         3
100
AcDbLine
 10
-61.3791656494
 20
-51.365234375
 30
0.0
 11
-62.4791564941
 21
-51.365234375
 31
0.0
  0
LINE
  5
C1
100
AcDbEntity
  8
LY_3
  6
CONTINUOUS
 62
         3
100
AcDbLine
 10
-62.4791564941
 20
-51.365234375
 30
0.0
 11
-62.4791564941
 21
-54.6942596436
 31
0.0
  0
LINE
  5
C2
100
AcDbEntity
  8
LY_3
  6
CONTINUOUS
 62
         3
100
AcDbLine
 10
-46.5792694092
 20
-4.5482635498
 30
0.0
 11
-46.5792694092
 21
-1.5482635498
 31
0.0
  0
LINE
  5
C3
100
AcDbEntity
  8
LY_3
  6
CONTINUOUS
 62
         3
100
AcDbLine
 10
-44.4792785645
 20
-0.5482635498
 30
0.0
 11
-44.4792785645
 21
2.4557342529
 31
0.0
  0
LINE
  5
C4
100
AcDbEntity
  8
LY_3
  6
CONTINUOUS
 62
         3
100
AcDbLine
 10
-45.5792694092
 20
-0.5482635498
 30
0.0
 11
-44.4792785645
 21
-0.5482635498
 31
0.0
  0
LINE
  5
C5
100
AcDbEntity
  8
LY_3
  6
CONTINUOUS
 62
         3
100
AcDbLine
 10
-46.5792694092
 20
-4.5482635498
 30
0.0
 11
-42.8292236328
 21
-4.5482635498
 31
0.0
  0
LINE
  5
C6
100
AcDbEntity
  8
LY_3
  6
CONTINUOUS
 62
         3
100
AcDbLine
 10
-44.4792785645
 20
-5.8732757568
 30
0.0
 11
-44.4792785645
 21
-4.5482635498
 31
0.0
  0
LINE
  5
C7
100
AcDbEntity
  8
LY_3
  6
CONTINUOUS
 62
         3
100
AcDbLine
 10
-46.5792694092
 20
-50.365234375
 30
0.0
 11
-46.5792694092
 21
-48.365234375
 31
0.0
  0
LINE
  5
C8
100
AcDbEntity
  8
LY_3
  6
CONTINUOUS
 62
         3
100
AcDbLine
 10
-44.4792785645
 20
-48.365234375
 30
0.0
 11
-44.4792785645
 21
-46.365234375
 31
0.0
  0
LINE
  5
C9
100
AcDbEntity
  8
LY_3
  6
CONTINUOUS
 62
         3
100
AcDbLine
 10
-44.4792785645
 20
-48.365234375
 30
0.0
 11
-46.5792694092
 21
-48.365234375
 31
0.0
  0
LINE
  5
CA
100
AcDbEntity
  8
LY_3
  6
CONTINUOUS
 62
         3
100
AcDbLine
 10
-44.4792785645
 20
-51.365234375
 30
0.0
 11
-45.5792694092
 21
-51.365234375
 31
0.0
  0
LINE
  5
CB
100
AcDbEntity
  8
LY_3
  6
CONTINUOUS
 62
         3
100
AcDbLine
 10
-44.4792785645
 20
-54.6942596436
 30
0.0
 11
-44.4792785645
 21
-51.365234375
 31
0.0
  0
LINE
  5
CC
100
AcDbEntity
  8
LY_3
  6
CONTINUOUS
 62
         3
100
AcDbLine
 10
-64.1292114258
 20
-49.2192382813
 30
0.0
 11
-62.4791564941
 21
-49.2192382813
 31
0.0
  0
LINE
  5
CD
100
AcDbEntity
  8
LY_3
  6
CONTINUOUS
 62
         3
100
AcDbLine
 10
-62.4791564941
 20
-3.0192565918
 30
0.0
 11
-64.129196167
 21
-3.0192565918
 31
0.0
  0
LINE
  5
CE
100
AcDbEntity
  8
LY_3
  6
CONTINUOUS
 62
         3
100
AcDbLine
 10
-42.8292236328
 20
-47.6902618408
 30
0.0
 11
-44.4792785645
 21
-47.6902618408
 31
0.0
  0
LINE
  5
CF
100
AcDbEntity
  8
LY_3
  6
CONTINUOUS
 62
         3
100
AcDbLine
 10
-88.4792175293
 20
-15.1192626953
 30
0.0
 11
-18.4792175293
 21
-15.1192626953
 31
0.0
  0
LINE
  5
D0
100
AcDbEntity
  8
LY_3
  6
CONTINUOUS
 62
        80
100
AcDbLine
 10
-19.9791717529
 20
-66.6191711426
 30
0.0
 11
-35.9791717529
 21
-66.6191711426
 31
0.0
  0
LINE
  5
D1
100
AcDbEntity
  8
LY_3
  6
CONTINUOUS
 62
        80
100
AcDbLine
 10
-19.9791717529
 20
-58.6192321777
 30
0.0
 11
-35.9791717529
 21
-58.6192321777
 31
0.0
  0
LINE
  5
D2
100
AcDbEntity
  8
LY_3
  6
CONTINUOUS
 62
         3
100
AcDbLine
 10
-35.9791717529
 20
-66.6191711426
 30
0.0
 11
-35.9791717529
 21
-58.6192321777
 31
0.0
  0
LINE
  5
D3
100
AcDbEntity
  8
LY_3
  6
CONTINUOUS
 62
         3
100
AcDbLine
 10
-42.2791595459
 20
-66.0691680908
 30
0.0
 11
-42.2791595459
 21
-59.1692352295
 31
0.0
  0
LINE
  5
D4
100
AcDbEntity
  8
LY_3
  6
CONTINUOUS
 62
         3
100
AcDbLine
 10
-19.9791717529
 20
-66.0691680908
 30
0.0
 11
-42.2791595459
 21
-66.0691680908
 31
0.0
  0
LINE
  5
D5
100
AcDbEntity
  8
LY_3
  6
CONTINUOUS
 62
         3
100
AcDbLine
 10
-19.9791717529
 20
-59.1692352295
 30
0.0
 11
-42.2791595459
 21
-59.1692352295
 31
0.0
  0
LINE
  5
D6
100
AcDbEntity
  8
LY_3
  6
CONTINUOUS
 62
         3
100
AcDbLine
 10
-44.3520602298
 20
-62.6192462038
 30
0.0
 11
-42.2790978973
 21
-66.0692346654
 31
0.0
  0
LINE
  5
D7
100
AcDbEntity
  8
LY_3
  6
CONTINUOUS
 62
         3
100
AcDbLine
 10
-42.279080552
 20
-59.1692361767
 30
0.0
 11
-44.3520507433
 21
-62.6192377176
 31
0.0
  0
LINE
  5
D8
100
AcDbEntity
  8
LY_3
  6
CONTINUOUS
 62
        80
100
AcDbLine
 10
-70.9792327881
 20
-66.6192321777
 30
0.0
 11
-86.9792327881
 21
-66.6192321777
 31
0.0
  0
LINE
  5
D9
100
AcDbEntity
  8
LY_3
  6
CONTINUOUS
 62
        80
100
AcDbLine
 10
-70.9792327881
 20
-58.6192474365
 30
0.0
 11
-86.9792327881
 21
-58.6192474365
 31
0.0
  0
LINE
  5
DA
100
AcDbEntity
  8
LY_3
  6
CONTINUOUS
 62
         3
100
AcDbLine
 10
-70.9792327881
 20
-58.6192474365
 30
0.0
 11
-70.9792327881
 21
-66.6192321777
 31
0.0
  0
LINE
  5
DB
100
AcDbEntity
  8
LY_3
  6
CONTINUOUS
 62
         3
100
AcDbLine
 10
-64.6792449951
 20
-59.1692504883
 30
0.0
 11
-64.6792449951
 21
-66.069229126
 31
0.0
  0
LINE
  5
DC
100
AcDbEntity
  8
LY_3
  6
CONTINUOUS
 62
         3
100
AcDbLine
 10
-64.6792449951
 20
-66.069229126
 30
0.0
 11
-86.9792327881
 21
-66.069229126
 31
0.0
  0
LINE
  5
DD
100
AcDbEntity
  8
LY_3
  6
CONTINUOUS
 62
         3
100
AcDbLine
 10
-64.6792449951
 20
-59.1692504883
 30
0.0
 11
-86.9792327881
 21
-59.1692504883
 31
0.0
  0
LINE
  5
DE
100
AcDbEntity
  8
LY_3
  6
CONTINUOUS
 62
         3
100
AcDbLine
 10
-64.6791317674
 20
-66.069242778
 30
0.0
 11
-62.6061694349
 21
-62.6192543164
 31
0.0
  0
LINE
  5
DF
100
AcDbEntity
  8
LY_3
  6
CONTINUOUS
 62
         3
100
AcDbLine
 10
-62.6061800546
 20
-62.6192480874
 30
0.0
 11
-64.679150246
 21
-59.1692465464
 31
0.0
  0
LINE
  5
E0
100
AcDbEntity
  8
LY_3
  6
CONTINUOUS
 62
         3
100
AcDbLine
 10
-18.4792175293
 20
-15.1192626953
 30
0.0
 11
-18.4792175293
 21
-10.2442626953
 31
0.0
  0
LINE
  5
E1
100
AcDbEntity
  8
LY_3
  6
CONTINUOUS
 62
         3
100
AcDbLine
 10
-88.4792175293
 20
-37.1192626953
 30
0.0
 11
-88.4792175293
 21
-41.96875
 31
0.0
  0
LINE
  5
E2
100
AcDbEntity
  8
LY_3
  6
CENTER
 62
        80
100
AcDbLine
 10
87.5011086083
 20
-56.4704327238
 30
0.0
 11
77.7794693264
 21
-46.7487934418
 31
0.0
  0
ARC
  5
E3
100
AcDbEntity
  8
LY_3
  6
CONTINUOUS
 62
         3
100
AcDbCircle
 10
57.1499938965
 20
-26.1192626953
 30
0.0
 40
11.0
100
AcDbArc
 50
103.1366214484
 51
76.8633799181
  0
CIRCLE
  5
E4
100
AcDbEntity
  8
LY_3
  6
CONTINUOUS
 62
         3
100
AcDbCircle
 10
57.1499938965
 20
-26.1192626953
 30
0.0
 40
15.8494873047
  0
CIRCLE
  5
E5
100
AcDbEntity
  8
LY_3
  6
CONTINUOUS
 62
         3
100
AcDbCircle
 10
57.1499938965
 20
-26.1192626953
 30
0.0
 40
44.0
  0
CIRCLE
  5
E6
100
AcDbEntity
  8
LY_3
  6
CONTINUOUS
 62
         3
100
AcDbCircle
 10
57.1499938965
 20
-26.1192626953
 30
0.0
 40
28.5749969482
  0
ARC
  5
E7
100
AcDbEntity
  8
LY_3
  6
CONTINUOUS
 62
         3
100
AcDbCircle
 10
-76.2792053223
 20
9.9479217529
 30
0.0
 40
6.1328115463
100
AcDbArc
 50
20.3510233302
 51
84.3854572331
  0
ARC
  5
E8
100
AcDbEntity
  8
LY_3
  6
CONTINUOUS
 62
         3
100
AcDbCircle
 10
-76.2792053223
 20
9.9479217529
 30
0.0
 40
6.1328115463
100
AcDbArc
 50
95.6143428701
 51
159.6489509429
  0
ARC
  5
E9
100
AcDbEntity
  8
LY_3
  6
DASHED
 62
        80
100
AcDbCircle
 10
93.2171783447
 20
-26.1192932129
 30
0.0
 40
6.1328115463
100
AcDbArc
 50
290.3510857125
 51
354.3854957098
  0
ARC
  5
EA
100
AcDbEntity
  8
LY_3
  6
DASHED
 62
        80
100
AcDbCircle
 10
93.2171783447
 20
-26.1192932129
 30
0.0
 40
6.1328115463
100
AcDbArc
 50
5.6144325732
 51
69.648968929
  0
ARC
  5
EB
100
AcDbEntity
  8
LY_3
  6
DASHED
 62
        80
100
AcDbCircle
 10
57.1499938965
 20
9.9479217529
 30
0.0
 40
6.1328115463
100
AcDbArc
 50
20.3510233302
 51
84.3854572331
  0
ARC
  5
EC
100
AcDbEntity
  8
LY_3
  6
DASHED
 62
        80
100
AcDbCircle
 10
57.1499938965
 20
9.9479217529
 30
0.0
 40
6.1328115463
100
AcDbArc
 50
95.6143428701
 51
159.6489509429
  0
ARC
  5
ED
100
AcDbEntity
  8
LY_3
  6
DASHED
 62
        80
100
AcDbCircle
 10
21.0828094482
 20
-26.1192626953
 30
0.0
 40
6.1328115463
100
AcDbArc
 50
110.3509950988
 51
174.385439247
  0
ARC
  5
EE
100
AcDbEntity
  8
LY_3
  6
DASHED
 62
        80
100
AcDbCircle
 10
21.0828094482
 20
-26.1192626953
 30
0.0
 40
6.1328115463
100
AcDbArc
 50
185.6143968284
 51
249.6490049012
  0
ARC
  5
EF
100
AcDbEntity
  8
LY_3
  6
DASHED
 62
        80
100
AcDbCircle
 10
57.1499786377
 20
-62.1864471436
 30
0.0
 40
6.1328115463
100
AcDbArc
 50
200.3510490571
 51
264.3854932053
  0
ARC
  5
F0
100
AcDbEntity
  8
LY_3
  6
DASHED
 62
        80
100
AcDbCircle
 10
57.1499786377
 20
-62.1864471436
 30
0.0
 40
6.1328115463
100
AcDbArc
 50
275.6144334838
 51
339.6490074057
  0
ARC
  5
F1
100
AcDbEntity
  8
LY_3
  6
CENTER
 62
        80
100
AcDbCircle
 10
57.1499938965
 20
-26.1192626953
 30
0.0
 40
36.5
100
AcDbArc
 50
33.7585924634
 51
54.6603271162
  0
ARC
  5
F2
100
AcDbEntity
  8
LY_3
  6
CENTER
 62
        80
100
AcDbCircle
 10
57.1499938965
 20
-26.1192626953
 30
0.0
 40
36.5
100
AcDbArc
 50
125.3396539871
 51
146.2413988852
  0
ARC
  5
F3
100
AcDbEntity
  8
LY_3
  6
CENTER
 62
        80
100
AcDbCircle
 10
57.1500091553
 20
-26.1193084717
 30
0.0
 40
36.5
100
AcDbArc
 50
213.7586011148
 51
234.6603460129
  0
CIRCLE
  5
F4
100
AcDbEntity
  8
LY_3
  6
CONTINUOUS
 62
         3
100
AcDbCircle
 10
-68.891708374
 20
-48.6192321777
 30
0.0
 40
3.1749992371
  0
CIRCLE
  5
F5
100
AcDbEntity
  8
LY_3
  6
CONTINUOUS
 62
         3
100
AcDbCircle
 10
-68.891708374
 20
-3.6192779541
 30
0.0
 40
3.1749992371
  0
CIRCLE
  5
F6
100
AcDbEntity
  8
LY_3
  6
CONTINUOUS
 62
         3
100
AcDbCircle
 10
-38.0667114258
 20
-3.6192779541
 30
0.0
 40
3.1749992371
  0
CIRCLE
  5
F7
100
AcDbEntity
  8
LY_3
  6
CONTINUOUS
 62
         3
100
AcDbCircle
 10
-38.0667114258
 20
-48.6192474365
 30
0.0
 40
3.1749992371
  0
CIRCLE
  5
F8
100
AcDbEntity
  8
LY_3
  6
CONTINUOUS
 62
         3
100
AcDbCircle
 10
-61.3791656494
 20
-1.5482635498
 30
0.0
 40
1.0
  0
CIRCLE
  5
F9
100
AcDbEntity
  8
LY_3
  6
CONTINUOUS
 62
         3
100
AcDbCircle
 10
-61.3791656494
 20
-50.365234375
 30
0.0
 40
1.0
  0
CIRCLE
  5
FA
100
AcDbEntity
  8
LY_3
  6
CONTINUOUS
 62
         3
100
AcDbCircle
 10
-45.5792694092
 20
-1.5482635498
 30
0.0
 40
1.0
  0
CIRCLE
  5
FB
100
AcDbEntity
  8
LY_3
  6
CONTINUOUS
 62
         3
100
AcDbCircle
 10
-45.5792694092
 20
-50.365234375
 30
0.0
 40
1.0
  0
ARC
  5
FC
100
AcDbEntity
  8
LY_3
  6
CENTER
 62
        80
100
AcDbCircle
 10
57.1499786377
 20
-26.1193084717
 30
0.0
 40
36.5
100
AcDbArc
 50
305.3396728838
 51
326.2414075366
  0
MTEXT
  5
FD
100
AcDbEntity
  8
LY_3
  6
CONTINUOUS
 62
       110
100
AcDbMText
 10
-47.6518987126
 20
68.6673583984
 30
0.0
 40
15.0
 41
0.0
 71
         1
 72
         1
  1
\W1.139;\A1;MG 400
  0
MTEXT
  5
FE
100
AcDbEntity
  8
LY_3
  6
CONTINUOUS
 62
       110
100
AcDbMText
 10
-68.2430553901
 20
92.6673583984
 30
0.0
 40
13.0
 41
0.0
 71
         1
 72
         1
  1
\W1.042;\A1;CAM CLUTCH
  0
ENDSEC
  0
SECTION
  2
OBJECTS
  0
DICTIONARY
  5
19
100
AcDbDictionary
  3
ACAD_GROUP
350
1A
  3
ACAD_MLINESTYLE
350
1B
  0
DICTIONARY
  5
1A
102
{ACAD_REACTORS
330
19
102
}
100
AcDbDictionary
  0
DICTIONARY
  5
1B
102
{ACAD_REACTORS
330
19
102
}
100
AcDbDictionary
  3
STANDARD
350
1C
  0
MLINESTYLE
  5
1C
102
{ACAD_REACTORS
330
1B
102
}
100
AcDbMlineStyle
  2
Standard
 70
         0
  3

 62
         0
 51
90.0
 52
90.0
 71
         2
 49
0.5
 62
       256
  6
ByLayer
 49
-0.5
 62
       256
  6
ByLayer
  0
ENDSEC
  0
EOF
