  0
SECTION
  2
HEADER
  9
$ACADVER
  1
AC1014
  9
$ACADMAINTVER
 70
         0
  9
$DWGCODEPAGE
  3
ANSI_932
  9
$INSBASE
 10
0.0
 20
0.0
 30
0.0
  9
$EXTMIN
 10
-292.225342
 20
-340.571533
 30
0.0
  9
$EXTMAX
 10
219.9967505944
 20
122.1256910721
 30
0.0
  9
$LIMMIN
 10
-292.225342
 20
-340.571533
  9
$LIMMAX
 10
219.9967505944
 20
122.1256910721
  9
$ORTHOMODE
 70
         0
  9
$REGENMODE
 70
         1
  9
$FILLMODE
 70
         1
  9
$QTEXTMODE
 70
         0
  9
$MIRRTEXT
 70
         1
  9
$DRAGMODE
 70
         2
  9
$LTSCALE
 40
1.0
  9
$OSMODE
 70
         0
  9
$ATTMODE
 70
         1
  9
$TEXTSIZE
 40
3.2000000477
  9
$TRACEWID
 40
0.05
  9
$TEXTSTYLE
  7
MX_NOTE_STANDARD
  9
$CLAYER
  8
LY_3
  9
$CELTYPE
  6
CONTINUOUS
  9
$CECOLOR
 62
       256
  9
$CELTSCALE
 40
1.0
  9
$DELOBJ
 70
         1
  9
$DISPSILH
 70
         0
  9
$DIMSCALE
 40
1.0
  9
$DIMASZ
 40
2.5
  9
$DIMEXO
 40
0.0
  9
$DIMDLI
 40
3.75
  9
$DIMRND
 40
0.0
  9
$DIMDLE
 40
0.0
  9
$DIMEXE
 40
2.5
  9
$DIMTP
 40
0.0
  9
$DIMTM
 40
0.0
  9
$DIMTXT
 40
3.2000000477
  9
$DIMCEN
 40
2.5
  9
$DIMTSZ
 40
0.0
  9
$DIMTOL
 70
         0
  9
$DIMLIM
 70
         0
  9
$DIMTIH
 70
         0
  9
$DIMTOH
 70
         0
  9
$DIMSE1
 70
         0
  9
$DIMSE2
 70
         0
  9
$DIMTAD
 70
         1
  9
$DIMZIN
 70
         8
  9
$DIMBLK
  1

  9
$DIMASO
 70
         1
  9
$DIMSHO
 70
         1
  9
$DIMPOST
  1

  9
$DIMAPOST
  1

  9
$DIMALT
 70
         0
  9
$DIMALTD
 70
         4
  9
$DIMALTF
 40
0.0393700787
  9
$DIMLFAC
 40
1.0
  9
$DIMTOFL
 70
         1
  9
$DIMTVP
 40
0.0
  9
$DIMTIX
 70
         0
  9
$DIMSOXD
 70
         0
  9
$DIMSAH
 70
         1
  9
$DIMBLK1
  1
_OPEN30
  9
$DIMBLK2
  1
_OPEN30
  9
$DIMSTYLE
  2
MXDIMSTYLE
  9
$DIMCLRD
 70
         0
  9
$DIMCLRE
 70
         0
  9
$DIMCLRT
 70
         0
  9
$DIMTFAC
 40
1.0
  9
$DIMGAP
 40
1.0
  9
$DIMJUST
 70
         0
  9
$DIMSD1
 70
         0
  9
$DIMSD2
 70
         0
  9
$DIMTOLJ
 70
         0
  9
$DIMTZIN
 70
         0
  9
$DIMALTZ
 70
         0
  9
$DIMALTTZ
 70
         0
  9
$DIMFIT
 70
         3
  9
$DIMUPT
 70
         0
  9
$DIMUNIT
 70
         2
  9
$DIMDEC
 70
         2
  9
$DIMTDEC
 70
         2
  9
$DIMALTU
 70
         2
  9
$DIMALTTD
 70
         4
  9
$DIMTXSTY
  7
MX_NOTE_STANDARD
  9
$DIMAUNIT
 70
         0
  9
$LUNITS
 70
         2
  9
$LUPREC
 70
         4
  9
$SKETCHINC
 40
0.1
  9
$FILLETRAD
 40
0.0
  9
$AUNITS
 70
         0
  9
$AUPREC
 70
         0
  9
$MENU
  1
acad
  9
$ELEVATION
 40
0.0
  9
$PELEVATION
 40
0.0
  9
$THICKNESS
 40
0.0
  9
$LIMCHECK
 70
         0
  9
$BLIPMODE
 70
         1
  9
$CHAMFERA
 40
0.0
  9
$CHAMFERB
 40
0.0
  9
$CHAMFERC
 40
0.0
  9
$CHAMFERD
 40
0.0
  9
$SKPOLY
 70
         0
  9
$TDCREATE
 40
2456603.419490741
  9
$TDUPDATE
 40
2456603.419490741
  9
$TDINDWG
 40
0.0000000000
  9
$TDUSRTIMER
 40
0.0000000000
  9
$USRTIMER
 70
         1
  9
$ANGBASE
 50
0.0
  9
$ANGDIR
 70
         0
  9
$PDMODE
 70
         0
  9
$PDSIZE
 40
0.0
  9
$PLINEWID
 40
0.0
  9
$COORDS
 70
         1
  9
$SPLFRAME
 70
         0
  9
$SPLINETYPE
 70
         6
  9
$SPLINESEGS
 70
         8
  9
$ATTDIA
 70
         0
  9
$ATTREQ
 70
         1
  9
$HANDLING
 70
         1
  9
$HANDSEED
  5
DC
  9
$SURFTAB1
 70
         6
  9
$SURFTAB2
 70
         6
  9
$SURFTYPE
 70
         6
  9
$SURFU
 70
         6
  9
$SURFV
 70
         6
  9
$UCSNAME
  2

  9
$UCSORG
 10
0.0
 20
0.0
 30
0.0
  9
$UCSXDIR
 10
1.0
 20
0.0
 30
0.0
  9
$UCSYDIR
 10
0.0
 20
1.0
 30
0.0
  9
$PUCSNAME
  2

  9
$PUCSORG
 10
0.0
 20
0.0
 30
0.0
  9
$PUCSXDIR
 10
1.0
 20
0.0
 30
0.0
  9
$PUCSYDIR
 10
0.0
 20
1.0
 30
0.0
  9
$USERI1
 70
         0
  9
$USERI2
 70
         0
  9
$USERI3
 70
         0
  9
$USERI4
 70
         0
  9
$USERI5
 70
         0
  9
$USERR1
 40
0.0
  9
$USERR2
 40
0.0
  9
$USERR3
 40
0.0
  9
$USERR4
 40
0.0
  9
$USERR5
 40
0.0
  9
$WORLDVIEW
 70
         1
  9
$SHADEDGE
 70
         3
  9
$SHADEDIF
 70
        70
  9
$TILEMODE
 70
         1
  9
$MAXACTVP
 70
        16
  9
$PINSBASE
 10
0.0
 20
0.0
 30
0.0
  9
$PLIMCHECK
 70
         0
  9
$PEXTMIN
 10
1.0000000000E+20
 20
1.0000000000E+20
 30
1.0000000000E+20
  9
$PEXTMAX
 10
-1.0000000000E+20
 20
-1.0000000000E+20
 30
-1.0000000000E+20
  9
$PLIMMIN
 10
0.0
 20
0.0
  9
$PLIMMAX
 10
12.0
 20
9.0
  9
$UNITMODE
 70
         0
  9
$VISRETAIN
 70
         0
  9
$PLINEGEN
 70
         1
  9
$PSLTSCALE
 70
         0
  9
$TREEDEPTH
 70
      3020
  9
$PICKSTYLE
 70
         1
  9
$CMLSTYLE
  2
Standard
  9
$CMLJUST
 70
         0
  9
$CMLSCALE
 40
1.0
  9
$PROXYGRAPHICS
 70
         0
  9
$MEASUREMENT
 70
         1
  0
ENDSEC
  0
SECTION
  2
CLASSES
  0
CLASS
  1
LWPOLYLINE
  2
AcDbPolyline
  3
"AutoCAD"
 90
        0
280
         0
281
         1
  0
CLASS
  1
IMAGE
  2
AcDbRasterImage
  3
ISM
 90
      127
280
         0
281
         1
  0
CLASS
  1
OLE2FRAME
  2
AcDbOle2Frame
  3
""
 90
        0
280
         0
281
         1
  0
CLASS
  1
HATCH
  2
AcDbHatch
  3
"ACAD_SEDONA"
 90
        0
280
         0
281
         1
  0
CLASS
  1
DICTIONARYVAR
  2
AcDbDictionaryVar
  3
"AutoCAD"
 90
        0
280
         0
281
         0
  0
CLASS
  1
RASTERVARIABLES
  2
AcDbRasterVariables
  3
ISM
 90
        0
280
         0
281
         0
  0
CLASS
  1
IMAGEDEF
  2
AcDbRasterImageDef
  3
ISM
 90
        0
280
         0
281
         0
  0
CLASS
  1
IMAGEDEF_REACTOR
  2
AcDbRasterImageDefReactor
  3
ISM
 90
        1
280
         0
281
         0
  0
CLASS
  1
IDBUFFER
  2
AcDbIdBuffer
  3
"Acad"
 90
        0
280
         0
281
         0
  0
CLASS
  1
SPATIAL_FILTER
  2
AcDbSpatialFilter
  3
"Acad"
 90
        0
280
         0
281
         0
  0
CLASS
  1
XRECORD
  2
AcDbXrecord
  3
"<Built In>"
 90
        0
280
         0
281
         0
  0
CLASS
  1
SORTENTSTABLE
  2
AcDbSortentsTable
  3
"AutoCAD"
 90
        0
280
         0
281
         0
  0
CLASS
  1
LAYER_INDEX
  2
AcDbLayerIndex
  3
"Acad"
 90
        0
280
         0
281
         0
  0
CLASS
  1
SPATIAL_INDEX
  2
AcDbSpatialIndex
  3
"Acad"
 90
        0
280
         0
281
         0
  0
CLASS
  1
OBJECT_PTR
  2
CAseDLPNTableRecord
  3
"ASE-LPNTableRecord"
 90
        1
280
         0
281
         0
  0
CLASS
  1
LAYOUT
  2
AcDbLayout
  3
"AutoCAD 2000"
 90
        0
280
         0
281
         0
  0
CLASS
  1
PLOTSETTINGS
  2
AcDbPlotSettings
  3
"AutoCAD 2000"
 90
        0
280
         0
281
         0
  0
CLASS
  1
ACDBDICTIONARYWDFLT
  2
AcDbDictionaryWithDefault
  3
"AutoCAD 2000"
 90
        0
280
         0
281
         0
  0
CLASS
  1
ACDBPLACEHOLDER
  2
AcDbPlaceHolder
  3
"AutoCAD 2000"
 90
        0
280
         0
281
         0
  0
ENDSEC
  0
SECTION
  2
TABLES
  0
TABLE
  2
VPORT
  5
7
100
AcDbSymbolTable
 70
         1
  0
VPORT
  5
15
100
AcDbSymbolTableRecord
100
AcDbViewportTableRecord
  2
*ACTIVE
 70
         0
 10
0.0
 20
0.0
 11
1.0
 21
1.0
 12
-36.1142957028
 22
-109.222920964
 13
0.0
 23
0.0
 14
1.0
 24
1.0
 15
0.0
 25
0.0
 16
0.0
 26
0.0
 36
1.0
 17
0.0
 27
0.0
 37
0.0
 40
467.3241963128
 41
1.7320508076
 42
50.0
 43
0.0
 44
0.0
 50
0.0
 51
0.0
 71
         0
 72
       100
 73
         1
 74
         1
 75
         0
 76
         0
 77
         0
 78
         0
  0
ENDTAB
  0
TABLE
  2
LTYPE
  5
4
100
AcDbSymbolTable
 70
         4
  0
LTYPE
  5
11
100
AcDbSymbolTableRecord
100
AcDbLinetypeTableRecord
  2
BYBLOCK
 70
        64
  3

 72
        65
 73
         0
 40
0.0
  0
LTYPE
  5
12
100
AcDbSymbolTableRecord
100
AcDbLinetypeTableRecord
  2
BYLAYER
 70
        64
  3

 72
        65
 73
         0
 40
0.0
  0
LTYPE
  5
13
100
AcDbSymbolTableRecord
100
AcDbLinetypeTableRecord
  2
CONTINUOUS
 70
        64
  3
Solid line
 72
        65
 73
         0
 40
0.0
  0
LTYPE
  5
30
100
AcDbSymbolTableRecord
100
AcDbLinetypeTableRecord
  2
CENTER
 70
        64
  3
Center ____ _ ____ _ ____ _ ____ _ ____ _ ____
 72
        65
 73
         4
 40
50.8
 49
31.75
 74
         0
 49
-6.35
 74
         0
 49
6.35
 74
         0
 49
-6.35
 74
         0
  0
ENDTAB
  0
TABLE
  2
LAYER
  5
2
100
AcDbSymbolTable
 70
         3
  0
LAYER
  5
14
100
AcDbSymbolTableRecord
100
AcDbLayerTableRecord
  2
0
 70
         0
 62
         7
  6
CONTINUOUS
  0
LAYER
  5
1D
100
AcDbSymbolTableRecord
100
AcDbLayerTableRecord
  2
DEFPOINTS
 70
         0
 62
         7
  6
CONTINUOUS
  0
LAYER
  5
1E
100
AcDbSymbolTableRecord
100
AcDbLayerTableRecord
  2
LY_3
 70
         0
 62
         7
  6
CONTINUOUS
  0
ENDTAB
  0
TABLE
  2
STYLE
  5
3
100
AcDbSymbolTable
 70
         1
  0
STYLE
  5
17
100
AcDbSymbolTableRecord
100
AcDbTextStyleTableRecord
  2
MX_NOTE_STANDARD
 70
         0
 40
0.0
 41
1.0
 50
0.0
 71
         0
 42
3.2000000477
  3
txt.shx
  4
extfont.shx
  0
ENDTAB
  0
TABLE
  2
VIEW
  5
5
100
AcDbSymbolTable
 70
         0
  0
ENDTAB
  0
TABLE
  2
UCS
  5
6
100
AcDbSymbolTable
 70
         0
  0
ENDTAB
  0
TABLE
  2
APPID
  5
8
100
AcDbSymbolTable
 70
         1
  0
APPID
  5
16
100
AcDbSymbolTableRecord
100
AcDbRegAppTableRecord
  2
ACAD
 70
         0
  0
ENDTAB
  0
TABLE
  2
DIMSTYLE
  5
9
100
AcDbSymbolTable
 70
         1
  0
DIMSTYLE
105
18
100
AcDbSymbolTableRecord
100
AcDbDimStyleTableRecord
  2
MXDIMSTYLE
 70
         0
  3

  4

  5

  6
_OPEN30
  7
_OPEN30
 40
1.0
 41
2.5
 42
0.0
 43
3.75
 44
2.5
 45
0.0
 46
0.0
 47
0.0
 48
0.0
 71
         0
 72
         0
 73
         0
 74
         0
 75
         0
 76
         0
 77
         1
 78
         8
140
3.2000000477
141
2.5
142
0.0
143
0.0393700787
144
1.0
145
0.0
146
1.0
147
1.0
170
         0
171
         4
172
         1
173
         1
174
         0
175
         0
176
         0
177
         0
178
         0
270
         2
271
         2
272
         2
273
         2
274
         4
275
         0
280
         0
281
         0
282
         0
283
         0
284
         0
285
         0
286
         0
287
         3
288
         0
340
17
  0
ENDTAB
  0
TABLE
  2
BLOCK_RECORD
  5
1
100
AcDbSymbolTable
 70
         1
  0
BLOCK_RECORD
  5
A
100
AcDbSymbolTableRecord
100
AcDbBlockTableRecord
  2
*MODEL_SPACE
  0
BLOCK_RECORD
  5
B
100
AcDbSymbolTableRecord
100
AcDbBlockTableRecord
  2
*PAPER_SPACE
  0
BLOCK_RECORD
  5
1F
100
AcDbSymbolTableRecord
100
AcDbBlockTableRecord
  2
_OPEN30
  0
ENDTAB
  0
ENDSEC
  0
SECTION
  2
BLOCKS
  0
BLOCK
  5
D
100
AcDbEntity
  8
0
100
AcDbBlockBegin
  2
*MODEL_SPACE
 70
         0
 10
0.0
 20
0.0
 30
0.0
  3
*MODEL_SPACE
  1

  0
ENDBLK
  5
E
100
AcDbEntity
  8
0
100
AcDbBlockEnd
  0
BLOCK
  5
F
100
AcDbEntity
 67
         1
  8
0
100
AcDbBlockBegin
  2
*PAPER_SPACE
 70
         0
 10
0.0
 20
0.0
 30
0.0
  3
*PAPER_SPACE
  1

  0
ENDBLK
  5
10
100
AcDbEntity
 67
         1
  8
0
100
AcDbBlockEnd
  0
BLOCK
  5
20
100
AcDbEntity
  8
0
  6
ByBlock
 62
         0
100
AcDbBlockBegin
  2
_OPEN30
 70
         2
 10
0.0
 20
0.0
 30
0.0
  3
_OPEN30
  1

  0
LINE
  5
21
100
AcDbEntity
  8
0
  6
ByBlock
 62
         0
100
AcDbLine
 10
-1.0
 20
0.267949
 30
0.0
 11
0.0
 21
0.0
 31
0.0
  0
LINE
  5
22
100
AcDbEntity
  8
0
  6
ByBlock
 62
         0
100
AcDbLine
 10
0.0
 20
0.0
 30
0.0
 11
-1.0
 21
-0.267949
 31
0.0
  0
LINE
  5
23
100
AcDbEntity
  8
0
  6
ByBlock
 62
         0
100
AcDbLine
 10
0.0
 20
0.0
 30
0.0
 11
-1.0
 21
0.0
 31
0.0
  0
ENDBLK
  5
24
100
AcDbEntity
  8
0
  6
ByBlock
 62
         0
100
AcDbBlockEnd
  0
ENDSEC
  0
SECTION
  2
ENTITIES
  0
MTEXT
  5
25
100
AcDbEntity
  8
LY_3
  6
CONTINUOUS
 62
       110
100
AcDbMText
 10
-147.446440963
 20
117.7423578659
 30
0.0
 40
13.1499996185
 41
0.0
 71
         1
 72
         1
  1
\W1.050;\A1;TSUBAKI
  0
POINT
  5
26
100
AcDbEntity
  8
LY_3
  6
CONTINUOUS
 62
        20
100
AcDbPoint
 10
-292.225342
 20
-101.085358
 30
0.0
  0
POINT
  5
27
100
AcDbEntity
  8
LY_3
  6
CONTINUOUS
 62
        20
100
AcDbPoint
 10
-289.725342
 20
-101.085358
 30
0.0
  0
POINT
  5
28
100
AcDbEntity
  8
LY_3
  6
CONTINUOUS
 62
        20
100
AcDbPoint
 10
-204.725754
 20
-101.085358
 30
0.0
  0
POINT
  5
29
100
AcDbEntity
  8
LY_3
  6
CONTINUOUS
 62
        20
100
AcDbPoint
 10
-202.225754
 20
-101.085358
 30
0.0
  0
POINT
  5
2A
100
AcDbEntity
  8
LY_3
  6
CONTINUOUS
 62
        20
100
AcDbPoint
 10
-292.225342
 20
-303.071533
 30
0.0
  0
POINT
  5
2B
100
AcDbEntity
  8
LY_3
  6
CONTINUOUS
 62
        20
100
AcDbPoint
 10
-289.725342
 20
-303.071533
 30
0.0
  0
POINT
  5
2C
100
AcDbEntity
  8
LY_3
  6
CONTINUOUS
 62
        20
100
AcDbPoint
 10
-204.725754
 20
-303.071533
 30
0.0
  0
POINT
  5
2D
100
AcDbEntity
  8
LY_3
  6
CONTINUOUS
 62
        20
100
AcDbPoint
 10
-202.225754
 20
-303.071533
 30
0.0
  0
POINT
  5
2E
100
AcDbEntity
  8
LY_3
  6
CONTINUOUS
 62
        20
100
AcDbPoint
 10
-2.231125
 20
-101.085358
 30
0.0
  0
POINT
  5
2F
100
AcDbEntity
  8
LY_3
  6
CONTINUOUS
 62
        20
100
AcDbPoint
 10
-2.231125
 20
-303.071533
 30
0.0
  0
LINE
  5
31
100
AcDbEntity
  8
LY_3
  6
CENTER
 62
         7
100
AcDbLine
 10
-2.231125
 20
-19.085022
 30
0.0
 11
-2.231125
 21
-33.229645
 31
0.0
  0
LINE
  5
32
100
AcDbEntity
  8
LY_3
  6
CENTER
 62
         7
100
AcDbLine
 10
-61.134223
 20
-67.077653
 30
0.0
 11
-73.133569
 21
-60.149828
 31
0.0
  0
LINE
  5
33
100
AcDbEntity
  8
LY_3
  6
CENTER
 62
         7
100
AcDbLine
 10
56.907307
 20
-66.941783
 30
0.0
 11
68.135983
 21
-60.458904
 31
0.0
  0
LINE
  5
34
100
AcDbEntity
  8
LY_3
  6
CENTER
 62
         7
100
AcDbLine
 10
-72.923916
 20
-141.899832
 30
0.0
 11
-61.367361
 21
-135.227652
 31
0.0
  0
LINE
  5
35
100
AcDbEntity
  8
LY_3
  6
CENTER
 62
         7
100
AcDbLine
 10
68.270632
 20
-141.789573
 30
0.0
 11
56.757078
 21
-135.14222
 31
0.0
  0
LINE
  5
36
100
AcDbEntity
  8
LY_3
  6
CENTER
 62
         7
100
AcDbLine
 10
-2.231125
 20
-168.948181
 30
0.0
 11
-2.231125
 21
-182.623932
 31
0.0
  0
LINE
  5
37
100
AcDbEntity
  8
LY_3
  6
CONTINUOUS
 62
       251
100
AcDbLine
 10
136.273972
 20
-303.071777
 30
0.0
 11
165.129166
 21
-303.071777
 31
0.0
  0
LINE
  5
38
100
AcDbEntity
  8
LY_3
  6
CONTINUOUS
 62
       251
100
AcDbLine
 10
116.487241
 20
-303.071597
 30
0.0
 11
136.273651
 21
-289.696961
 31
0.0
  0
LINE
  5
39
100
AcDbEntity
  8
LY_3
  6
CONTINUOUS
 62
       251
100
AcDbLine
 10
136.273972
 20
-289.697021
 30
0.0
 11
136.273972
 21
-316.446289
 31
0.0
  0
LINE
  5
3A
100
AcDbEntity
  8
LY_3
  6
CONTINUOUS
 62
       251
100
AcDbLine
 10
136.273707
 20
-316.446238
 30
0.0
 11
116.487196
 21
-303.071534
 31
0.0
  0
LINE
  5
3B
100
AcDbEntity
  8
LY_3
  6
CONTINUOUS
 62
       251
100
AcDbLine
 10
136.273819
 20
-101.085358
 30
0.0
 11
165.129013
 21
-101.085358
 31
0.0
  0
LINE
  5
3C
100
AcDbEntity
  8
LY_3
  6
CONTINUOUS
 62
       251
100
AcDbLine
 10
116.487305
 20
-101.085446
 30
0.0
 11
136.273715
 21
-87.710811
 31
0.0
  0
LINE
  5
3D
100
AcDbEntity
  8
LY_3
  6
CONTINUOUS
 62
       251
100
AcDbLine
 10
136.273819
 20
-87.710724
 30
0.0
 11
136.273819
 21
-114.459991
 31
0.0
  0
LINE
  5
3E
100
AcDbEntity
  8
LY_3
  6
CONTINUOUS
 62
       251
100
AcDbLine
 10
136.273664
 20
-114.459973
 30
0.0
 11
116.487255
 21
-101.085338
 31
0.0
  0
LINE
  5
3F
100
AcDbEntity
  8
LY_3
  6
CONTINUOUS
 62
       251
100
AcDbLine
 10
-12.231129
 20
-64.943298
 30
0.0
 11
-12.231129
 21
-57.585388
 31
0.0
  0
LINE
  5
40
100
AcDbEntity
  8
LY_3
  6
CONTINUOUS
 62
       251
100
AcDbLine
 10
-12.231129
 20
-57.585388
 30
0.0
 11
7.76886
 21
-57.585388
 31
0.0
  0
LINE
  5
41
100
AcDbEntity
  8
LY_3
  6
CONTINUOUS
 62
       251
100
AcDbLine
 10
7.76886
 20
-57.585388
 30
0.0
 11
7.76886
 21
-64.943298
 31
0.0
  0
LINE
  5
42
100
AcDbEntity
  8
LY_3
  6
CONTINUOUS
 62
       251
100
AcDbLine
 10
-289.725342
 20
-57.585388
 30
0.0
 11
-204.725754
 21
-57.585388
 31
0.0
  0
LINE
  5
43
100
AcDbEntity
  8
LY_3
  6
CONTINUOUS
 62
       251
100
AcDbLine
 10
-289.725342
 20
-138.585358
 30
0.0
 11
-204.725754
 21
-138.585358
 31
0.0
  0
LINE
  5
44
100
AcDbEntity
  8
LY_3
  6
CONTINUOUS
 62
       251
100
AcDbLine
 10
-289.725342
 20
-63.585388
 30
0.0
 11
-204.725754
 21
-63.585388
 31
0.0
  0
LINE
  5
45
100
AcDbEntity
  8
LY_3
  6
CONTINUOUS
 62
       251
100
AcDbLine
 10
-12.231129
 20
-266.929443
 30
0.0
 11
-12.231129
 21
-260.671631
 31
0.0
  0
LINE
  5
46
100
AcDbEntity
  8
LY_3
  6
CONTINUOUS
 62
       251
100
AcDbLine
 10
-12.231129
 20
-260.671631
 30
0.0
 11
7.76886
 21
-260.671631
 31
0.0
  0
LINE
  5
47
100
AcDbEntity
  8
LY_3
  6
CONTINUOUS
 62
       251
100
AcDbLine
 10
7.76886
 20
-260.671631
 30
0.0
 11
7.76886
 21
-266.929443
 31
0.0
  0
LINE
  5
48
100
AcDbEntity
  8
LY_3
  6
CONTINUOUS
 62
       251
100
AcDbLine
 10
-289.725342
 20
-260.671631
 30
0.0
 11
-204.725754
 21
-260.671631
 31
0.0
  0
LINE
  5
49
100
AcDbEntity
  8
LY_3
  6
CONTINUOUS
 62
       251
100
AcDbLine
 10
-289.725342
 20
-340.571533
 30
0.0
 11
-204.725754
 21
-340.571533
 31
0.0
  0
LINE
  5
4A
100
AcDbEntity
  8
LY_3
  6
CONTINUOUS
 62
       251
100
AcDbLine
 10
-289.725342
 20
-265.571533
 30
0.0
 11
-204.725754
 21
-265.571533
 31
0.0
  0
CIRCLE
  5
4B
100
AcDbEntity
  8
LY_3
  6
CONTINUOUS
 62
       251
100
AcDbCircle
 10
-2.231125
 20
-101.085358
 30
0.0
 40
84.999969
  0
CIRCLE
  5
4C
100
AcDbEntity
  8
LY_3
  6
CONTINUOUS
 62
       251
100
AcDbCircle
 10
-2.231125
 20
-101.085358
 30
0.0
 40
67.499969
  0
CIRCLE
  5
4D
100
AcDbEntity
  8
LY_3
  6
CONTINUOUS
 62
       251
100
AcDbCircle
 10
-2.231125
 20
-101.085358
 30
0.0
 40
49.999969
  0
ARC
  5
4E
100
AcDbEntity
  8
LY_3
  6
CENTER
 62
         7
100
AcDbCircle
 10
-2.231125
 20
-101.085358
 30
0.0
 40
74.999969
100
AcDbArc
 50
85.392774
 51
94.784502
  0
ARC
  5
4F
100
AcDbEntity
  8
LY_3
  6
CENTER
 62
         7
100
AcDbCircle
 10
-2.231155
 20
-101.085388
 30
0.0
 40
74.999969
100
AcDbArc
 50
145.112068
 51
155.23643
  0
ARC
  5
50
100
AcDbEntity
  8
LY_3
  6
CENTER
 62
         7
100
AcDbCircle
 10
-2.231155
 20
-101.085358
 30
0.0
 40
74.999969
100
AcDbArc
 50
24.627832
 51
34.968198
  0
ARC
  5
51
100
AcDbEntity
  8
LY_3
  6
CENTER
 62
         7
100
AcDbCircle
 10
-2.231125
 20
-101.085358
 30
0.0
 40
74.999969
100
AcDbArc
 50
265.048568
 51
275.053812
  0
ARC
  5
52
100
AcDbEntity
  8
LY_3
  6
CENTER
 62
         7
100
AcDbCircle
 10
-2.231155
 20
-101.085327
 30
0.0
 40
74.999969
100
AcDbArc
 50
204.982027
 51
215.513085
  0
ARC
  5
53
100
AcDbEntity
  8
LY_3
  6
CENTER
 62
         7
100
AcDbCircle
 10
-2.231155
 20
-101.085358
 30
0.0
 40
74.999969
100
AcDbArc
 50
325.120208
 51
334.972008
  0
ARC
  5
54
100
AcDbEntity
  8
LY_3
  6
CONTINUOUS
 62
       251
100
AcDbCircle
 10
-2.231125
 20
-101.085358
 30
0.0
 40
37.499969
100
AcDbArc
 50
105.466044
 51
74.533958
  0
ARC
  5
55
100
AcDbEntity
  8
LY_3
  6
CONTINUOUS
 62
       251
100
AcDbCircle
 10
-2.231125
 20
-303.071533
 30
0.0
 40
37.499969
100
AcDbArc
 50
105.466044
 51
74.533958
  0
MTEXT
  5
56
100
AcDbEntity
  8
LY_3
  6
CONTINUOUS
 62
         7
100
AcDbMText
 10
-64.8168159373
 20
68.667357702
 30
0.0
 40
15.0
 41
0.0
 71
         1
 72
         1
  1
\W1.053;\A1;BS 75-75
  0
MTEXT
  5
57
100
AcDbEntity
  8
LY_3
  6
CONTINUOUS
 62
         7
100
AcDbMText
 10
-68.2430559669
 20
92.6673580596
 30
0.0
 40
13.0
 41
0.0
 71
         1
 72
         1
  1
\W1.042;\A1;CAM CLUTCH
  0
MTEXT
  5
58
100
AcDbEntity
  8
LY_3
  6
CONTINUOUS
 62
         7
100
AcDbMText
 10
174.1671110131
 20
-290.9105960149
 30
0.0
 40
3.1500000954
 41
0.0
 71
         1
 72
         1
  1
\W1.055;\A1;KEY WAY =
  0
MTEXT
  5
59
100
AcDbEntity
  8
LY_3
  6
CONTINUOUS
 62
         7
100
AcDbMText
 10
173.370869021
 20
-307.8180660149
 30
0.0
 40
3.1500000954
 41
0.0
 71
         1
 72
         1
  1
\W1.181;\A1;JIS B 1301-1976
  0
MTEXT
  5
5A
100
AcDbEntity
  8
LY_3
  6
CONTINUOUS
 62
         7
100
AcDbMText
 10
174.1669590131
 20
-88.9243290149
 30
0.0
 40
3.1500000954
 41
0.0
 71
         1
 72
         1
  1
\W1.055;\A1;KEY WAY =
  0
MTEXT
  5
5B
100
AcDbEntity
  8
LY_3
  6
CONTINUOUS
 62
         7
100
AcDbMText
 10
173.370717021
 20
-105.8316770149
 30
0.0
 40
3.1500000954
 41
0.0
 71
         1
 72
         1
  1
\W1.181;\A1;JIS B 1301-1959
  0
LINE
  5
5C
100
AcDbEntity
  8
LY_3
  6
CONTINUOUS
 62
       251
100
AcDbLine
 10
-292.225281
 20
-16.085388
 30
0.0
 11
-292.225281
 21
-63.585388
 31
0.0
  0
LINE
  5
5D
100
AcDbEntity
  8
LY_3
  6
CONTINUOUS
 62
       251
100
AcDbLine
 10
-204.725754
 20
-51.085358
 30
0.0
 11
-204.725754
 21
-63.585388
 31
0.0
  0
LINE
  5
5E
100
AcDbEntity
  8
LY_3
  6
CONTINUOUS
 62
       251
100
AcDbLine
 10
-202.225754
 20
-63.585388
 30
0.0
 11
-202.225754
 21
-16.085388
 31
0.0
  0
LINE
  5
5F
100
AcDbEntity
  8
LY_3
  6
CONTINUOUS
 62
       251
100
AcDbLine
 10
-289.725281
 20
-63.585388
 30
0.0
 11
-289.725281
 21
-51.085358
 31
0.0
  0
LINE
  5
60
100
AcDbEntity
  8
LY_3
  6
CONTINUOUS
 62
       251
100
AcDbLine
 10
-266.225266
 20
-50.085382
 30
0.0
 11
-269.425714
 21
-50.085382
 31
0.0
  0
LINE
  5
61
100
AcDbEntity
  8
LY_3
  6
CONTINUOUS
 62
       251
100
AcDbLine
 10
-225.025791
 20
-31.735377
 30
0.0
 11
-223.075764
 21
-31.735377
 31
0.0
  0
LINE
  5
62
100
AcDbEntity
  8
LY_3
  6
CONTINUOUS
 62
       251
100
AcDbLine
 10
-271.375741
 20
-31.735377
 30
0.0
 11
-269.425714
 21
-31.735377
 31
0.0
  0
LINE
  5
63
100
AcDbEntity
  8
LY_3
  6
CONTINUOUS
 62
       251
100
AcDbLine
 10
-271.375741
 20
-38.085382
 30
0.0
 11
-269.425714
 21
-38.085382
 31
0.0
  0
LINE
  5
64
100
AcDbEntity
  8
LY_3
  6
CONTINUOUS
 62
       251
100
AcDbLine
 10
-280.225744
 20
-35.585375
 30
0.0
 11
-280.225744
 21
-49.684967
 31
0.0
  0
LINE
  5
65
100
AcDbEntity
  8
LY_3
  6
CONTINUOUS
 62
       251
100
AcDbLine
 10
-280.225744
 20
-35.585375
 30
0.0
 11
-274.725744
 21
-35.585375
 31
0.0
  0
LINE
  5
66
100
AcDbEntity
  8
LY_3
  6
CONTINUOUS
 62
       251
100
AcDbLine
 10
-282.225744
 20
-33.585375
 30
0.0
 11
-282.225744
 21
-47.934448
 31
0.0
  0
LINE
  5
67
100
AcDbEntity
  8
LY_3
  6
CONTINUOUS
 62
       251
100
AcDbLine
 10
-282.225744
 20
-33.585375
 30
0.0
 11
-274.725744
 21
-33.585375
 31
0.0
  0
LINE
  5
68
100
AcDbEntity
  8
LY_3
  6
CONTINUOUS
 62
       251
100
AcDbLine
 10
-274.725744
 20
-33.585375
 30
0.0
 11
-274.725744
 21
-51.085382
 31
0.0
  0
LINE
  5
69
100
AcDbEntity
  8
LY_3
  6
CONTINUOUS
 62
       251
100
AcDbLine
 10
-286.725744
 20
-51.085382
 30
0.0
 11
-280.225744
 21
-46.534033
 31
0.0
  0
LINE
  5
6A
100
AcDbEntity
  8
LY_3
  6
CONTINUOUS
 62
       251
100
AcDbLine
 10
-282.225744
 20
-51.085382
 30
0.0
 11
-280.225744
 21
-49.684967
 31
0.0
  0
LINE
  5
6B
100
AcDbEntity
  8
LY_3
  6
CONTINUOUS
 62
       251
100
AcDbLine
 10
-278.225744
 20
-51.085382
 30
0.0
 11
-280.225744
 21
-49.684967
 31
0.0
  0
LINE
  5
6C
100
AcDbEntity
  8
LY_3
  6
CONTINUOUS
 62
       251
100
AcDbLine
 10
-269.425714
 20
-31.735377
 30
0.0
 11
-269.425714
 21
-51.085367
 31
0.0
  0
LINE
  5
6D
100
AcDbEntity
  8
LY_3
  6
CONTINUOUS
 62
       251
100
AcDbLine
 10
-269.425714
 20
-33.585383
 30
0.0
 11
-263.225737
 21
-33.585383
 31
0.0
  0
LINE
  5
6E
100
AcDbEntity
  8
LY_3
  6
CONTINUOUS
 62
       251
100
AcDbLine
 10
-271.375741
 20
-31.735377
 30
0.0
 11
-271.375741
 21
-51.085367
 31
0.0
  0
LINE
  5
6F
100
AcDbEntity
  8
LY_3
  6
CONTINUOUS
 62
       251
100
AcDbLine
 10
-292.225281
 20
-33.585383
 30
0.0
 11
-271.375741
 21
-33.585383
 31
0.0
  0
LINE
  5
70
100
AcDbEntity
  8
LY_3
  6
CONTINUOUS
 62
       251
100
AcDbLine
 10
-225.025791
 20
-38.085382
 30
0.0
 11
-223.075764
 21
-38.085382
 31
0.0
  0
LINE
  5
71
100
AcDbEntity
  8
LY_3
  6
CONTINUOUS
 62
       251
100
AcDbLine
 10
-214.225761
 20
-35.585375
 30
0.0
 11
-214.225761
 21
-49.684967
 31
0.0
  0
LINE
  5
72
100
AcDbEntity
  8
LY_3
  6
CONTINUOUS
 62
       251
100
AcDbLine
 10
-214.225761
 20
-35.585375
 30
0.0
 11
-219.725761
 21
-35.585375
 31
0.0
  0
LINE
  5
73
100
AcDbEntity
  8
LY_3
  6
CONTINUOUS
 62
       251
100
AcDbLine
 10
-212.225761
 20
-33.585375
 30
0.0
 11
-212.225761
 21
-47.934448
 31
0.0
  0
LINE
  5
74
100
AcDbEntity
  8
LY_3
  6
CONTINUOUS
 62
       251
100
AcDbLine
 10
-212.225761
 20
-33.585375
 30
0.0
 11
-219.725761
 21
-33.585375
 31
0.0
  0
LINE
  5
75
100
AcDbEntity
  8
LY_3
  6
CONTINUOUS
 62
       251
100
AcDbLine
 10
-219.725761
 20
-33.585375
 30
0.0
 11
-219.725761
 21
-51.085382
 31
0.0
  0
LINE
  5
76
100
AcDbEntity
  8
LY_3
  6
CONTINUOUS
 62
       251
100
AcDbLine
 10
-207.725761
 20
-51.085382
 30
0.0
 11
-214.225761
 21
-46.534033
 31
0.0
  0
LINE
  5
77
100
AcDbEntity
  8
LY_3
  6
CONTINUOUS
 62
       251
100
AcDbLine
 10
-212.225761
 20
-51.085382
 30
0.0
 11
-214.225761
 21
-49.684967
 31
0.0
  0
LINE
  5
78
100
AcDbEntity
  8
LY_3
  6
CONTINUOUS
 62
       251
100
AcDbLine
 10
-216.225761
 20
-51.085382
 30
0.0
 11
-214.225761
 21
-49.684967
 31
0.0
  0
LINE
  5
79
100
AcDbEntity
  8
LY_3
  6
CONTINUOUS
 62
       251
100
AcDbLine
 10
-225.025791
 20
-51.085367
 30
0.0
 11
-225.025791
 21
-31.735377
 31
0.0
  0
LINE
  5
7A
100
AcDbEntity
  8
LY_3
  6
CONTINUOUS
 62
       251
100
AcDbLine
 10
-228.225791
 20
-50.085382
 30
0.0
 11
-225.025791
 21
-50.085382
 31
0.0
  0
LINE
  5
7B
100
AcDbEntity
  8
LY_3
  6
CONTINUOUS
 62
       251
100
AcDbLine
 10
-231.225768
 20
-33.585383
 30
0.0
 11
-225.025791
 21
-33.585383
 31
0.0
  0
LINE
  5
7C
100
AcDbEntity
  8
LY_3
  6
CONTINUOUS
 62
       251
100
AcDbLine
 10
-223.075764
 20
-51.085367
 30
0.0
 11
-223.075764
 21
-31.735377
 31
0.0
  0
LINE
  5
7D
100
AcDbEntity
  8
LY_3
  6
CONTINUOUS
 62
       251
100
AcDbLine
 10
-223.075764
 20
-33.585383
 30
0.0
 11
-202.225754
 21
-33.585383
 31
0.0
  0
CIRCLE
  5
7E
100
AcDbEntity
  8
LY_3
  6
CONTINUOUS
 62
       251
100
AcDbCircle
 10
-232.94075
 20
-40.035522
 30
0.0
 40
1.2
  0
CIRCLE
  5
7F
100
AcDbEntity
  8
LY_3
  6
CONTINUOUS
 62
       251
100
AcDbCircle
 10
-261.510666
 20
-40.035522
 30
0.0
 40
1.2
  0
LINE
  5
80
100
AcDbEntity
  8
LY_3
  6
CONTINUOUS
 62
       251
100
AcDbLine
 10
-232.752979
 20
-38.850283
 30
0.0
 11
-231.35072
 21
-39.072379
 31
0.0
  0
LINE
  5
81
100
AcDbEntity
  8
LY_3
  6
CONTINUOUS
 62
       251
100
AcDbLine
 10
-263.225684
 20
-39.092194
 30
0.0
 11
-261.698396
 21
-38.850295
 31
0.0
  0
LINE
  5
82
100
AcDbEntity
  8
LY_3
  6
CONTINUOUS
 62
       251
100
AcDbLine
 10
-234.140732
 20
-40.035522
 30
0.0
 11
-234.140732
 21
-42.678375
 31
0.0
  0
LINE
  5
83
100
AcDbEntity
  8
LY_3
  6
CONTINUOUS
 62
       251
100
AcDbLine
 10
-260.310715
 20
-40.035522
 30
0.0
 11
-260.310715
 21
-42.678375
 31
0.0
  0
LINE
  5
84
100
AcDbEntity
  8
LY_3
  6
CONTINUOUS
 62
       251
100
AcDbLine
 10
-231.225784
 20
-51.085358
 30
0.0
 11
-204.725754
 21
-51.085358
 31
0.0
  0
LINE
  5
85
100
AcDbEntity
  8
LY_3
  6
CONTINUOUS
 62
       251
100
AcDbLine
 10
-263.22551
 20
-42.695374
 30
0.0
 11
-231.225784
 21
-42.695374
 31
0.0
  0
LINE
  5
86
100
AcDbEntity
  8
LY_3
  6
CONTINUOUS
 62
       251
100
AcDbLine
 10
-289.725281
 20
-51.085358
 30
0.0
 11
-263.22551
 21
-51.085358
 31
0.0
  0
LINE
  5
87
100
AcDbEntity
  8
LY_3
  6
CONTINUOUS
 62
       251
100
AcDbLine
 10
-232.339299
 20
-26.085556
 30
0.0
 11
-229.725631
 21
-30.435429
 31
0.0
  0
LINE
  5
88
100
AcDbEntity
  8
LY_3
  6
CONTINUOUS
 62
       251
100
AcDbLine
 10
-229.725603
 20
-21.735496
 30
0.0
 11
-232.339333
 21
-26.085473
 31
0.0
  0
LINE
  5
89
100
AcDbEntity
  8
LY_3
  6
CONTINUOUS
 62
       251
100
AcDbLine
 10
-229.725784
 20
-30.435394
 30
0.0
 11
-202.225754
 21
-30.435394
 31
0.0
  0
LINE
  5
8A
100
AcDbEntity
  8
LY_3
  6
CONTINUOUS
 62
       251
100
AcDbLine
 10
-229.725784
 20
-21.735382
 30
0.0
 11
-202.225754
 21
-21.735382
 31
0.0
  0
LINE
  5
8B
100
AcDbEntity
  8
LY_3
  6
CONTINUOUS
 62
       251
100
AcDbLine
 10
-229.725784
 20
-30.435394
 30
0.0
 11
-229.725784
 21
-21.735382
 31
0.0
  0
LINE
  5
8C
100
AcDbEntity
  8
LY_3
  6
CONTINUOUS
 62
       251
100
AcDbLine
 10
-222.225784
 20
-31.085388
 30
0.0
 11
-222.225784
 21
-21.085388
 31
0.0
  0
LINE
  5
8D
100
AcDbEntity
  8
LY_3
  6
CONTINUOUS
 62
         7
100
AcDbLine
 10
-222.225784
 20
-31.085388
 30
0.0
 11
-202.225754
 21
-31.085388
 31
0.0
  0
LINE
  5
8E
100
AcDbEntity
  8
LY_3
  6
CONTINUOUS
 62
         7
100
AcDbLine
 10
-222.225784
 20
-21.085388
 30
0.0
 11
-202.225754
 21
-21.085388
 31
0.0
  0
LINE
  5
8F
100
AcDbEntity
  8
LY_3
  6
CONTINUOUS
 62
       251
100
AcDbLine
 10
-228.225784
 20
-51.085358
 30
0.0
 11
-228.225784
 21
-33.585388
 31
0.0
  0
LINE
  5
90
100
AcDbEntity
  8
LY_3
  6
CONTINUOUS
 62
       251
100
AcDbLine
 10
-231.225784
 20
-51.085358
 30
0.0
 11
-231.225784
 21
-33.585388
 31
0.0
  0
LINE
  5
91
100
AcDbEntity
  8
LY_3
  6
CONTINUOUS
 62
       251
100
AcDbLine
 10
-264.725456
 20
-30.435528
 30
0.0
 11
-262.11171
 21
-26.085525
 31
0.0
  0
LINE
  5
92
100
AcDbEntity
  8
LY_3
  6
CONTINUOUS
 62
       251
100
AcDbLine
 10
-262.111783
 20
-26.085533
 30
0.0
 11
-264.725576
 21
-21.735451
 31
0.0
  0
LINE
  5
93
100
AcDbEntity
  8
LY_3
  6
CONTINUOUS
 62
       251
100
AcDbLine
 10
-292.225281
 20
-30.435394
 30
0.0
 11
-264.72551
 21
-30.435394
 31
0.0
  0
LINE
  5
94
100
AcDbEntity
  8
LY_3
  6
CONTINUOUS
 62
       251
100
AcDbLine
 10
-292.225281
 20
-21.735382
 30
0.0
 11
-264.72551
 21
-21.735382
 31
0.0
  0
LINE
  5
95
100
AcDbEntity
  8
LY_3
  6
CONTINUOUS
 62
       251
100
AcDbLine
 10
-264.72551
 20
-21.735382
 30
0.0
 11
-264.72551
 21
-30.435394
 31
0.0
  0
LINE
  5
96
100
AcDbEntity
  8
LY_3
  6
CONTINUOUS
 62
       251
100
AcDbLine
 10
-272.225281
 20
-21.085388
 30
0.0
 11
-272.225281
 21
-31.085388
 31
0.0
  0
LINE
  5
97
100
AcDbEntity
  8
LY_3
  6
CONTINUOUS
 62
         7
100
AcDbLine
 10
-292.225281
 20
-31.085388
 30
0.0
 11
-272.225281
 21
-31.085388
 31
0.0
  0
LINE
  5
98
100
AcDbEntity
  8
LY_3
  6
CONTINUOUS
 62
         7
100
AcDbLine
 10
-292.225281
 20
-21.085388
 30
0.0
 11
-272.225281
 21
-21.085388
 31
0.0
  0
LINE
  5
99
100
AcDbEntity
  8
LY_3
  6
CONTINUOUS
 62
       251
100
AcDbLine
 10
-266.225266
 20
-33.585388
 30
0.0
 11
-266.225266
 21
-51.085358
 31
0.0
  0
LINE
  5
9A
100
AcDbEntity
  8
LY_3
  6
CONTINUOUS
 62
       251
100
AcDbLine
 10
-263.22551
 20
-33.585388
 30
0.0
 11
-263.22551
 21
-51.085358
 31
0.0
  0
LINE
  5
9B
100
AcDbEntity
  8
LY_3
  6
CONTINUOUS
 62
       251
100
AcDbLine
 10
-263.22551
 20
-34.372375
 30
0.0
 11
-231.225784
 21
-34.372375
 31
0.0
  0
LINE
  5
9C
100
AcDbEntity
  8
LY_3
  6
CONTINUOUS
 62
       251
100
AcDbLine
 10
-292.225281
 20
-16.085388
 30
0.0
 11
-202.225754
 21
-16.085388
 31
0.0
  0
LINE
  5
9D
100
AcDbEntity
  8
LY_3
  6
CONTINUOUS
 62
       251
100
AcDbLine
 10
-202.225754
 20
-186.085327
 30
0.0
 11
-202.225754
 21
-138.585358
 31
0.0
  0
LINE
  5
9E
100
AcDbEntity
  8
LY_3
  6
CONTINUOUS
 62
       251
100
AcDbLine
 10
-289.725281
 20
-151.085358
 30
0.0
 11
-289.725281
 21
-138.585358
 31
0.0
  0
LINE
  5
9F
100
AcDbEntity
  8
LY_3
  6
CONTINUOUS
 62
       251
100
AcDbLine
 10
-204.725754
 20
-138.585358
 30
0.0
 11
-204.725754
 21
-151.085358
 31
0.0
  0
LINE
  5
A0
100
AcDbEntity
  8
LY_3
  6
CONTINUOUS
 62
       251
100
AcDbLine
 10
-292.225281
 20
-138.585358
 30
0.0
 11
-292.225281
 21
-186.085327
 31
0.0
  0
LINE
  5
A1
100
AcDbEntity
  8
LY_3
  6
CONTINUOUS
 62
       251
100
AcDbLine
 10
-228.225791
 20
-152.085333
 30
0.0
 11
-225.025791
 21
-152.085333
 31
0.0
  0
LINE
  5
A2
100
AcDbEntity
  8
LY_3
  6
CONTINUOUS
 62
       251
100
AcDbLine
 10
-266.225266
 20
-152.085333
 30
0.0
 11
-269.425714
 21
-152.085333
 31
0.0
  0
LINE
  5
A3
100
AcDbEntity
  8
LY_3
  6
CONTINUOUS
 62
       251
100
AcDbLine
 10
-225.025791
 20
-151.085349
 30
0.0
 11
-225.025791
 21
-170.435339
 31
0.0
  0
LINE
  5
A4
100
AcDbEntity
  8
LY_3
  6
CONTINUOUS
 62
       251
100
AcDbLine
 10
-231.225768
 20
-168.585333
 30
0.0
 11
-225.025791
 21
-168.585333
 31
0.0
  0
LINE
  5
A5
100
AcDbEntity
  8
LY_3
  6
CONTINUOUS
 62
       251
100
AcDbLine
 10
-225.025791
 20
-170.435339
 30
0.0
 11
-223.075764
 21
-170.435339
 31
0.0
  0
LINE
  5
A6
100
AcDbEntity
  8
LY_3
  6
CONTINUOUS
 62
       251
100
AcDbLine
 10
-271.375741
 20
-170.435339
 30
0.0
 11
-269.425714
 21
-170.435339
 31
0.0
  0
LINE
  5
A7
100
AcDbEntity
  8
LY_3
  6
CONTINUOUS
 62
       251
100
AcDbLine
 10
-282.225744
 20
-168.585341
 30
0.0
 11
-274.725744
 21
-168.585341
 31
0.0
  0
LINE
  5
A8
100
AcDbEntity
  8
LY_3
  6
CONTINUOUS
 62
       251
100
AcDbLine
 10
-282.225744
 20
-168.585341
 30
0.0
 11
-282.225744
 21
-154.236267
 31
0.0
  0
LINE
  5
A9
100
AcDbEntity
  8
LY_3
  6
CONTINUOUS
 62
       251
100
AcDbLine
 10
-280.225744
 20
-166.585341
 30
0.0
 11
-274.725744
 21
-166.585341
 31
0.0
  0
LINE
  5
AA
100
AcDbEntity
  8
LY_3
  6
CONTINUOUS
 62
       251
100
AcDbLine
 10
-280.225744
 20
-166.585341
 30
0.0
 11
-280.225744
 21
-152.485749
 31
0.0
  0
LINE
  5
AB
100
AcDbEntity
  8
LY_3
  6
CONTINUOUS
 62
       251
100
AcDbLine
 10
-271.375741
 20
-164.085333
 30
0.0
 11
-269.425714
 21
-164.085333
 31
0.0
  0
LINE
  5
AC
100
AcDbEntity
  8
LY_3
  6
CONTINUOUS
 62
       251
100
AcDbLine
 10
-274.725744
 20
-168.585341
 30
0.0
 11
-274.725744
 21
-151.085333
 31
0.0
  0
LINE
  5
AD
100
AcDbEntity
  8
LY_3
  6
CONTINUOUS
 62
       251
100
AcDbLine
 10
-286.725744
 20
-151.085333
 30
0.0
 11
-280.225744
 21
-155.636682
 31
0.0
  0
LINE
  5
AE
100
AcDbEntity
  8
LY_3
  6
CONTINUOUS
 62
       251
100
AcDbLine
 10
-282.225744
 20
-151.085333
 30
0.0
 11
-280.225744
 21
-152.485749
 31
0.0
  0
LINE
  5
AF
100
AcDbEntity
  8
LY_3
  6
CONTINUOUS
 62
       251
100
AcDbLine
 10
-278.225744
 20
-151.085333
 30
0.0
 11
-280.225744
 21
-152.485749
 31
0.0
  0
LINE
  5
B0
100
AcDbEntity
  8
LY_3
  6
CONTINUOUS
 62
       251
100
AcDbLine
 10
-269.425714
 20
-170.435339
 30
0.0
 11
-269.425714
 21
-151.085349
 31
0.0
  0
LINE
  5
B1
100
AcDbEntity
  8
LY_3
  6
CONTINUOUS
 62
       251
100
AcDbLine
 10
-269.425714
 20
-168.585333
 30
0.0
 11
-263.225737
 21
-168.585333
 31
0.0
  0
LINE
  5
B2
100
AcDbEntity
  8
LY_3
  6
CONTINUOUS
 62
       251
100
AcDbLine
 10
-271.375741
 20
-170.435339
 30
0.0
 11
-271.375741
 21
-151.085349
 31
0.0
  0
LINE
  5
B3
100
AcDbEntity
  8
LY_3
  6
CONTINUOUS
 62
       251
100
AcDbLine
 10
-292.225281
 20
-168.585333
 30
0.0
 11
-271.375741
 21
-168.585333
 31
0.0
  0
LINE
  5
B4
100
AcDbEntity
  8
LY_3
  6
CONTINUOUS
 62
       251
100
AcDbLine
 10
-212.225761
 20
-168.585341
 30
0.0
 11
-219.725761
 21
-168.585341
 31
0.0
  0
LINE
  5
B5
100
AcDbEntity
  8
LY_3
  6
CONTINUOUS
 62
       251
100
AcDbLine
 10
-212.225761
 20
-168.585341
 30
0.0
 11
-212.225761
 21
-154.236267
 31
0.0
  0
LINE
  5
B6
100
AcDbEntity
  8
LY_3
  6
CONTINUOUS
 62
       251
100
AcDbLine
 10
-214.225761
 20
-166.585341
 30
0.0
 11
-219.725761
 21
-166.585341
 31
0.0
  0
LINE
  5
B7
100
AcDbEntity
  8
LY_3
  6
CONTINUOUS
 62
       251
100
AcDbLine
 10
-214.225761
 20
-166.585341
 30
0.0
 11
-214.225761
 21
-152.485749
 31
0.0
  0
LINE
  5
B8
100
AcDbEntity
  8
LY_3
  6
CONTINUOUS
 62
       251
100
AcDbLine
 10
-225.025791
 20
-164.085333
 30
0.0
 11
-223.075764
 21
-164.085333
 31
0.0
  0
LINE
  5
B9
100
AcDbEntity
  8
LY_3
  6
CONTINUOUS
 62
       251
100
AcDbLine
 10
-219.725761
 20
-168.585341
 30
0.0
 11
-219.725761
 21
-151.085333
 31
0.0
  0
LINE
  5
BA
100
AcDbEntity
  8
LY_3
  6
CONTINUOUS
 62
       251
100
AcDbLine
 10
-207.725761
 20
-151.085333
 30
0.0
 11
-214.225761
 21
-155.636682
 31
0.0
  0
LINE
  5
BB
100
AcDbEntity
  8
LY_3
  6
CONTINUOUS
 62
       251
100
AcDbLine
 10
-212.225761
 20
-151.085333
 30
0.0
 11
-214.225761
 21
-152.485749
 31
0.0
  0
LINE
  5
BC
100
AcDbEntity
  8
LY_3
  6
CONTINUOUS
 62
       251
100
AcDbLine
 10
-216.225761
 20
-151.085333
 30
0.0
 11
-214.225761
 21
-152.485749
 31
0.0
  0
LINE
  5
BD
100
AcDbEntity
  8
LY_3
  6
CONTINUOUS
 62
       251
100
AcDbLine
 10
-223.075764
 20
-151.085349
 30
0.0
 11
-223.075764
 21
-170.435339
 31
0.0
  0
LINE
  5
BE
100
AcDbEntity
  8
LY_3
  6
CONTINUOUS
 62
       251
100
AcDbLine
 10
-223.075764
 20
-168.585333
 30
0.0
 11
-202.225754
 21
-168.585333
 31
0.0
  0
CIRCLE
  5
BF
100
AcDbEntity
  8
LY_3
  6
CONTINUOUS
 62
       251
100
AcDbCircle
 10
-232.94075
 20
-162.153229
 30
0.0
 40
1.2
  0
CIRCLE
  5
C0
100
AcDbEntity
  8
LY_3
  6
CONTINUOUS
 62
       251
100
AcDbCircle
 10
-261.510666
 20
-162.153229
 30
0.0
 40
1.2
  0
LINE
  5
C1
100
AcDbEntity
  8
LY_3
  6
CONTINUOUS
 62
       251
100
AcDbLine
 10
-259.925705
 20
-159.475403
 30
0.0
 11
-259.925705
 21
-167.79834
 31
0.0
  0
LINE
  5
C2
100
AcDbEntity
  8
LY_3
  6
CONTINUOUS
 62
       251
100
AcDbLine
 10
-234.525742
 20
-159.475403
 30
0.0
 11
-234.525742
 21
-167.79834
 31
0.0
  0
LINE
  5
C3
100
AcDbEntity
  8
LY_3
  6
CONTINUOUS
 62
       251
100
AcDbLine
 10
-204.725754
 20
-151.085358
 30
0.0
 11
-231.225784
 21
-151.085358
 31
0.0
  0
LINE
  5
C4
100
AcDbEntity
  8
LY_3
  6
CONTINUOUS
 62
       251
100
AcDbLine
 10
-231.225784
 20
-159.475342
 30
0.0
 11
-263.22551
 21
-159.475342
 31
0.0
  0
LINE
  5
C5
100
AcDbEntity
  8
LY_3
  6
CONTINUOUS
 62
       251
100
AcDbLine
 10
-263.22551
 20
-151.085358
 30
0.0
 11
-289.725281
 21
-151.085358
 31
0.0
  0
LINE
  5
C6
100
AcDbEntity
  8
LY_3
  6
CONTINUOUS
 62
       251
100
AcDbLine
 10
-229.725641
 20
-171.7353
 30
0.0
 11
-232.339387
 21
-176.085303
 31
0.0
  0
LINE
  5
C7
100
AcDbEntity
  8
LY_3
  6
CONTINUOUS
 62
       251
100
AcDbLine
 10
-232.339305
 20
-176.085227
 30
0.0
 11
-229.725575
 21
-180.435204
 31
0.0
  0
LINE
  5
C8
100
AcDbEntity
  8
LY_3
  6
CONTINUOUS
 62
       251
100
AcDbLine
 10
-202.225754
 20
-171.735321
 30
0.0
 11
-229.725784
 21
-171.735321
 31
0.0
  0
LINE
  5
C9
100
AcDbEntity
  8
LY_3
  6
CONTINUOUS
 62
       251
100
AcDbLine
 10
-202.225754
 20
-180.435333
 30
0.0
 11
-229.725784
 21
-180.435333
 31
0.0
  0
LINE
  5
CA
100
AcDbEntity
  8
LY_3
  6
CONTINUOUS
 62
       251
100
AcDbLine
 10
-229.725784
 20
-180.435333
 30
0.0
 11
-229.725784
 21
-171.735321
 31
0.0
  0
LINE
  5
CB
100
AcDbEntity
  8
LY_3
  6
CONTINUOUS
 62
       251
100
AcDbLine
 10
-222.225784
 20
-181.085327
 30
0.0
 11
-222.225784
 21
-171.085327
 31
0.0
  0
LINE
  5
CC
100
AcDbEntity
  8
LY_3
  6
CONTINUOUS
 62
         7
100
AcDbLine
 10
-202.225754
 20
-171.085327
 30
0.0
 11
-222.225784
 21
-171.085327
 31
0.0
  0
LINE
  5
CD
100
AcDbEntity
  8
LY_3
  6
CONTINUOUS
 62
         7
100
AcDbLine
 10
-202.225754
 20
-181.085327
 30
0.0
 11
-222.225784
 21
-181.085327
 31
0.0
  0
LINE
  5
CE
100
AcDbEntity
  8
LY_3
  6
CONTINUOUS
 62
       251
100
AcDbLine
 10
-228.225784
 20
-168.585327
 30
0.0
 11
-228.225784
 21
-151.085358
 31
0.0
  0
LINE
  5
CF
100
AcDbEntity
  8
LY_3
  6
CONTINUOUS
 62
       251
100
AcDbLine
 10
-231.225784
 20
-168.585327
 30
0.0
 11
-231.225784
 21
-151.085358
 31
0.0
  0
LINE
  5
D0
100
AcDbEntity
  8
LY_3
  6
CONTINUOUS
 62
       251
100
AcDbLine
 10
-202.225754
 20
-186.085327
 30
0.0
 11
-292.225281
 21
-186.085327
 31
0.0
  0
LINE
  5
D1
100
AcDbEntity
  8
LY_3
  6
CONTINUOUS
 62
       251
100
AcDbLine
 10
-262.111588
 20
-176.085123
 30
0.0
 11
-264.725334
 21
-171.735119
 31
0.0
  0
LINE
  5
D2
100
AcDbEntity
  8
LY_3
  6
CONTINUOUS
 62
       251
100
AcDbLine
 10
-264.72557
 20
-180.435251
 30
0.0
 11
-262.111777
 21
-176.085169
 31
0.0
  0
LINE
  5
D3
100
AcDbEntity
  8
LY_3
  6
CONTINUOUS
 62
       251
100
AcDbLine
 10
-264.72551
 20
-171.735321
 30
0.0
 11
-292.225281
 21
-171.735321
 31
0.0
  0
LINE
  5
D4
100
AcDbEntity
  8
LY_3
  6
CONTINUOUS
 62
       251
100
AcDbLine
 10
-264.72551
 20
-180.435333
 30
0.0
 11
-292.225281
 21
-180.435333
 31
0.0
  0
LINE
  5
D5
100
AcDbEntity
  8
LY_3
  6
CONTINUOUS
 62
       251
100
AcDbLine
 10
-264.72551
 20
-171.735321
 30
0.0
 11
-264.72551
 21
-180.435333
 31
0.0
  0
LINE
  5
D6
100
AcDbEntity
  8
LY_3
  6
CONTINUOUS
 62
       251
100
AcDbLine
 10
-272.225281
 20
-171.085327
 30
0.0
 11
-272.225281
 21
-181.085327
 31
0.0
  0
LINE
  5
D7
100
AcDbEntity
  8
LY_3
  6
CONTINUOUS
 62
         7
100
AcDbLine
 10
-272.225281
 20
-171.085327
 30
0.0
 11
-292.225281
 21
-171.085327
 31
0.0
  0
LINE
  5
D8
100
AcDbEntity
  8
LY_3
  6
CONTINUOUS
 62
         7
100
AcDbLine
 10
-272.225281
 20
-181.085327
 30
0.0
 11
-292.225281
 21
-181.085327
 31
0.0
  0
LINE
  5
D9
100
AcDbEntity
  8
LY_3
  6
CONTINUOUS
 62
       251
100
AcDbLine
 10
-266.225266
 20
-151.085358
 30
0.0
 11
-266.225266
 21
-168.585327
 31
0.0
  0
LINE
  5
DA
100
AcDbEntity
  8
LY_3
  6
CONTINUOUS
 62
       251
100
AcDbLine
 10
-263.22551
 20
-151.085358
 30
0.0
 11
-263.22551
 21
-168.585327
 31
0.0
  0
LINE
  5
DB
100
AcDbEntity
  8
LY_3
  6
CONTINUOUS
 62
       251
100
AcDbLine
 10
-231.225784
 20
-167.79834
 30
0.0
 11
-263.22551
 21
-167.79834
 31
0.0
  0
ENDSEC
  0
SECTION
  2
OBJECTS
  0
DICTIONARY
  5
19
100
AcDbDictionary
  3
ACAD_GROUP
350
1A
  3
ACAD_MLINESTYLE
350
1B
  0
DICTIONARY
  5
1A
102
{ACAD_REACTORS
330
19
102
}
100
AcDbDictionary
  0
DICTIONARY
  5
1B
102
{ACAD_REACTORS
330
19
102
}
100
AcDbDictionary
  3
STANDARD
350
1C
  0
MLINESTYLE
  5
1C
102
{ACAD_REACTORS
330
1B
102
}
100
AcDbMlineStyle
  2
Standard
 70
         0
  3

 62
         0
 51
90.0
 52
90.0
 71
         2
 49
0.5
 62
       256
  6
ByLayer
 49
-0.5
 62
       256
  6
ByLayer
  0
ENDSEC
  0
EOF
