  0
SECTION
  2
HEADER
  9
$ACADVER
  1
AC1015
  9
$ACADMAINTVER
 70
     6
  9
$DWGCODEPAGE
  3
ANSI_932
  9
$INSBASE
 10
0.0
 20
0.0
 30
0.0
  9
$EXTMIN
 10
-771.530164
 20
-741.220258
 30
0.0
  9
$EXTMAX
 10
2316.269672
 20
784.866871
 30
0.0
  9
$LIMMIN
 10
-771.530164
 20
-741.220258
  9
$LIMMAX
 10
2316.269672
 20
784.866871
  9
$ORTHOMODE
 70
     0
  9
$REGENMODE
 70
     1
  9
$FILLMODE
 70
     1
  9
$QTEXTMODE
 70
     0
  9
$MIRRTEXT
 70
     1
  9
$LTSCALE
 40
1.0
  9
$ATTMODE
 70
     1
  9
$TEXTSIZE
 40
3.2
  9
$TRACEWID
 40
0.05
  9
$TEXTSTYLE
  7
MX_NOTE_STANDARD
  9
$CLAYER
  8
LY_3
  9
$CELTYPE
  6
CONTINUOUS
  9
$CECOLOR
 62
   256
  9
$CELTSCALE
 40
1.0
  9
$DISPSILH
 70
     0
  9
$DIMSCALE
 40
1.0
  9
$DIMASZ
 40
2.5
  9
$DIMEXO
 40
0.0
  9
$DIMDLI
 40
3.75
  9
$DIMRND
 40
0.0
  9
$DIMDLE
 40
0.0
  9
$DIMEXE
 40
2.5
  9
$DIMTP
 40
0.0
  9
$DIMTM
 40
0.0
  9
$DIMTXT
 40
3.2
  9
$DIMCEN
 40
2.5
  9
$DIMTSZ
 40
0.0
  9
$DIMTOL
 70
     0
  9
$DIMLIM
 70
     0
  9
$DIMTIH
 70
     0
  9
$DIMTOH
 70
     0
  9
$DIMSE1
 70
     0
  9
$DIMSE2
 70
     0
  9
$DIMTAD
 70
     1
  9
$DIMZIN
 70
     8
  9
$DIMBLK
  1

  9
$DIMASO
 70
     1
  9
$DIMSHO
 70
     1
  9
$DIMPOST
  1

  9
$DIMAPOST
  1

  9
$DIMALT
 70
     0
  9
$DIMALTD
 70
     4
  9
$DIMALTF
 40
0.03937
  9
$DIMLFAC
 40
1.0
  9
$DIMTOFL
 70
     1
  9
$DIMTVP
 40
0.0
  9
$DIMTIX
 70
     0
  9
$DIMSOXD
 70
     0
  9
$DIMSAH
 70
     1
  9
$DIMBLK1
  1
_OPEN30
  9
$DIMBLK2
  1
_OPEN30
  9
$DIMSTYLE
  2
MXDIMSTYLE
  9
$DIMCLRD
 70
     0
  9
$DIMCLRE
 70
     0
  9
$DIMCLRT
 70
     0
  9
$DIMTFAC
 40
1.0
  9
$DIMGAP
 40
1.0
  9
$DIMJUST
 70
     0
  9
$DIMSD1
 70
     0
  9
$DIMSD2
 70
     0
  9
$DIMTOLJ
 70
     0
  9
$DIMTZIN
 70
     0
  9
$DIMALTZ
 70
     0
  9
$DIMALTTZ
 70
     0
  9
$DIMUPT
 70
     0
  9
$DIMDEC
 70
     2
  9
$DIMTDEC
 70
     2
  9
$DIMALTU
 70
     2
  9
$DIMALTTD
 70
     4
  9
$DIMTXSTY
  7
MX_NOTE_STANDARD
  9
$DIMAUNIT
 70
     0
  9
$DIMADEC
 70
     0
  9
$DIMALTRND
 40
0.0
  9
$DIMAZIN
 70
     0
  9
$DIMDSEP
 70
    46
  9
$DIMATFIT
 70
     3
  9
$DIMFRAC
 70
     0
  9
$DIMLDRBLK
  1
_OPEN30
  9
$DIMLUNIT
 70
     2
  9
$DIMLWD
 70
    -2
  9
$DIMLWE
 70
    -2
  9
$DIMTMOVE
 70
     0
  9
$LUNITS
 70
     2
  9
$LUPREC
 70
     4
  9
$SKETCHINC
 40
0.1
  9
$FILLETRAD
 40
0.0
  9
$AUNITS
 70
     0
  9
$AUPREC
 70
     0
  9
$MENU
  1
acad
  9
$ELEVATION
 40
0.0
  9
$PELEVATION
 40
0.0
  9
$THICKNESS
 40
0.0
  9
$LIMCHECK
 70
     0
  9
$CHAMFERA
 40
0.0
  9
$CHAMFERB
 40
0.0
  9
$CHAMFERC
 40
0.0
  9
$CHAMFERD
 40
0.0
  9
$SKPOLY
 70
     0
  9
$TDCREATE
 40
2458319.569548611
  9
$TDUCREATE
 40
0.000000000
  9
$TDUPDATE
 40
2458319.569548611
  9
$TDUUPDATE
 40
0.000000000
  9
$TDINDWG
 40
0.0000000000
  9
$TDUSRTIMER
 40
0.0000000000
  9
$USRTIMER
 70
     1
  9
$ANGBASE
 50
0.0
  9
$ANGDIR
 70
     0
  9
$PDMODE
 70
     0
  9
$PDSIZE
 40
0.0
  9
$PLINEWID
 40
0.0
  9
$SPLFRAME
 70
     0
  9
$SPLINETYPE
 70
     6
  9
$SPLINESEGS
 70
     8
  9
$HANDSEED
  5
175
  9
$SURFTAB1
 70
     6
  9
$SURFTAB2
 70
     6
  9
$SURFTYPE
 70
     6
  9
$SURFU
 70
     6
  9
$SURFV
 70
     6
  9
$UCSBASE
  2

  9
$UCSNAME
  2

  9
$UCSORG
 10
0.0
 20
0.0
 30
0.0
  9
$UCSXDIR
 10
1.0
 20
0.0
 30
0.0
  9
$UCSYDIR
 10
0.0
 20
1.0
 30
0.0
  9
$UCSORTHOREF
  2

  9
$UCSORTHOVIEW
 70
     0
  9
$UCSORGTOP
 10
0.0
 20
0.0
 30
0.0
  9
$UCSORGBOTTOM
 10
0.0
 20
0.0
 30
0.0
  9
$UCSORGLEFT
 10
0.0
 20
0.0
 30
0.0
  9
$UCSORGRIGHT
 10
0.0
 20
0.0
 30
0.0
  9
$UCSORGFRONT
 10
0.0
 20
0.0
 30
0.0
  9
$UCSORGBACK
 10
0.0
 20
0.0
 30
0.0
  9
$PUCSBASE
  2

  9
$PUCSNAME
  2

  9
$PUCSORG
 10
0.0
 20
0.0
 30
0.0
  9
$PUCSXDIR
 10
1.0
 20
0.0
 30
0.0
  9
$PUCSYDIR
 10
0.0
 20
1.0
 30
0.0
  9
$PUCSORTHOREF
  2

  9
$PUCSORTHOVIEW
 70
     0
  9
$PUCSORGTOP
 10
0.0
 20
0.0
 30
0.0
  9
$PUCSORGBOTTOM
 10
0.0
 20
0.0
 30
0.0
  9
$PUCSORGLEFT
 10
0.0
 20
0.0
 30
0.0
  9
$PUCSORGRIGHT
 10
0.0
 20
0.0
 30
0.0
  9
$PUCSORGFRONT
 10
0.0
 20
0.0
 30
0.0
  9
$PUCSORGBACK
 10
0.0
 20
0.0
 30
0.0
  9
$USERI1
 70
     0
  9
$USERI2
 70
     0
  9
$USERI3
 70
     0
  9
$USERI4
 70
     0
  9
$USERI5
 70
     0
  9
$USERR1
 40
0.0
  9
$USERR2
 40
0.0
  9
$USERR3
 40
0.0
  9
$USERR4
 40
0.0
  9
$USERR5
 40
0.0
  9
$WORLDVIEW
 70
     1
  9
$SHADEDGE
 70
     3
  9
$SHADEDIF
 70
    70
  9
$TILEMODE
 70
     1
  9
$MAXACTVP
 70
    16
  9
$PINSBASE
 10
0.0
 20
0.0
 30
0.0
  9
$PLIMCHECK
 70
     0
  9
$PEXTMIN
 10
1.000000E+20
 20
1.000000E+20
 30
1.000000E+20
  9
$PEXTMAX
 10
-1.000000E+20
 20
-1.000000E+20
 30
-1.000000E+20
  9
$PLIMMIN
 10
0.0
 20
0.0
  9
$PLIMMAX
 10
12.0
 20
9.0
  9
$UNITMODE
 70
     0
  9
$VISRETAIN
 70
     0
  9
$PLINEGEN
 70
     1
  9
$PSLTSCALE
 70
     0
  9
$TREEDEPTH
 70
  3020
  9
$CMLSTYLE
  2
Standard
  9
$CMLJUST
 70
     0
  9
$CMLSCALE
 40
1.0
  9
$PROXYGRAPHICS
 70
     0
  9
$MEASUREMENT
 70
     1
  9
$CELWEIGHT
370
     0
  9
$ENDCAPS
280
     0
  9
$JOINSTYLE
280
     0
  9
$LWDISPLAY
290
     0
  9
$INSUNITS
 70
     0
  9
$HYPERLINKBASE
  1

  9
$STYLESHEET
  1

  9
$XEDIT
290
     1
  9
$CEPSNTYPE
380
     0
  9
$PSTYLEMODE
290
     1
  9
$FINGERPRINTGUID
  2

  9
$VERSIONGUID
  2

  9
$EXTNAMES
290
     1
  9
$PSVPSCALE
 40
0.0
  0
ENDSEC
  0
SECTION
  2
CLASSES
  0
CLASS
  1
LWPOLYLINE
  2
AcDbPolyline
  3
AutoCAD 2000
 90
        0
280
     0
281
     1
  0
CLASS
  1
IMAGE
  2
AcDbRasterImage
  3
ISM
 90
      127
280
     0
281
     1
  0
CLASS
  1
OLE2FRAME
  2
AcDbOle2Frame
  3
AutoCAD 2000
 90
        0
280
     0
281
     1
  0
CLASS
  1
HATCH
  2
AcDbHatch
  3
AutoCAD 2000
 90
        0
280
     0
281
     1
  0
CLASS
  1
DICTIONARYVAR
  2
AcDbDictionaryVar
  3
AutoCAD 2000
 90
        0
280
     0
281
     0
  0
CLASS
  1
RASTERVARIABLES
  2
AcDbRasterVariables
  3
ISM
 90
        0
280
     0
281
     0
  0
CLASS
  1
IMAGEDEF
  2
AcDbRasterImageDef
  3
ISM
 90
        0
280
     0
281
     0
  0
CLASS
  1
IMAGEDEF_REACTOR
  2
AcDbRasterImageDefReactor
  3
ISM
 90
        1
280
     0
281
     0
  0
CLASS
  1
IDBUFFER
  2
AcDbIdBuffer
  3
AutoCAD 2000
 90
        0
280
     0
281
     0
  0
CLASS
  1
SPATIAL_FILTER
  2
AcDbSpatialFilter
  3
AutoCAD 2000
 90
        0
280
     0
281
     0
  0
CLASS
  1
XRECORD
  2
AcDbXrecord
  3
AutoCAD 2000
 90
        0
280
     0
281
     0
  0
CLASS
  1
SORTENTSTABLE
  2
AcDbSortentsTable
  3
AutoCAD 2000
 90
        0
280
     0
281
     0
  0
CLASS
  1
LAYER_INDEX
  2
AcDbLayerIndex
  3
AutoCAD 2000
 90
        0
280
     0
281
     0
  0
CLASS
  1
SPATIAL_INDEX
  2
AcDbSpatialIndex
  3
AutoCAD 2000
 90
        0
280
     0
281
     0
  0
CLASS
  1
OBJECT_PTR
  2
CAseDLPNTableRecord
  3
"ASE-LPNTableRecord"
 90
        1
280
     0
281
     0
  0
CLASS
  1
LAYOUT
  2
AcDbLayout
  3
AutoCAD 2000
 90
        0
280
     0
281
     0
  0
CLASS
  1
PLOTSETTINGS
  2
AcDbPlotSettings
  3
AutoCAD 2000
 90
        0
280
     0
281
     0
  0
CLASS
  1
ACDBDICTIONARYWDFLT
  2
AcDbDictionaryWithDefault
  3
AutoCAD 2000
 90
        0
280
     0
281
     0
  0
CLASS
  1
ACDBPLACEHOLDER
  2
AcDbPlaceHolder
  3
AutoCAD 2000
 90
        0
280
     0
281
     0
  0
ENDSEC
  0
SECTION
  2
TABLES
  0
TABLE
  2
VPORT
  5
7
100
AcDbSymbolTable
 70
     1
  0
VPORT
  5
15
100
AcDbSymbolTableRecord
100
AcDbViewportTableRecord
  2
*ACTIVE
 70
     0
 10
0.0
 20
0.0
 11
1.0
 21
1.0
 12
772.369754
 22
21.823307
 13
0.0
 23
0.0
 14
1.0
 24
1.0
 15
0.0
 25
0.0
 16
0.0
 26
0.0
 36
1.0
 17
0.0
 27
0.0
 37
0.0
 40
1541.348001
 41
1.732051
 42
50.0
 43
0.0
 44
0.0
 50
0.0
 51
0.0
 71
     0
 72
   100
 73
     1
 74
     1
 75
     0
 76
     0
 77
     0
 78
     0
281
     0
 65
     0
110
0.0
120
0.0
130
0.0
111
1.0
121
0.0
131
0.0
112
0.0
122
1.0
132
0.0
345
0
346
0
 79
     0
146
0.0
  0
ENDTAB
  0
TABLE
  2
LTYPE
  5
4
100
AcDbSymbolTable
 70
     6
  0
LTYPE
  5
11
100
AcDbSymbolTableRecord
100
AcDbLinetypeTableRecord
  2
BYBLOCK
 70
    64
  3

 72
    65
 73
     0
 40
0.0
  0
LTYPE
  5
12
100
AcDbSymbolTableRecord
100
AcDbLinetypeTableRecord
  2
BYLAYER
 70
    64
  3

 72
    65
 73
     0
 40
0.0
  0
LTYPE
  5
13
100
AcDbSymbolTableRecord
100
AcDbLinetypeTableRecord
  2
CONTINUOUS
 70
    64
  3
Solid line
 72
    65
 73
     0
 40
0.0
  0
LTYPE
  5
2F
100
AcDbSymbolTableRecord
100
AcDbLinetypeTableRecord
  2
PHANTOM
 70
    64
  3
Phantom ______  __  __  ______  __  __  ______
 72
    65
 73
     6
 40
63.5
 49
31.75
 74
     0
 49
-6.35
 74
     0
 49
6.35
 74
     0
 49
-6.35
 74
     0
 49
6.35
 74
     0
 49
-6.35
 74
     0
  0
LTYPE
  5
47
100
AcDbSymbolTableRecord
100
AcDbLinetypeTableRecord
  2
CENTER
 70
    64
  3
Center ____ _ ____ _ ____ _ ____ _ ____ _ ____
 72
    65
 73
     4
 40
50.8
 49
31.75
 74
     0
 49
-6.35
 74
     0
 49
6.35
 74
     0
 49
-6.35
 74
     0
  0
LTYPE
  5
73
100
AcDbSymbolTableRecord
100
AcDbLinetypeTableRecord
  2
DASHED
 70
    64
  3
Dashed __ __ __ __ __ __ __ __ __ __ __ __ __ _
 72
    65
 73
     2
 40
19.05
 49
12.7
 74
     0
 49
-6.35
 74
     0
  0
ENDTAB
  0
TABLE
  2
LAYER
  5
2
100
AcDbSymbolTable
 70
     3
  0
LAYER
  5
14
100
AcDbSymbolTableRecord
100
AcDbLayerTableRecord
  2
0
 70
     0
 62
     7
  6
CONTINUOUS
290
     1
370
    -3
390
1D
  0
LAYER
  5
23
100
AcDbSymbolTableRecord
100
AcDbLayerTableRecord
  2
DEFPOINTS
 70
     0
 62
     7
  6
CONTINUOUS
290
     0
370
    -3
390
1D
  0
LAYER
  5
24
100
AcDbSymbolTableRecord
100
AcDbLayerTableRecord
  2
LY_3
 70
     0
 62
   161
  6
CONTINUOUS
290
     1
370
    -3
390
1D
  0
ENDTAB
  0
TABLE
  2
STYLE
  5
3
100
AcDbSymbolTable
 70
     1
  0
STYLE
  5
17
100
AcDbSymbolTableRecord
100
AcDbTextStyleTableRecord
  2
MX_NOTE_STANDARD
 70
     0
 40
0.0
 41
1.0
 50
0.0
 71
     0
 42
3.2
  3
txt.shx
  4
extfont.shx
  0
ENDTAB
  0
TABLE
  2
VIEW
  5
5
100
AcDbSymbolTable
 70
     0
  0
ENDTAB
  0
TABLE
  2
UCS
  5
6
100
AcDbSymbolTable
 70
     0
  0
ENDTAB
  0
TABLE
  2
APPID
  5
8
100
AcDbSymbolTable
 70
     1
  0
APPID
  5
16
100
AcDbSymbolTableRecord
100
AcDbRegAppTableRecord
  2
ACAD
 70
     0
  0
ENDTAB
  0
TABLE
  2
DIMSTYLE
  5
9
100
AcDbSymbolTable
 70
     1
100
AcDbDimStyleTable
 71
     0
  0
DIMSTYLE
105
18
100
AcDbSymbolTableRecord
100
AcDbDimStyleTableRecord
  2
MXDIMSTYLE
 70
     0
  3

  4

 40
1.0
 41
2.5
 42
0.0
 43
3.75
 44
2.5
 45
0.0
 46
0.0
 47
0.0
 48
0.0
 71
     0
 72
     0
 73
     0
 74
     0
 75
     0
 76
     0
 77
     1
 78
     8
 79
     0
140
3.2
141
2.5
142
0.0
143
0.03937
144
1.0
145
0.0
146
1.0
147
1.0
148
0.0
170
     0
171
     4
172
     1
173
     1
174
     0
175
     0
176
     0
177
     0
178
     0
179
     0
271
     2
272
     2
273
     2
274
     4
275
     0
276
     0
277
     2
278
    46
279
     0
280
     0
281
     0
282
     0
283
     0
284
     0
285
     0
286
     0
288
     0
289
     3
340
17
341
28
342
0
343
28
344
28
371
    -2
372
    -2
  0
ENDTAB
  0
TABLE
  2
BLOCK_RECORD
  5
1
100
AcDbSymbolTable
 70
     4
  0
BLOCK_RECORD
  5
A
100
AcDbSymbolTableRecord
100
AcDbBlockTableRecord
  2
*MODEL_SPACE
340
20
  0
BLOCK_RECORD
  5
B
100
AcDbSymbolTableRecord
100
AcDbBlockTableRecord
  2
*PAPER_SPACE
340
21
  0
BLOCK_RECORD
  5
25
100
AcDbSymbolTableRecord
100
AcDbBlockTableRecord
  2
M30-S1-W.HB
340
0
102
{BLKREFS
331
64
331
65
331
6B
331
6C
102
}
  0
BLOCK_RECORD
  5
26
100
AcDbSymbolTableRecord
100
AcDbBlockTableRecord
  2
M30-T.HB
340
0
102
{BLKREFS
331
57
331
58
331
59
331
5A
331
5B
331
5C
331
5D
331
5E
331
5F
331
60
331
61
331
62
102
}
  0
BLOCK_RECORD
  5
27
100
AcDbSymbolTableRecord
100
AcDbBlockTableRecord
  2
MS_3
340
0
102
{BLKREFS
331
63
331
66
331
67
331
68
331
69
331
6A
102
}
  0
BLOCK_RECORD
  5
28
100
AcDbSymbolTableRecord
100
AcDbBlockTableRecord
  2
_OPEN30
340
0
  0
ENDTAB
  0
ENDSEC
  0
SECTION
  2
BLOCKS
  0
BLOCK
  5
D
100
AcDbEntity
  8
0
390
0
100
AcDbBlockBegin
  2
*MODEL_SPACE
 70
     0
 10
0.0
 20
0.0
 30
0.0
  3
*MODEL_SPACE
  1

  0
ENDBLK
  5
E
100
AcDbEntity
  8
0
390
0
100
AcDbBlockEnd
  0
BLOCK
  5
F
100
AcDbEntity
 67
     1
  8
0
390
0
100
AcDbBlockBegin
  2
*PAPER_SPACE
 70
     0
 10
0.0
 20
0.0
 30
0.0
  3
*PAPER_SPACE
  1

  0
ENDBLK
  5
10
100
AcDbEntity
 67
     1
  8
0
390
0
100
AcDbBlockEnd
  0
BLOCK
  5
2E
100
AcDbEntity
  8
0
370
    -2
390
0
100
AcDbBlockBegin
  2
M30-S1-W.HB
 70
     0
 10
0.0
 20
0.0
 30
0.0
  3
M30-S1-W.HB
  1

  0
ARC
  5
30
100
AcDbEntity
  8
0
390
0
  6
PHANTOM
 62
     7
100
AcDbCircle
 10
18.499985
 20
0.0
 30
0.0
 40
45.0
100
AcDbArc
 50
162.83701
 51
197.162918
  0
LINE
  5
31
100
AcDbEntity
  8
0
390
0
  6
PHANTOM
 62
     7
100
AcDbLine
 10
-7.500028
 20
-3.750069
 30
0.0
 11
0.000033
 21
3.749993
 31
0.0
  0
LINE
  5
32
100
AcDbEntity
  8
0
390
0
  6
PHANTOM
 62
     7
100
AcDbLine
 10
-7.5
 20
-24.949799
 30
0.0
 11
0.0
 21
-24.949799
 31
0.0
  0
LINE
  5
33
100
AcDbEntity
  8
0
390
0
  6
PHANTOM
 62
     7
100
AcDbLine
 10
-7.5
 20
24.950012
 30
0.0
 11
0.0
 21
24.950012
 31
0.0
  0
LINE
  5
34
100
AcDbEntity
  8
0
390
0
  6
PHANTOM
 62
     7
100
AcDbLine
 10
-26.499974
 20
-22.999958
 30
0.0
 11
-24.496095
 21
-26.558069
 31
0.0
  0
LINE
  5
35
100
AcDbEntity
  8
0
390
0
  6
PHANTOM
 62
     7
100
AcDbLine
 10
-24.496097
 20
-13.278952
 30
0.0
 11
-26.499964
 21
-22.999855
 31
0.0
  0
LINE
  5
36
100
AcDbEntity
  8
0
390
0
  6
PHANTOM
 62
     7
100
AcDbLine
 10
-26.499985
 20
22.99996
 30
0.0
 11
-24.496112
 21
13.279027
 31
0.0
  0
LINE
  5
37
100
AcDbEntity
  8
0
390
0
  6
PHANTOM
 62
     7
100
AcDbLine
 10
-24.496102
 20
26.558119
 30
0.0
 11
-26.499981
 21
23.000008
 31
0.0
  0
LINE
  5
38
100
AcDbEntity
  8
0
390
0
  6
PHANTOM
 62
     7
100
AcDbLine
 10
-26.499969
 20
-22.999847
 30
0.0
 11
-26.499969
 21
23.0
 31
0.0
  0
LINE
  5
39
100
AcDbEntity
  8
0
390
0
  6
PHANTOM
 62
     7
100
AcDbLine
 10
-7.5
 20
-26.557953
 30
0.0
 11
-7.5
 21
26.558105
 31
0.0
  0
LINE
  5
3A
100
AcDbEntity
  8
0
390
0
  6
PHANTOM
 62
     7
100
AcDbLine
 10
-24.496094
 20
26.558105
 30
0.0
 11
-7.5
 21
26.558105
 31
0.0
  0
LINE
  5
3B
100
AcDbEntity
  8
0
390
0
  6
PHANTOM
 62
     7
100
AcDbLine
 10
-24.496094
 20
13.279068
 30
0.0
 11
-7.5
 21
13.279068
 31
0.0
  0
LINE
  5
3C
100
AcDbEntity
  8
0
390
0
  6
PHANTOM
 62
     7
100
AcDbLine
 10
-24.496094
 20
-13.2789
 30
0.0
 11
-7.5
 21
-13.2789
 31
0.0
  0
LINE
  5
3D
100
AcDbEntity
  8
0
390
0
  6
PHANTOM
 62
     7
100
AcDbLine
 10
-24.496094
 20
-26.557953
 30
0.0
 11
-7.5
 21
-26.557953
 31
0.0
  0
ENDBLK
  5
3E
100
AcDbEntity
  8
0
370
    -2
390
0
100
AcDbBlockEnd
  0
BLOCK
  5
3F
100
AcDbEntity
  8
0
370
    -2
390
0
100
AcDbBlockBegin
  2
M30-T.HB
 70
     0
 10
0.0
 20
0.0
 30
0.0
  3
M30-T.HB
  1

  0
CIRCLE
  5
40
100
AcDbEntity
  8
0
390
0
  6
CONTINUOUS
 62
   151
100
AcDbCircle
 10
0.0
 20
0.0
 30
0.0
 40
23.0
  0
LINE
  5
41
100
AcDbEntity
  8
0
390
0
  6
CONTINUOUS
 62
   151
100
AcDbLine
 10
-22.999985
 20
-13.279067
 30
0.0
 11
-22.999985
 21
13.278885
 31
0.0
  0
LINE
  5
42
100
AcDbEntity
  8
0
390
0
  6
CONTINUOUS
 62
   151
100
AcDbLine
 10
23.0
 20
-13.279067
 30
0.0
 11
23.0
 21
13.278885
 31
0.0
  0
LINE
  5
43
100
AcDbEntity
  8
0
390
0
  6
CONTINUOUS
 62
   151
100
AcDbLine
 10
-22.999835
 20
-13.279151
 30
0.0
 11
0.000012
 21
-26.558118
 31
0.0
  0
LINE
  5
44
100
AcDbEntity
  8
0
390
0
  6
CONTINUOUS
 62
   151
100
AcDbLine
 10
0.000154
 20
26.558004
 30
0.0
 11
23.000002
 21
13.279037
 31
0.0
  0
LINE
  5
45
100
AcDbEntity
  8
0
390
0
  6
CONTINUOUS
 62
   151
100
AcDbLine
 10
0.00001
 20
-26.558122
 30
0.0
 11
23.000005
 21
-13.279071
 31
0.0
  0
LINE
  5
46
100
AcDbEntity
  8
0
390
0
  6
CONTINUOUS
 62
   151
100
AcDbLine
 10
-22.999979
 20
13.279032
 30
0.0
 11
0.000014
 21
26.558084
 31
0.0
  0
LINE
  5
48
100
AcDbEntity
  8
0
390
0
  6
CENTER
 62
     7
100
AcDbLine
 10
0.0
 20
31.328201
 30
0.0
 11
0.0
 21
-32.370117
 31
0.0
  0
ENDBLK
  5
49
100
AcDbEntity
  8
0
370
    -2
390
0
100
AcDbBlockEnd
  0
BLOCK
  5
4A
100
AcDbEntity
  8
0
370
    -2
390
0
100
AcDbBlockBegin
  2
MS_3
 70
     0
 10
0.0
 20
0.0
 30
0.0
  3
MS_3
  1

  0
CIRCLE
  5
4B
100
AcDbEntity
  8
0
390
0
  6
CONTINUOUS
 62
   151
100
AcDbCircle
 10
0.0
 20
0.0
 30
0.0
 40
10.75
  0
CIRCLE
  5
4C
100
AcDbEntity
  8
0
390
0
  6
CONTINUOUS
 62
   151
100
AcDbCircle
 10
0.0
 20
0.0
 30
0.0
 40
7.782599
  0
CIRCLE
  5
4D
100
AcDbEntity
  8
0
390
0
  6
CONTINUOUS
 62
   151
100
AcDbCircle
 10
0.0
 20
0.0
 30
0.0
 40
9.0
  0
LINE
  5
4E
100
AcDbEntity
  8
0
390
0
  6
CONTINUOUS
 62
   151
100
AcDbLine
 10
10.75
 20
0.0
 30
0.0
 11
9.0
 21
0.0
 31
0.0
  0
LINE
  5
4F
100
AcDbEntity
  8
0
390
0
  6
CONTINUOUS
 62
   151
100
AcDbLine
 10
2.924959
 20
-5.066308
 30
0.0
 11
5.849885
 21
-0.000187
 31
0.0
  0
LINE
  5
50
100
AcDbEntity
  8
0
390
0
  6
CONTINUOUS
 62
   151
100
AcDbLine
 10
-2.925009
 20
-5.066231
 30
0.0
 11
-5.850058
 21
0.000101
 31
0.0
  0
LINE
  5
51
100
AcDbEntity
  8
0
390
0
  6
CONTINUOUS
 62
   151
100
AcDbLine
 10
2.922055
 20
-5.098073
 30
0.0
 11
-2.924981
 21
-5.066365
 31
0.0
  0
LINE
  5
52
100
AcDbEntity
  8
0
390
0
  6
CONTINUOUS
 62
   151
100
AcDbLine
 10
-2.925037
 20
5.066139
 30
0.0
 11
-5.850092
 21
-0.000189
 31
0.0
  0
LINE
  5
53
100
AcDbEntity
  8
0
390
0
  6
CONTINUOUS
 62
   151
100
AcDbLine
 10
2.925003
 20
5.066162
 30
0.0
 11
-2.924988
 21
5.066162
 31
0.0
  0
LINE
  5
54
100
AcDbEntity
  8
0
390
0
  6
CONTINUOUS
 62
   151
100
AcDbLine
 10
5.849918
 20
-0.000016
 30
0.0
 11
2.924863
 21
5.066313
 31
0.0
  0
LINE
  5
55
100
AcDbEntity
  8
0
390
0
  6
CENTER
 62
     7
100
AcDbLine
 10
-26.193741
 20
0.0
 30
0.0
 11
23.514832
 21
0.0
 31
0.0
  0
ENDBLK
  5
56
100
AcDbEntity
  8
0
370
    -2
390
0
100
AcDbBlockEnd
  0
BLOCK
  5
29
100
AcDbEntity
  8
0
370
    -2
390
0
  6
ByBlock
 62
     0
100
AcDbBlockBegin
  2
_OPEN30
 70
     2
 10
0.0
 20
0.0
 30
0.0
  3
_OPEN30
  1

  0
LINE
  5
2A
100
AcDbEntity
  8
0
370
    -2
390
0
  6
ByBlock
 62
     0
100
AcDbLine
 10
-1.0
 20
0.267949
 30
0.0
 11
0.0
 21
0.0
 31
0.0
  0
LINE
  5
2B
100
AcDbEntity
  8
0
370
    -2
390
0
  6
ByBlock
 62
     0
100
AcDbLine
 10
0.0
 20
0.0
 30
0.0
 11
-1.0
 21
-0.267949
 31
0.0
  0
LINE
  5
2C
100
AcDbEntity
  8
0
370
    -2
390
0
  6
ByBlock
 62
     0
100
AcDbLine
 10
0.0
 20
0.0
 30
0.0
 11
-1.0
 21
0.0
 31
0.0
  0
ENDBLK
  5
2D
100
AcDbEntity
  8
0
370
    -2
390
0
  6
ByBlock
 62
     0
100
AcDbBlockEnd
  0
ENDSEC
  0
SECTION
  2
ENTITIES
  0
INSERT
  5
57
100
AcDbEntity
  8
LY_3
390
0
  6
ByBlock
100
AcDbBlockReference
  2
M30-T.HB
 10
-654.589546
 20
373.689548
 30
0.0
 41
1.000002
 42
1.000002
 43
1.000002
 50
75.0
  0
INSERT
  5
58
100
AcDbEntity
  8
LY_3
390
0
  6
ByBlock
100
AcDbBlockReference
  2
M30-T.HB
 10
-547.17964
 20
559.728962
 30
0.0
 41
1.000002
 42
1.000002
 43
1.000002
 50
45.0
  0
INSERT
  5
59
100
AcDbEntity
  8
LY_3
390
0
  6
ByBlock
100
AcDbBlockReference
  2
M30-T.HB
 10
-361.140232
 20
667.138862
 30
0.0
 41
1.000002
 42
1.000002
 43
1.000002
 50
15.0
  0
INSERT
  5
5A
100
AcDbEntity
  8
LY_3
390
0
  6
ByBlock
100
AcDbBlockReference
  2
M30-T.HB
 10
-146.320426
 20
667.138862
 30
0.0
 41
1.000002
 42
1.000002
 43
1.000002
 50
345.0
  0
INSERT
  5
5B
100
AcDbEntity
  8
LY_3
390
0
  6
ByBlock
100
AcDbBlockReference
  2
M30-T.HB
 10
39.718988
 20
559.728962
 30
0.0
 41
1.000002
 42
1.000002
 43
1.000002
 50
315.0
  0
INSERT
  5
5C
100
AcDbEntity
  8
LY_3
390
0
  6
ByBlock
100
AcDbBlockReference
  2
M30-T.HB
 10
147.128888
 20
373.689548
 30
0.0
 41
1.000002
 42
1.000002
 43
1.000002
 50
285.0
  0
INSERT
  5
5D
100
AcDbEntity
  8
LY_3
390
0
  6
ByBlock
100
AcDbBlockReference
  2
M30-T.HB
 10
147.128888
 20
158.869742
 30
0.0
 41
1.000002
 42
1.000002
 43
1.000002
 50
255.0
  0
INSERT
  5
5E
100
AcDbEntity
  8
LY_3
390
0
  6
ByBlock
100
AcDbBlockReference
  2
M30-T.HB
 10
39.718988
 20
-27.169666
 30
0.0
 41
1.000002
 42
1.000002
 43
1.000002
 50
225.0
  0
INSERT
  5
5F
100
AcDbEntity
  8
LY_3
390
0
  6
ByBlock
100
AcDbBlockReference
  2
M30-T.HB
 10
-146.320426
 20
-134.579572
 30
0.0
 41
1.000002
 42
1.000002
 43
1.000002
 50
195.0
  0
INSERT
  5
60
100
AcDbEntity
  8
LY_3
390
0
  6
ByBlock
100
AcDbBlockReference
  2
M30-T.HB
 10
-361.140232
 20
-134.579572
 30
0.0
 41
1.000002
 42
1.000002
 43
1.000002
 50
165.0
  0
INSERT
  5
61
100
AcDbEntity
  8
LY_3
390
0
  6
ByBlock
100
AcDbBlockReference
  2
M30-T.HB
 10
-547.17964
 20
-27.169666
 30
0.0
 41
1.000002
 42
1.000002
 43
1.000002
 50
135.0
  0
INSERT
  5
62
100
AcDbEntity
  8
LY_3
390
0
  6
ByBlock
100
AcDbBlockReference
  2
M30-T.HB
 10
-654.589546
 20
158.869742
 30
0.0
 41
1.000002
 42
1.000002
 43
1.000002
 50
105.0
  0
INSERT
  5
63
100
AcDbEntity
  8
LY_3
390
0
  6
ByBlock
100
AcDbBlockReference
  2
MS_3
 10
-253.730326
 20
578.779496
 30
0.0
 41
1.000002
 42
1.000002
 43
1.000002
 50
270.0
  0
INSERT
  5
64
100
AcDbEntity
  8
LY_3
390
0
  6
ByBlock
100
AcDbBlockReference
  2
M30-S1-W.HB
 10
-668.730328
 20
-704.720272
 30
0.0
 41
1.000002
 42
-1.000002
 43
1.000002
 50
90.0
  0
INSERT
  5
65
100
AcDbEntity
  8
LY_3
390
0
  6
ByBlock
100
AcDbBlockReference
  2
M30-S1-W.HB
 10
-668.730328
 20
-412.720276
 30
0.0
 41
1.000002
 42
1.000002
 43
1.000002
 50
270.0
  0
INSERT
  5
66
100
AcDbEntity
  8
LY_3
390
0
  6
ByBlock
100
AcDbBlockReference
  2
MS_3
 10
-524.363134
 20
422.529572
 30
0.0
 41
1.000002
 42
1.000002
 43
1.000002
 50
330.0
  0
INSERT
  5
67
100
AcDbEntity
  8
LY_3
390
0
  6
ByBlock
100
AcDbBlockReference
  2
MS_3
 10
-524.363134
 20
110.029724
 30
0.0
 41
1.000002
 42
1.000002
 43
1.000002
 50
30.0
  0
INSERT
  5
68
100
AcDbEntity
  8
LY_3
390
0
  6
ByBlock
100
AcDbBlockReference
  2
MS_3
 10
-253.730326
 20
-46.2202
 30
0.0
 41
1.000002
 42
1.000002
 43
1.000002
 50
90.0
  0
INSERT
  5
69
100
AcDbEntity
  8
LY_3
390
0
  6
ByBlock
100
AcDbBlockReference
  2
MS_3
 10
16.902476
 20
110.029724
 30
0.0
 41
1.000002
 42
1.000002
 43
1.000002
 50
150.0
  0
INSERT
  5
6A
100
AcDbEntity
  8
LY_3
390
0
  6
ByBlock
100
AcDbBlockReference
  2
MS_3
 10
16.902476
 20
422.529572
 30
0.0
 41
1.000002
 42
1.000002
 43
1.000002
 50
210.0
  0
INSERT
  5
6B
100
AcDbEntity
  8
LY_3
390
0
  6
ByBlock
100
AcDbBlockReference
  2
M30-S1-W.HB
 10
161.26967
 20
-704.720272
 30
0.0
 41
1.000002
 42
1.000002
 43
1.000002
 50
90.0
  0
INSERT
  5
6C
100
AcDbEntity
  8
LY_3
390
0
  6
ByBlock
100
AcDbBlockReference
  2
M30-S1-W.HB
 10
161.26967
 20
-412.720276
 30
0.0
 41
1.000002
 42
-1.000002
 43
1.000002
 50
270.0
  0
MTEXT
  5
6D
100
AcDbEntity
  8
LY_3
390
0
  6
CONTINUOUS
 62
     7
100
AcDbMText
 10
577.77485
 20
777.779372
 30
0.0
 40
28.349998
 41
0.0
 71
     1
 72
     1
  1
\W0.833;\A1;ＣＡＭ　ＣＬＵＴＣＨ
 73
     1
 44
0.9
  0
LINE
  5
6E
100
AcDbEntity
  8
LY_3
390
0
  6
CENTER
 62
     7
100
AcDbLine
 10
-253.730326
 20
-228.720274
 30
0.0
 11
-253.730326
 21
761.27957
 31
0.0
  0
LINE
  5
6F
100
AcDbEntity
  8
LY_3
390
0
  6
CONTINUOUS
 62
   151
100
AcDbLine
 10
-253.730326
 20
-198.720274
 30
0.0
 11
261.374276
 21
-198.720274
 31
0.0
  0
LINE
  5
70
100
AcDbEntity
  8
LY_3
390
0
  6
CONTINUOUS
 62
   151
100
AcDbLine
 10
-253.730326
 20
731.27957
 30
0.0
 11
261.269672
 21
731.27957
 31
0.0
  0
CIRCLE
  5
71
100
AcDbEntity
  8
LY_3
390
0
  6
CENTER
 62
     7
100
AcDbCircle
 10
-253.730326
 20
266.279648
 30
0.0
 40
415.000002
  0
CIRCLE
  5
72
100
AcDbEntity
  8
LY_3
390
0
  6
CONTINUOUS
 62
   151
100
AcDbCircle
 10
-253.730326
 20
266.279648
 30
0.0
 40
269.99985
  0
LINE
  5
74
100
AcDbEntity
  8
LY_3
390
0
  6
DASHED
 62
     7
100
AcDbLine
 10
-73.730326
 20
-424.720276
 30
0.0
 11
-68.730328
 21
-419.720272
 31
0.0
  0
LINE
  5
75
100
AcDbEntity
  8
LY_3
390
0
  6
DASHED
 62
     7
100
AcDbLine
 10
-433.730326
 20
-424.720276
 30
0.0
 11
-438.73033
 21
-419.720272
 31
0.0
  0
LINE
  5
76
100
AcDbEntity
  8
LY_3
390
0
  6
DASHED
 62
     7
100
AcDbLine
 10
-73.730326
 20
-424.720276
 30
0.0
 11
-73.730326
 21
-692.720272
 31
0.0
  0
LINE
  5
77
100
AcDbEntity
  8
LY_3
390
0
  6
DASHED
 62
     7
100
AcDbLine
 10
-433.730326
 20
-424.720276
 30
0.0
 11
-433.730326
 21
-692.720272
 31
0.0
  0
ARC
  5
78
100
AcDbEntity
  8
LY_3
390
0
  6
CONTINUOUS
 62
   151
100
AcDbCircle
 10
-215.930326
 20
459.479648
 30
0.0
 40
2.200002
100
AcDbArc
 50
0.0
 51
90.0
  0
ARC
  5
79
100
AcDbEntity
  8
LY_3
390
0
  6
CONTINUOUS
 62
   151
100
AcDbCircle
 10
-291.530326
 20
459.479648
 30
0.0
 40
2.200002
100
AcDbArc
 50
90.0
 51
180.0
  0
LINE
  5
7A
100
AcDbEntity
  8
LY_3
390
0
  6
CONTINUOUS
 62
   151
100
AcDbLine
 10
-213.73033
 20
459.479648
 30
0.0
 11
-213.73033
 21
441.778934
 31
0.0
  0
LINE
  5
7B
100
AcDbEntity
  8
LY_3
390
0
  6
CONTINUOUS
 62
   151
100
AcDbLine
 10
-293.730328
 20
459.479648
 30
0.0
 11
-293.730328
 21
441.778934
 31
0.0
  0
LINE
  5
7C
100
AcDbEntity
  8
LY_3
390
0
  6
CONTINUOUS
 62
   151
100
AcDbLine
 10
-291.530326
 20
461.679644
 30
0.0
 11
-215.930326
 21
461.679644
 31
0.0
  0
ARC
  5
7D
100
AcDbEntity
  8
LY_3
390
0
  6
CONTINUOUS
 62
   151
100
AcDbCircle
 10
-253.730326
 20
266.279648
 30
0.0
 40
180.0
100
AcDbArc
 50
102.839588
 51
77.160412
  0
LINE
  5
7E
100
AcDbEntity
  8
LY_3
390
0
  6
CONTINUOUS
 62
   151
100
AcDbLine
 10
331.269674
 20
-704.720272
 30
0.0
 11
-718.730254
 21
-704.720272
 31
0.0
  0
LINE
  5
7F
100
AcDbEntity
  8
LY_3
390
0
  6
CONTINUOUS
 62
   151
100
AcDbLine
 10
-714.729916
 20
-672.720292
 30
0.0
 11
-718.730032
 21
-668.720248
 31
0.0
  0
LINE
  5
80
100
AcDbEntity
  8
LY_3
390
0
  6
CONTINUOUS
 62
   151
100
AcDbLine
 10
-718.730254
 20
-704.720272
 30
0.0
 11
-718.730254
 21
-672.720274
 31
0.0
  0
LINE
  5
81
100
AcDbEntity
  8
LY_3
390
0
  6
CONTINUOUS
 62
   151
100
AcDbLine
 10
-133.730326
 20
-444.720274
 30
0.0
 11
-718.730254
 21
-444.720274
 31
0.0
  0
LINE
  5
82
100
AcDbEntity
  8
LY_3
390
0
  6
CONTINUOUS
 62
   151
100
AcDbLine
 10
-718.730254
 20
-412.720276
 30
0.0
 11
-718.730254
 21
-444.720274
 31
0.0
  0
LINE
  5
83
100
AcDbEntity
  8
LY_3
390
0
  6
CONTINUOUS
 62
   151
100
AcDbLine
 10
331.269674
 20
-412.720276
 30
0.0
 11
-718.730254
 21
-412.720276
 31
0.0
  0
ARC
  5
84
100
AcDbEntity
  8
LY_3
390
0
  6
CONTINUOUS
 62
   151
100
AcDbCircle
 10
-253.730326
 20
266.279648
 30
0.0
 40
464.999922
100
AcDbArc
 50
90.0
 51
270.0
  0
LINE
  5
85
100
AcDbEntity
  8
LY_3
390
0
  6
CENTER
 62
     7
100
AcDbLine
 10
-616.334566
 20
628.883888
 30
0.0
 11
-494.115952
 21
506.665346
 31
0.0
  0
LINE
  5
86
100
AcDbEntity
  8
LY_3
390
0
  6
CENTER
 62
     7
100
AcDbLine
 10
-748.730248
 20
266.279648
 30
0.0
 11
2316.269672
 21
266.279648
 31
0.0
  0
LINE
  5
87
100
AcDbEntity
  8
LY_3
390
0
  6
CONTINUOUS
 62
   151
100
AcDbLine
 10
-714.729916
 20
-444.720262
 30
0.0
 11
-718.730032
 21
-448.7203
 31
0.0
  0
LINE
  5
88
100
AcDbEntity
  8
LY_3
390
0
  6
CONTINUOUS
 62
   151
100
AcDbLine
 10
-718.730254
 20
-668.720248
 30
0.0
 11
-718.730254
 21
-448.7203
 31
0.0
  0
LINE
  5
89
100
AcDbEntity
  8
LY_3
390
0
  6
CENTER
 62
     7
100
AcDbLine
 10
-253.730326
 20
-738.720274
 30
0.0
 11
-253.730326
 21
-378.720274
 31
0.0
  0
LINE
  5
8A
100
AcDbEntity
  8
LY_3
390
0
  6
CONTINUOUS
 62
   151
100
AcDbLine
 10
331.269674
 20
-128.720356
 30
0.0
 11
331.269674
 21
661.279646
 31
0.0
  0
LINE
  5
8B
100
AcDbEntity
  8
LY_3
390
0
  6
CONTINUOUS
 62
   151
100
AcDbLine
 10
364.126898
 20
731.27957
 30
0.0
 11
261.269672
 21
731.27957
 31
0.0
  0
LINE
  5
8C
100
AcDbEntity
  8
LY_3
390
0
  6
CENTER
 62
     7
100
AcDbLine
 10
261.269672
 20
-738.720274
 30
0.0
 11
261.269672
 21
-378.720274
 31
0.0
  0
LINE
  5
8D
100
AcDbEntity
  8
LY_3
390
0
  6
CONTINUOUS
 62
   151
100
AcDbLine
 10
223.269674
 20
-706.653286
 30
0.0
 11
223.269674
 21
-704.720272
 31
0.0
  0
LINE
  5
8E
100
AcDbEntity
  8
LY_3
390
0
  6
CONTINUOUS
 62
   151
100
AcDbLine
 10
299.26967
 20
-706.653286
 30
0.0
 11
299.26967
 21
-704.720272
 31
0.0
  0
LINE
  5
8F
100
AcDbEntity
  8
LY_3
390
0
  6
CONTINUOUS
 62
   151
100
AcDbLine
 10
331.269674
 20
-704.720272
 30
0.0
 11
331.269674
 21
-623.720272
 31
0.0
  0
LINE
  5
90
100
AcDbEntity
  8
LY_3
390
0
  6
CONTINUOUS
 62
   151
100
AcDbLine
 10
191.26967
 20
-642.720274
 30
0.0
 11
191.26967
 21
-623.720272
 31
0.0
  0
LINE
  5
91
100
AcDbEntity
  8
LY_3
390
0
  6
CONTINUOUS
 62
   151
100
AcDbLine
 10
191.26967
 20
-618.72028
 30
0.0
 11
191.26967
 21
-498.72028
 31
0.0
  0
LINE
  5
92
100
AcDbEntity
  8
LY_3
390
0
  6
CONTINUOUS
 62
   151
100
AcDbLine
 10
586.269674
 20
-498.72028
 30
0.0
 11
191.26967
 21
-498.72028
 31
0.0
  0
LINE
  5
93
100
AcDbEntity
  8
LY_3
390
0
  6
CONTINUOUS
 62
   151
100
AcDbLine
 10
2286.269672
 20
-634.920274
 30
0.0
 11
2286.269672
 21
-482.520274
 31
0.0
  0
LINE
  5
94
100
AcDbEntity
  8
LY_3
390
0
  6
CONTINUOUS
 62
   151
100
AcDbLine
 10
331.269674
 20
-623.720272
 30
0.0
 11
191.26967
 21
-623.720272
 31
0.0
  0
LINE
  5
95
100
AcDbEntity
  8
LY_3
390
0
  6
CONTINUOUS
 62
   151
100
AcDbLine
 10
191.26967
 20
-493.720276
 30
0.0
 11
191.26967
 21
-474.720274
 31
0.0
  0
LINE
  5
96
100
AcDbEntity
  8
LY_3
390
0
  6
CONTINUOUS
 62
   151
100
AcDbLine
 10
331.269674
 20
-493.720276
 30
0.0
 11
331.269674
 21
-412.720276
 31
0.0
  0
LINE
  5
97
100
AcDbEntity
  8
LY_3
390
0
  6
CONTINUOUS
 62
   151
100
AcDbLine
 10
295.500434
 20
-396.720274
 30
0.0
 11
227.03891
 21
-396.720274
 31
0.0
  0
LINE
  5
98
100
AcDbEntity
  8
LY_3
390
0
  6
CONTINUOUS
 62
   151
100
AcDbLine
 10
295.500434
 20
-720.720274
 30
0.0
 11
227.03891
 21
-720.720274
 31
0.0
  0
CIRCLE
  5
99
100
AcDbEntity
  8
LY_3
390
0
  6
CONTINUOUS
 62
   151
100
AcDbCircle
 10
261.269672
 20
-406.720276
 30
0.0
 40
4.000002
  0
LINE
  5
9A
100
AcDbEntity
  8
LY_3
390
0
  6
CENTER
 62
     7
100
AcDbLine
 10
247.269674
 20
-406.720276
 30
0.0
 11
275.26967
 21
-406.720276
 31
0.0
  0
CIRCLE
  5
9B
100
AcDbEntity
  8
LY_3
390
0
  6
CONTINUOUS
 62
   151
100
AcDbCircle
 10
261.269672
 20
-710.720272
 30
0.0
 40
4.000002
  0
LINE
  5
9C
100
AcDbEntity
  8
LY_3
390
0
  6
CENTER
 62
     7
100
AcDbLine
 10
247.269674
 20
-710.720272
 30
0.0
 11
275.26967
 21
-710.720272
 31
0.0
  0
ARC
  5
9D
100
AcDbEntity
  8
LY_3
390
0
  6
CONTINUOUS
 62
   151
100
AcDbCircle
 10
261.269672
 20
713.279648
 30
0.0
 40
3.499998
100
AcDbArc
 50
282.839588
 51
257.160412
  0
ARC
  5
9E
100
AcDbEntity
  8
LY_3
390
0
  6
CONTINUOUS
 62
   151
100
AcDbCircle
 10
261.269672
 20
713.279648
 30
0.0
 40
7.5
100
AcDbArc
 50
314.07921
 51
225.92079
  0
ARC
  5
9F
100
AcDbEntity
  8
LY_3
390
0
  6
CONTINUOUS
 62
   151
100
AcDbCircle
 10
260.26967
 20
708.892166
 30
0.0
 40
1.000002
100
AcDbArc
 50
0.0
 51
77.160412
  0
LINE
  5
A0
100
AcDbEntity
  8
LY_3
390
0
  6
CONTINUOUS
 62
   151
100
AcDbLine
 10
257.26967
 20
699.068534
 30
0.0
 11
257.26967
 21
705.01829
 31
0.0
  0
ARC
  5
A1
100
AcDbEntity
  8
LY_3
390
0
  6
CONTINUOUS
 62
   151
100
AcDbCircle
 10
253.269674
 20
705.01829
 30
0.0
 40
4.000002
100
AcDbArc
 50
0.0
 51
45.92079
  0
ARC
  5
A2
100
AcDbEntity
  8
LY_3
390
0
  6
CONTINUOUS
 62
   151
100
AcDbCircle
 10
262.269674
 20
708.892166
 30
0.0
 40
1.000002
100
AcDbArc
 50
102.839588
 51
180.0
  0
LINE
  5
A3
100
AcDbEntity
  8
LY_3
390
0
  6
CONTINUOUS
 62
   151
100
AcDbLine
 10
261.269672
 20
699.279644
 30
0.0
 11
261.269672
 21
708.892166
 31
0.0
  0
ARC
  5
A4
100
AcDbEntity
  8
LY_3
390
0
  6
CONTINUOUS
 62
   151
100
AcDbCircle
 10
269.26967
 20
705.01829
 30
0.0
 40
4.000002
100
AcDbArc
 50
134.07921
 51
180.0
  0
LINE
  5
A5
100
AcDbEntity
  8
LY_3
390
0
  6
CONTINUOUS
 62
   151
100
AcDbLine
 10
265.269674
 20
699.068534
 30
0.0
 11
265.269674
 21
705.01829
 31
0.0
  0
LINE
  5
A6
100
AcDbEntity
  8
LY_3
390
0
  6
CONTINUOUS
 62
   151
100
AcDbLine
 10
260.717684
 20
617.138054
 30
0.0
 11
247.922408
 21
594.97598
 31
0.0
  0
LINE
  5
A7
100
AcDbEntity
  8
LY_3
390
0
  6
CONTINUOUS
 62
   151
100
AcDbLine
 10
244.458302
 20
596.975978
 30
0.0
 11
247.922408
 21
594.97598
 31
0.0
  0
ARC
  5
A8
100
AcDbEntity
  8
LY_3
390
0
  6
CONTINUOUS
 62
   151
100
AcDbCircle
 10
255.25358
 20
619.673948
 30
0.0
 40
1.999998
100
AcDbArc
 50
330.0
 51
0.0
  0
LINE
  5
A9
100
AcDbEntity
  8
LY_3
390
0
  6
CONTINUOUS
 62
   151
100
AcDbLine
 10
256.985636
 20
618.673952
 30
0.0
 11
244.458302
 21
596.975978
 31
0.0
  0
ARC
  5
AA
100
AcDbEntity
  8
LY_3
390
0
  6
CONTINUOUS
 62
   151
100
AcDbCircle
 10
257.253584
 20
619.138052
 30
0.0
 40
4.000002
100
AcDbArc
 50
330.0
 51
354.859341
  0
ARC
  5
AB
100
AcDbEntity
  8
LY_3
390
0
  6
CONTINUOUS
 62
   151
100
AcDbCircle
 10
265.253582
 20
619.138052
 30
0.0
 40
4.000002
100
AcDbArc
 50
185.140659
 51
210.0
  0
LINE
  5
AC
100
AcDbEntity
  8
LY_3
390
0
  6
CONTINUOUS
 62
   151
100
AcDbLine
 10
278.048864
 20
596.975978
 30
0.0
 11
274.584758
 21
594.97598
 31
0.0
  0
ARC
  5
AD
100
AcDbEntity
  8
LY_3
390
0
  6
CONTINUOUS
 62
   151
100
AcDbCircle
 10
267.25358
 20
619.673948
 30
0.0
 40
1.999998
100
AcDbArc
 50
180.0
 51
210.0
  0
LINE
  5
AE
100
AcDbEntity
  8
LY_3
390
0
  6
CONTINUOUS
 62
   151
100
AcDbLine
 10
265.52153
 20
618.673952
 30
0.0
 11
278.048864
 21
596.975978
 31
0.0
  0
LINE
  5
AF
100
AcDbEntity
  8
LY_3
390
0
  6
CONTINUOUS
 62
   151
100
AcDbLine
 10
261.789482
 20
617.138054
 30
0.0
 11
274.584758
 21
594.97598
 31
0.0
  0
LINE
  5
B0
100
AcDbEntity
  8
LY_3
390
0
  6
CENTER
 62
     7
100
AcDbLine
 10
-771.530164
 20
-558.72028
 30
0.0
 11
-703.730254
 21
-558.72028
 31
0.0
  0
LINE
  5
B1
100
AcDbEntity
  8
LY_3
390
0
  6
CONTINUOUS
 62
   151
100
AcDbLine
 10
331.269674
 20
-493.720276
 30
0.0
 11
191.26967
 21
-493.720276
 31
0.0
  0
LINE
  5
B2
100
AcDbEntity
  8
LY_3
390
0
  6
DASHED
 62
     7
100
AcDbLine
 10
13.931444
 20
-415.720276
 30
0.0
 11
-521.210116
 21
-415.720276
 31
0.0
  0
LINE
  5
B3
100
AcDbEntity
  8
LY_3
390
0
  6
DASHED
 62
     7
100
AcDbLine
 10
13.931444
 20
-701.720272
 30
0.0
 11
-521.392102
 21
-701.720272
 31
0.0
  0
LINE
  5
B4
100
AcDbEntity
  8
LY_3
390
0
  6
DASHED
 62
     7
100
AcDbLine
 10
-73.730326
 20
-692.720272
 30
0.0
 11
-433.730326
 21
-692.720272
 31
0.0
  0
LINE
  5
B5
100
AcDbEntity
  8
LY_3
390
0
  6
DASHED
 62
     7
100
AcDbLine
 10
-433.730326
 20
-692.720272
 30
0.0
 11
-438.73033
 21
-697.720276
 31
0.0
  0
LINE
  5
B6
100
AcDbEntity
  8
LY_3
390
0
  6
DASHED
 62
     7
100
AcDbLine
 10
-73.730326
 20
-692.720272
 30
0.0
 11
-68.730328
 21
-697.720276
 31
0.0
  0
CIRCLE
  5
B7
100
AcDbEntity
  8
LY_3
390
0
  6
CONTINUOUS
 62
   151
100
AcDbCircle
 10
-253.730326
 20
266.279648
 30
0.0
 40
244.999848
  0
LINE
  5
B8
100
AcDbEntity
  8
LY_3
390
0
  6
DASHED
 62
     7
100
AcDbLine
 10
-498.730174
 20
-416.220274
 30
0.0
 11
-498.730174
 21
-418.920274
 31
0.0
  0
LINE
  5
B9
100
AcDbEntity
  8
LY_3
390
0
  6
DASHED
 62
     7
100
AcDbLine
 10
-498.730174
 20
-698.520274
 30
0.0
 11
-498.730174
 21
-701.220274
 31
0.0
  0
LINE
  5
BA
100
AcDbEntity
  8
LY_3
390
0
  6
DASHED
 62
     7
100
AcDbLine
 10
-9.530482
 20
-697.720276
 30
0.0
 11
-497.930176
 21
-697.720276
 31
0.0
  0
LINE
  5
BB
100
AcDbEntity
  8
LY_3
390
0
  6
DASHED
 62
     7
100
AcDbLine
 10
-8.730478
 20
-698.520274
 30
0.0
 11
-8.730478
 21
-701.220274
 31
0.0
  0
LINE
  5
BC
100
AcDbEntity
  8
LY_3
390
0
  6
DASHED
 62
     7
100
AcDbLine
 10
-8.730478
 20
-416.220274
 30
0.0
 11
-8.730478
 21
-418.920274
 31
0.0
  0
ARC
  5
BD
100
AcDbEntity
  8
LY_3
390
0
  6
DASHED
 62
     7
100
AcDbCircle
 10
-497.930176
 20
-698.520274
 30
0.0
 40
0.799998
100
AcDbArc
 50
90.0
 51
180.0
  0
ARC
  5
BE
100
AcDbEntity
  8
LY_3
390
0
  6
DASHED
 62
     7
100
AcDbCircle
 10
-497.930176
 20
-418.920274
 30
0.0
 40
0.799998
100
AcDbArc
 50
180.0
 51
270.0
  0
ARC
  5
BF
100
AcDbEntity
  8
LY_3
390
0
  6
DASHED
 62
     7
100
AcDbCircle
 10
-9.530482
 20
-698.520274
 30
0.0
 40
0.799998
100
AcDbArc
 50
0.0
 51
90.0
  0
ARC
  5
C0
100
AcDbEntity
  8
LY_3
390
0
  6
DASHED
 62
     7
100
AcDbCircle
 10
-9.530482
 20
-418.920274
 30
0.0
 40
0.799998
100
AcDbArc
 50
270.0
 51
0.0
  0
LINE
  5
C1
100
AcDbEntity
  8
LY_3
390
0
  6
DASHED
 62
     7
100
AcDbLine
 10
-8.23048
 20
-701.720272
 30
0.0
 11
-8.730478
 21
-701.220274
 31
0.0
  0
LINE
  5
C2
100
AcDbEntity
  8
LY_3
390
0
  6
DASHED
 62
     7
100
AcDbLine
 10
-8.23048
 20
-415.720276
 30
0.0
 11
-8.730478
 21
-416.220274
 31
0.0
  0
LINE
  5
C3
100
AcDbEntity
  8
LY_3
390
0
  6
DASHED
 62
     7
100
AcDbLine
 10
-499.230178
 20
-701.720272
 30
0.0
 11
-498.730174
 21
-701.220274
 31
0.0
  0
LINE
  5
C4
100
AcDbEntity
  8
LY_3
390
0
  6
DASHED
 62
     7
100
AcDbLine
 10
-499.230178
 20
-415.720276
 30
0.0
 11
-498.730174
 21
-416.220274
 31
0.0
  0
LINE
  5
C5
100
AcDbEntity
  8
LY_3
390
0
  6
PHANTOM
 62
     7
100
AcDbLine
 10
-720.530164
 20
-572.155282
 30
0.0
 11
-720.530164
 21
-545.285278
 31
0.0
  0
LINE
  5
C6
100
AcDbEntity
  8
LY_3
390
0
  6
PHANTOM
 62
     7
100
AcDbLine
 10
-718.730254
 20
-565.220242
 30
0.0
 11
-720.530158
 21
-565.220248
 31
0.0
  0
LINE
  5
C7
100
AcDbEntity
  8
LY_3
390
0
  6
PHANTOM
 62
     7
100
AcDbLine
 10
-718.730254
 20
-564.22024
 30
0.0
 11
-720.530158
 21
-564.220246
 31
0.0
  0
LINE
  5
C8
100
AcDbEntity
  8
LY_3
390
0
  6
PHANTOM
 62
     7
100
AcDbLine
 10
-730.530166
 20
-580.720282
 30
0.0
 11
-730.530166
 21
-536.720278
 31
0.0
  0
LINE
  5
C9
100
AcDbEntity
  8
LY_3
390
0
  6
PHANTOM
 62
     7
100
AcDbLine
 10
-756.530164
 20
-580.720282
 30
0.0
 11
-756.530164
 21
-536.720278
 31
0.0
  0
LINE
  5
CA
100
AcDbEntity
  8
LY_3
390
0
  6
PHANTOM
 62
     7
100
AcDbLine
 10
-730.53016
 20
-572.155282
 30
0.0
 11
-720.530158
 21
-558.72028
 31
0.0
  0
LINE
  5
CB
100
AcDbEntity
  8
LY_3
390
0
  6
PHANTOM
 62
     7
100
AcDbLine
 10
-720.530164
 20
-572.155282
 30
0.0
 11
-730.53016
 21
-558.72028
 31
0.0
  0
LINE
  5
CC
100
AcDbEntity
  8
LY_3
390
0
  6
PHANTOM
 62
     7
100
AcDbLine
 10
-756.530164
 20
-580.720282
 30
0.0
 11
-730.530166
 21
-580.720282
 31
0.0
  0
LINE
  5
CD
100
AcDbEntity
  8
LY_3
390
0
  6
PHANTOM
 62
     7
100
AcDbLine
 10
-730.53016
 20
-572.155282
 30
0.0
 11
-720.530164
 21
-572.155282
 31
0.0
  0
LINE
  5
CE
100
AcDbEntity
  8
LY_3
390
0
  6
PHANTOM
 62
     7
100
AcDbLine
 10
-730.53016
 20
-558.72028
 30
0.0
 11
-720.530158
 21
-558.72028
 31
0.0
  0
LINE
  5
CF
100
AcDbEntity
  8
LY_3
390
0
  6
PHANTOM
 62
     7
100
AcDbLine
 10
-718.730254
 20
-552.220246
 30
0.0
 11
-720.530176
 21
-552.220246
 31
0.0
  0
LINE
  5
D0
100
AcDbEntity
  8
LY_3
390
0
  6
PHANTOM
 62
     7
100
AcDbLine
 10
-718.730254
 20
-553.220242
 30
0.0
 11
-720.530176
 21
-553.220248
 31
0.0
  0
LINE
  5
D1
100
AcDbEntity
  8
LY_3
390
0
  6
PHANTOM
 62
     7
100
AcDbLine
 10
-730.53016
 20
-545.285278
 30
0.0
 11
-720.530158
 21
-558.72028
 31
0.0
  0
LINE
  5
D2
100
AcDbEntity
  8
LY_3
390
0
  6
PHANTOM
 62
     7
100
AcDbLine
 10
-720.530164
 20
-545.285278
 30
0.0
 11
-730.53016
 21
-558.72028
 31
0.0
  0
LINE
  5
D3
100
AcDbEntity
  8
LY_3
390
0
  6
PHANTOM
 62
     7
100
AcDbLine
 10
-756.530164
 20
-536.720278
 30
0.0
 11
-730.530166
 21
-536.720278
 31
0.0
  0
LINE
  5
D4
100
AcDbEntity
  8
LY_3
390
0
  6
PHANTOM
 62
     7
100
AcDbLine
 10
-730.53016
 20
-545.285278
 30
0.0
 11
-720.530164
 21
-545.285278
 31
0.0
  0
LINE
  5
D5
100
AcDbEntity
  8
LY_3
390
0
  6
CONTINUOUS
 62
   151
100
AcDbLine
 10
-593.307634
 20
586.856996
 30
0.0
 11
-574.307674
 21
605.856956
 31
0.0
  0
LINE
  5
D6
100
AcDbEntity
  8
LY_3
390
0
  6
CONTINUOUS
 62
   151
100
AcDbLine
 10
-586.988692
 20
590.345684
 30
0.0
 11
-588.403822
 21
591.760808
 31
0.0
  0
LINE
  5
D7
100
AcDbEntity
  8
LY_3
390
0
  6
CONTINUOUS
 62
     7
100
AcDbLine
 10
-586.322056
 20
591.09326
 30
0.0
 11
-587.696716
 21
592.467914
 31
0.0
  0
LINE
  5
D8
100
AcDbEntity
  8
LY_3
390
0
  6
CONTINUOUS
 62
   151
100
AcDbLine
 10
-606.43507
 20
587.871698
 30
0.0
 11
-575.322376
 21
618.984392
 31
0.0
  0
LINE
  5
D9
100
AcDbEntity
  8
LY_3
390
0
  6
CONTINUOUS
 62
   151
100
AcDbLine
 10
-624.81985
 20
606.256472
 30
0.0
 11
-593.70715
 21
637.369172
 31
0.0
  0
LINE
  5
DA
100
AcDbEntity
  8
LY_3
390
0
  6
CONTINUOUS
 62
     7
100
AcDbLine
 10
-600.3787
 20
593.928062
 30
0.0
 11
-583.807648
 21
596.35697
 31
0.0
  0
LINE
  5
DB
100
AcDbEntity
  8
LY_3
390
0
  6
CONTINUOUS
 62
     7
100
AcDbLine
 10
-593.307634
 20
586.856996
 30
0.0
 11
-590.87872
 21
603.428042
 31
0.0
  0
LINE
  5
DC
100
AcDbEntity
  8
LY_3
390
0
  6
CONTINUOUS
 62
   151
100
AcDbLine
 10
-600.3787
 20
593.928062
 30
0.0
 11
-593.307634
 21
586.856996
 31
0.0
  0
LINE
  5
DD
100
AcDbEntity
  8
LY_3
390
0
  6
CONTINUOUS
 62
   151
100
AcDbLine
 10
-624.81985
 20
606.256472
 30
0.0
 11
-606.43507
 21
587.871698
 31
0.0
  0
LINE
  5
DE
100
AcDbEntity
  8
LY_3
390
0
  6
CONTINUOUS
 62
   151
100
AcDbLine
 10
-577.79632
 20
599.53808
 30
0.0
 11
-579.211444
 21
600.953204
 31
0.0
  0
LINE
  5
DF
100
AcDbEntity
  8
LY_3
390
0
  6
CONTINUOUS
 62
     7
100
AcDbLine
 10
-578.543896
 20
598.871444
 30
0.0
 11
-579.91855
 21
600.246098
 31
0.0
  0
LINE
  5
E0
100
AcDbEntity
  8
LY_3
390
0
  6
CONTINUOUS
 62
     7
100
AcDbLine
 10
-581.37874
 20
612.928022
 30
0.0
 11
-583.807648
 21
596.35697
 31
0.0
  0
LINE
  5
E1
100
AcDbEntity
  8
LY_3
390
0
  6
CONTINUOUS
 62
     7
100
AcDbLine
 10
-574.307674
 20
605.856956
 30
0.0
 11
-590.87872
 21
603.428042
 31
0.0
  0
LINE
  5
E2
100
AcDbEntity
  8
LY_3
390
0
  6
CONTINUOUS
 62
   151
100
AcDbLine
 10
-581.37874
 20
612.928022
 30
0.0
 11
-574.307674
 21
605.856956
 31
0.0
  0
LINE
  5
E3
100
AcDbEntity
  8
LY_3
390
0
  6
CONTINUOUS
 62
   151
100
AcDbLine
 10
-593.70715
 20
637.369172
 30
0.0
 11
-575.322376
 21
618.984392
 31
0.0
  0
LINE
  5
E4
100
AcDbEntity
  8
LY_3
390
0
  6
CONTINUOUS
 62
   151
100
AcDbLine
 10
-590.87872
 20
603.428042
 30
0.0
 11
-583.807648
 21
596.35697
 31
0.0
  0
CIRCLE
  5
E5
100
AcDbEntity
  8
LY_3
390
0
  6
CONTINUOUS
 62
   151
100
AcDbCircle
 10
-668.730328
 20
266.279648
 30
0.0
 40
13.350006
  0
CIRCLE
  5
E6
100
AcDbEntity
  8
LY_3
390
0
  6
CONTINUOUS
 62
     7
100
AcDbCircle
 10
-668.730328
 20
266.279648
 30
0.0
 40
15.0
  0
LINE
  5
E7
100
AcDbEntity
  8
LY_3
390
0
  6
CENTER
 62
     7
100
AcDbLine
 10
-31.230328
 20
-119.10166
 30
0.0
 11
-61.230328
 21
-67.140136
 31
0.0
  0
CIRCLE
  5
E8
100
AcDbEntity
  8
LY_3
390
0
  6
CONTINUOUS
 62
   151
100
AcDbCircle
 10
-46.230328
 20
-93.120898
 30
0.0
 40
13.350006
  0
CIRCLE
  5
E9
100
AcDbEntity
  8
LY_3
390
0
  6
CONTINUOUS
 62
     7
100
AcDbCircle
 10
-46.230328
 20
-93.120898
 30
0.0
 40
15.0
  0
LINE
  5
EA
100
AcDbEntity
  8
LY_3
390
0
  6
CENTER
 62
     7
100
AcDbLine
 10
-31.230328
 20
651.66095
 30
0.0
 11
-61.230328
 21
599.699426
 31
0.0
  0
CIRCLE
  5
EB
100
AcDbEntity
  8
LY_3
390
0
  6
CONTINUOUS
 62
   151
100
AcDbCircle
 10
-46.230328
 20
625.680188
 30
0.0
 40
13.350006
  0
CIRCLE
  5
EC
100
AcDbEntity
  8
LY_3
390
0
  6
CONTINUOUS
 62
     7
100
AcDbCircle
 10
-46.230328
 20
625.680188
 30
0.0
 40
15.0
  0
LINE
  5
ED
100
AcDbEntity
  8
LY_3
390
0
  6
CONTINUOUS
 62
   151
100
AcDbLine
 10
331.269674
 20
494.879648
 30
0.0
 11
2286.269672
 21
494.879648
 31
0.0
  0
LINE
  5
EE
100
AcDbEntity
  8
LY_3
390
0
  6
CONTINUOUS
 62
   151
100
AcDbLine
 10
331.269674
 20
37.679648
 30
0.0
 11
2286.269672
 21
37.679648
 31
0.0
  0
LINE
  5
EF
100
AcDbEntity
  8
LY_3
390
0
  6
CONTINUOUS
 62
   151
100
AcDbLine
 10
331.269674
 20
-634.920274
 30
0.0
 11
2286.269672
 21
-634.920274
 31
0.0
  0
CIRCLE
  5
F0
100
AcDbEntity
  8
LY_3
390
0
  6
CONTINUOUS
 62
   151
100
AcDbCircle
 10
-253.730326
 20
53.779646
 30
0.0
 40
10.59999
  0
CIRCLE
  5
F1
100
AcDbEntity
  8
LY_3
390
0
  6
CONTINUOUS
 62
     7
100
AcDbCircle
 10
-253.730326
 20
53.779646
 30
0.0
 40
12.0
  0
ARC
  5
F2
100
AcDbEntity
  8
LY_3
390
0
  6
CENTER
 62
     7
100
AcDbCircle
 10
-253.730326
 20
266.279648
 30
0.0
 40
212.500002
100
AcDbArc
 50
260.054207
 51
279.945793
  0
CIRCLE
  5
F3
100
AcDbEntity
  8
LY_3
390
0
  6
CONTINUOUS
 62
   151
100
AcDbCircle
 10
-69.699928
 20
372.529646
 30
0.0
 40
10.59999
  0
CIRCLE
  5
F4
100
AcDbEntity
  8
LY_3
390
0
  6
CONTINUOUS
 62
     7
100
AcDbCircle
 10
-69.699928
 20
372.529646
 30
0.0
 40
12.0
  0
ARC
  5
F5
100
AcDbEntity
  8
LY_3
390
0
  6
CENTER
 62
     7
100
AcDbCircle
 10
-253.730326
 20
266.279648
 30
0.0
 40
212.500002
100
AcDbArc
 50
18.618453
 51
39.945793
  0
LINE
  5
F6
100
AcDbEntity
  8
LY_3
390
0
  6
CENTER
 62
     7
100
AcDbLine
 10
-37.656988
 20
391.029644
 30
0.0
 11
-101.742868
 21
354.029648
 31
0.0
  0
CIRCLE
  5
F7
100
AcDbEntity
  8
LY_3
390
0
  6
CONTINUOUS
 62
   151
100
AcDbCircle
 10
-437.760724
 20
372.529646
 30
0.0
 40
10.59999
  0
CIRCLE
  5
F8
100
AcDbEntity
  8
LY_3
390
0
  6
CONTINUOUS
 62
     7
100
AcDbCircle
 10
-437.760724
 20
372.529646
 30
0.0
 40
12.0
  0
ARC
  5
F9
100
AcDbEntity
  8
LY_3
390
0
  6
CENTER
 62
     7
100
AcDbCircle
 10
-253.730326
 20
266.279648
 30
0.0
 40
212.500002
100
AcDbArc
 50
140.054207
 51
160.486983
  0
LINE
  5
FA
100
AcDbEntity
  8
LY_3
390
0
  6
CENTER
 62
     7
100
AcDbLine
 10
-469.803664
 20
391.029644
 30
0.0
 11
-405.717784
 21
354.029648
 31
0.0
  0
LINE
  5
FB
100
AcDbEntity
  8
LY_3
390
0
  6
CONTINUOUS
 62
   151
100
AcDbLine
 10
586.269674
 20
494.879648
 30
0.0
 11
586.269674
 21
544.879646
 31
0.0
  0
LINE
  5
FC
100
AcDbEntity
  8
LY_3
390
0
  6
CONTINUOUS
 62
   151
100
AcDbLine
 10
586.269674
 20
544.879646
 30
0.0
 11
364.126898
 21
731.27957
 31
0.0
  0
LINE
  5
FD
100
AcDbEntity
  8
LY_3
390
0
  6
CONTINUOUS
 62
   151
100
AcDbLine
 10
331.269674
 20
-482.520274
 30
0.0
 11
2286.269672
 21
-482.520274
 31
0.0
  0
LINE
  5
FE
100
AcDbEntity
  8
LY_3
390
0
  6
CONTINUOUS
 62
   151
100
AcDbLine
 10
586.269674
 20
-498.72028
 30
0.0
 11
586.269674
 21
-618.72028
 31
0.0
  0
LINE
  5
FF
100
AcDbEntity
  8
LY_3
390
0
  6
CONTINUOUS
 62
   151
100
AcDbLine
 10
586.269674
 20
-618.72028
 30
0.0
 11
191.26967
 21
-618.72028
 31
0.0
  0
LINE
  5
100
100
AcDbEntity
  8
LY_3
390
0
  6
CONTINUOUS
 62
   151
100
AcDbLine
 10
586.269674
 20
37.679648
 30
0.0
 11
586.269674
 21
-12.320356
 31
0.0
  0
LINE
  5
101
100
AcDbEntity
  8
LY_3
390
0
  6
CONTINUOUS
 62
   151
100
AcDbLine
 10
586.269674
 20
-12.320356
 30
0.0
 11
364.126898
 21
-198.720274
 31
0.0
  0
LINE
  5
102
100
AcDbEntity
  8
LY_3
390
0
  6
CONTINUOUS
 62
   151
100
AcDbLine
 10
364.126898
 20
-198.720274
 30
0.0
 11
261.269672
 21
-198.720274
 31
0.0
  0
LINE
  5
103
100
AcDbEntity
  8
LY_3
390
0
  6
CONTINUOUS
 62
   151
100
AcDbLine
 10
2286.269672
 20
494.779646
 30
0.0
 11
2286.269672
 21
37.779644
 31
0.0
  0
LINE
  5
104
100
AcDbEntity
  8
LY_3
390
0
  6
CONTINUOUS
 62
   151
100
AcDbLine
 10
331.269674
 20
477.328244
 30
0.0
 11
2286.269672
 21
477.328244
 31
0.0
  0
LINE
  5
105
100
AcDbEntity
  8
LY_3
390
0
  6
CONTINUOUS
 62
   151
100
AcDbLine
 10
331.269674
 20
55.231046
 30
0.0
 11
2286.269672
 21
55.231046
 31
0.0
  0
CIRCLE
  5
106
100
AcDbEntity
  8
LY_3
390
0
  6
CONTINUOUS
 62
   151
100
AcDbCircle
 10
261.269672
 20
661.279646
 30
0.0
 40
37.999998
  0
LINE
  5
107
100
AcDbEntity
  8
LY_3
390
0
  6
CONTINUOUS
 62
   151
100
AcDbLine
 10
261.269672
 20
623.279648
 30
0.0
 11
261.269672
 21
618.779648
 31
0.0
  0
LINE
  5
108
100
AcDbEntity
  8
LY_3
390
0
  6
CONTINUOUS
 62
   151
100
AcDbLine
 10
265.253582
 20
619.673948
 30
0.0
 11
265.253582
 21
623.48906
 31
0.0
  0
LINE
  5
109
100
AcDbEntity
  8
LY_3
390
0
  6
CONTINUOUS
 62
   151
100
AcDbLine
 10
257.253584
 20
619.673948
 30
0.0
 11
257.253584
 21
623.492468
 31
0.0
  0
ARC
  5
10A
100
AcDbEntity
  8
LY_3
390
0
  6
CONTINUOUS
 62
   151
100
AcDbCircle
 10
261.269672
 20
-76.720354
 30
0.0
 40
3.499998
100
AcDbArc
 50
282.839588
 51
257.160412
  0
ARC
  5
10B
100
AcDbEntity
  8
LY_3
390
0
  6
CONTINUOUS
 62
   151
100
AcDbCircle
 10
261.269672
 20
-76.720354
 30
0.0
 40
7.5
100
AcDbArc
 50
314.07921
 51
225.92079
  0
LINE
  5
10C
100
AcDbEntity
  8
LY_3
390
0
  6
CONTINUOUS
 62
   151
100
AcDbLine
 10
257.26967
 20
-90.931468
 30
0.0
 11
257.26967
 21
-84.981706
 31
0.0
  0
ARC
  5
10D
100
AcDbEntity
  8
LY_3
390
0
  6
CONTINUOUS
 62
   151
100
AcDbCircle
 10
262.269674
 20
-81.107836
 30
0.0
 40
1.000002
100
AcDbArc
 50
102.839588
 51
180.0
  0
LINE
  5
10E
100
AcDbEntity
  8
LY_3
390
0
  6
CONTINUOUS
 62
   151
100
AcDbLine
 10
261.269672
 20
-90.720352
 30
0.0
 11
261.269672
 21
-81.107836
 31
0.0
  0
ARC
  5
10F
100
AcDbEntity
  8
LY_3
390
0
  6
CONTINUOUS
 62
   151
100
AcDbCircle
 10
253.269674
 20
-84.981706
 30
0.0
 40
4.000002
100
AcDbArc
 50
0.0
 51
45.92079
  0
ARC
  5
110
100
AcDbEntity
  8
LY_3
390
0
  6
CONTINUOUS
 62
   151
100
AcDbCircle
 10
260.26967
 20
-81.107836
 30
0.0
 40
1.000002
100
AcDbArc
 50
0.0
 51
77.160412
  0
ARC
  5
111
100
AcDbEntity
  8
LY_3
390
0
  6
CONTINUOUS
 62
   151
100
AcDbCircle
 10
269.26967
 20
-84.981706
 30
0.0
 40
4.000002
100
AcDbArc
 50
134.07921
 51
180.0
  0
CIRCLE
  5
112
100
AcDbEntity
  8
LY_3
390
0
  6
CONTINUOUS
 62
   151
100
AcDbCircle
 10
261.269672
 20
-128.720356
 30
0.0
 40
37.999998
  0
LINE
  5
113
100
AcDbEntity
  8
LY_3
390
0
  6
CONTINUOUS
 62
   151
100
AcDbLine
 10
265.269674
 20
-90.931468
 30
0.0
 11
265.269674
 21
-84.981706
 31
0.0
  0
LINE
  5
114
100
AcDbEntity
  8
LY_3
390
0
  6
CONTINUOUS
 62
   151
100
AcDbLine
 10
260.717684
 20
-172.861948
 30
0.0
 11
247.922408
 21
-195.024022
 31
0.0
  0
LINE
  5
115
100
AcDbEntity
  8
LY_3
390
0
  6
CONTINUOUS
 62
   151
100
AcDbLine
 10
256.985636
 20
-171.32605
 30
0.0
 11
244.458302
 21
-193.024024
 31
0.0
  0
LINE
  5
116
100
AcDbEntity
  8
LY_3
390
0
  6
CONTINUOUS
 62
   151
100
AcDbLine
 10
265.52153
 20
-171.32605
 30
0.0
 11
278.048864
 21
-193.024024
 31
0.0
  0
LINE
  5
117
100
AcDbEntity
  8
LY_3
390
0
  6
CONTINUOUS
 62
   151
100
AcDbLine
 10
261.789482
 20
-172.861948
 30
0.0
 11
274.584758
 21
-195.024022
 31
0.0
  0
LINE
  5
118
100
AcDbEntity
  8
LY_3
390
0
  6
CONTINUOUS
 62
   151
100
AcDbLine
 10
257.253584
 20
-170.326048
 30
0.0
 11
257.253584
 21
-166.507534
 31
0.0
  0
LINE
  5
119
100
AcDbEntity
  8
LY_3
390
0
  6
CONTINUOUS
 62
   151
100
AcDbLine
 10
265.253582
 20
-170.326048
 30
0.0
 11
265.253582
 21
-166.510942
 31
0.0
  0
LINE
  5
11A
100
AcDbEntity
  8
LY_3
390
0
  6
CONTINUOUS
 62
   151
100
AcDbLine
 10
261.269672
 20
-166.720354
 30
0.0
 11
261.269672
 21
-171.220354
 31
0.0
  0
ARC
  5
11B
100
AcDbEntity
  8
LY_3
390
0
  6
CONTINUOUS
 62
   151
100
AcDbCircle
 10
267.25358
 20
-170.326048
 30
0.0
 40
1.999998
100
AcDbArc
 50
180.0
 51
210.0
  0
ARC
  5
11C
100
AcDbEntity
  8
LY_3
390
0
  6
CONTINUOUS
 62
   151
100
AcDbCircle
 10
265.253582
 20
-170.86195
 30
0.0
 40
4.000002
100
AcDbArc
 50
185.140659
 51
210.0
  0
ARC
  5
11D
100
AcDbEntity
  8
LY_3
390
0
  6
CONTINUOUS
 62
   151
100
AcDbCircle
 10
257.253584
 20
-170.86195
 30
0.0
 40
4.000002
100
AcDbArc
 50
330.0
 51
354.859341
  0
ARC
  5
11E
100
AcDbEntity
  8
LY_3
390
0
  6
CONTINUOUS
 62
   151
100
AcDbCircle
 10
255.25358
 20
-170.326048
 30
0.0
 40
1.999998
100
AcDbArc
 50
330.0
 51
0.0
  0
LINE
  5
11F
100
AcDbEntity
  8
LY_3
390
0
  6
CONTINUOUS
 62
   151
100
AcDbLine
 10
278.048864
 20
-193.024024
 30
0.0
 11
274.584758
 21
-195.024022
 31
0.0
  0
LINE
  5
120
100
AcDbEntity
  8
LY_3
390
0
  6
CONTINUOUS
 62
   151
100
AcDbLine
 10
244.458302
 20
-193.024024
 30
0.0
 11
247.922408
 21
-195.024022
 31
0.0
  0
LINE
  5
121
100
AcDbEntity
  8
LY_3
390
0
  6
CONTINUOUS
 62
   151
100
AcDbLine
 10
223.269674
 20
-410.787262
 30
0.0
 11
227.03891
 21
-396.720274
 31
0.0
  0
LINE
  5
122
100
AcDbEntity
  8
LY_3
390
0
  6
CONTINUOUS
 62
   151
100
AcDbLine
 10
299.26967
 20
-410.787262
 30
0.0
 11
295.500434
 21
-396.720274
 31
0.0
  0
LINE
  5
123
100
AcDbEntity
  8
LY_3
390
0
  6
CONTINUOUS
 62
   151
100
AcDbLine
 10
223.269674
 20
-706.653286
 30
0.0
 11
227.03891
 21
-720.720274
 31
0.0
  0
LINE
  5
124
100
AcDbEntity
  8
LY_3
390
0
  6
CONTINUOUS
 62
   151
100
AcDbLine
 10
299.26967
 20
-706.653286
 30
0.0
 11
295.500434
 21
-720.720274
 31
0.0
  0
ARC
  5
125
100
AcDbEntity
  8
LY_3
390
0
  6
CONTINUOUS
 62
   151
100
AcDbCircle
 10
261.269672
 20
661.279646
 30
0.0
 40
70.000002
100
AcDbArc
 50
0.0
 51
90.085618
  0
ARC
  5
126
100
AcDbEntity
  8
LY_3
390
0
  6
CONTINUOUS
 62
   151
100
AcDbCircle
 10
261.269672
 20
-128.720356
 30
0.0
 40
70.000002
100
AcDbArc
 50
269.914382
 51
0.0
  0
LINE
  5
127
100
AcDbEntity
  8
LY_3
390
0
  6
DASHED
 62
     7
100
AcDbLine
 10
-9.530482
 20
-419.720272
 30
0.0
 11
-497.930176
 21
-419.720272
 31
0.0
  0
LINE
  5
128
100
AcDbEntity
  8
LY_3
390
0
  6
DASHED
 62
     7
100
AcDbLine
 10
-73.730326
 20
-424.720276
 30
0.0
 11
-433.730326
 21
-424.720276
 31
0.0
  0
MTEXT
  5
129
100
AcDbEntity
  8
LY_3
390
0
  6
CONTINUOUS
 62
     7
100
AcDbMText
 10
632.074862
 20
729.854365
 30
0.0
 40
36.0
 41
0.0
 71
     1
 72
     1
  1
\W0.781;\A1;ＢＳ３６０Ｆ
 73
     1
 44
0.9
  0
LINE
  5
12A
100
AcDbEntity
  8
LY_3
390
0
  6
CONTINUOUS
 62
   151
100
AcDbLine
 10
-133.730326
 20
-642.720274
 30
0.0
 11
191.26967
 21
-642.720274
 31
0.0
  0
LINE
  5
12B
100
AcDbEntity
  8
LY_3
390
0
  6
CONTINUOUS
 62
   151
100
AcDbLine
 10
-133.730326
 20
-474.720274
 30
0.0
 11
191.26967
 21
-474.720274
 31
0.0
  0
CIRCLE
  5
12C
100
AcDbEntity
  8
LY_3
390
0
  6
CONTINUOUS
 62
   151
100
AcDbCircle
 10
-253.730326
 20
266.279648
 30
0.0
 40
325.000002
  0
ARC
  5
12D
100
AcDbEntity
  8
LY_3
390
0
  6
CENTER
 62
     7
100
AcDbCircle
 10
-253.730326
 20
266.279648
 30
0.0
 40
312.499848
100
AcDbArc
 50
82.425685
 51
97.111138
  0
ARC
  5
12E
100
AcDbEntity
  8
LY_3
390
0
  6
CENTER
 62
     7
100
AcDbCircle
 10
-253.730326
 20
266.279648
 30
0.0
 40
312.499848
100
AcDbArc
 50
142.425685
 51
157.111138
  0
ARC
  5
12F
100
AcDbEntity
  8
LY_3
390
0
  6
CENTER
 62
     7
100
AcDbCircle
 10
-253.730326
 20
266.279648
 30
0.0
 40
312.499848
100
AcDbArc
 50
202.425685
 51
217.111138
  0
ARC
  5
130
100
AcDbEntity
  8
LY_3
390
0
  6
CENTER
 62
     7
100
AcDbCircle
 10
-253.730326
 20
266.279648
 30
0.0
 40
312.499848
100
AcDbArc
 50
262.425685
 51
277.111138
  0
ARC
  5
131
100
AcDbEntity
  8
LY_3
390
0
  6
CENTER
 62
     7
100
AcDbCircle
 10
-253.730326
 20
266.279648
 30
0.0
 40
312.499848
100
AcDbArc
 50
322.425685
 51
337.111138
  0
ARC
  5
132
100
AcDbEntity
  8
LY_3
390
0
  6
CENTER
 62
     7
100
AcDbCircle
 10
-253.730326
 20
266.279648
 30
0.0
 40
312.499848
100
AcDbArc
 50
22.425685
 51
37.111138
  0
LINE
  5
133
100
AcDbEntity
  8
LY_3
390
0
  6
CONTINUOUS
 62
   151
100
AcDbLine
 10
-718.730254
 20
-672.720274
 30
0.0
 11
-133.730326
 21
-672.720274
 31
0.0
  0
LINE
  5
134
100
AcDbEntity
  8
LY_3
390
0
  6
CONTINUOUS
 62
   151
100
AcDbLine
 10
-133.730326
 20
-672.720274
 30
0.0
 11
-133.730326
 21
-642.720274
 31
0.0
  0
LINE
  5
135
100
AcDbEntity
  8
LY_3
390
0
  6
CONTINUOUS
 62
   151
100
AcDbLine
 10
-133.730326
 20
-474.720274
 30
0.0
 11
-133.730326
 21
-444.720274
 31
0.0
  0
LINE
  5
136
100
AcDbEntity
  8
LY_3
390
0
  6
CENTER
 62
     7
100
AcDbLine
 10
-566.230102
 20
-430.920442
 30
0.0
 11
-566.230102
 21
-395.920444
 31
0.0
  0
LINE
  5
137
100
AcDbEntity
  8
LY_3
390
0
  6
CONTINUOUS
 62
   151
100
AcDbLine
 10
-574.017454
 20
-405.92044
 30
0.0
 11
-558.442504
 21
-405.92044
 31
0.0
  0
LINE
  5
138
100
AcDbEntity
  8
LY_3
390
0
  6
CONTINUOUS
 62
   151
100
AcDbLine
 10
-575.230096
 20
-412.720276
 30
0.0
 11
-575.230096
 21
-406.620454
 31
0.0
  0
LINE
  5
139
100
AcDbEntity
  8
LY_3
390
0
  6
CONTINUOUS
 62
   151
100
AcDbLine
 10
-575.230096
 20
-406.620454
 30
0.0
 11
-557.230102
 21
-406.620454
 31
0.0
  0
LINE
  5
13A
100
AcDbEntity
  8
LY_3
390
0
  6
CONTINUOUS
 62
   151
100
AcDbLine
 10
-557.230102
 20
-406.620454
 30
0.0
 11
-557.230102
 21
-412.720276
 31
0.0
  0
LINE
  5
13B
100
AcDbEntity
  8
LY_3
390
0
  6
CONTINUOUS
 62
   151
100
AcDbLine
 10
-575.230066
 20
-406.620466
 30
0.0
 11
-574.017634
 21
-405.92047
 31
0.0
  0
LINE
  5
13C
100
AcDbEntity
  8
LY_3
390
0
  6
CONTINUOUS
 62
   151
100
AcDbLine
 10
-557.229982
 20
-406.62052
 30
0.0
 11
-558.44233
 21
-405.920566
 31
0.0
  0
LINE
  5
13D
100
AcDbEntity
  8
LY_3
390
0
  6
CONTINUOUS
 62
     7
100
AcDbLine
 10
-570.136312
 20
-412.720276
 30
0.0
 11
-572.854768
 21
-408.011776
 31
0.0
  0
LINE
  5
13E
100
AcDbEntity
  8
LY_3
390
0
  6
CONTINUOUS
 62
     7
100
AcDbLine
 10
-572.212408
 20
-412.720276
 30
0.0
 11
-569.162524
 21
-407.437714
 31
0.0
  0
LINE
  5
13F
100
AcDbEntity
  8
LY_3
390
0
  6
CONTINUOUS
 62
     7
100
AcDbLine
 10
-567.437518
 20
-412.394752
 30
0.0
 11
-570.174262
 21
-407.654584
 31
0.0
  0
LINE
  5
140
100
AcDbEntity
  8
LY_3
390
0
  6
CONTINUOUS
 62
     7
100
AcDbLine
 10
-569.325658
 20
-412.720276
 30
0.0
 11
-567.405058
 21
-409.393696
 31
0.0
  0
LINE
  5
141
100
AcDbEntity
  8
LY_3
390
0
  6
CONTINUOUS
 62
     7
100
AcDbLine
 10
-573.023044
 20
-412.720276
 30
0.0
 11
-574.64023
 21
-409.91923
 31
0.0
  0
LINE
  5
142
100
AcDbEntity
  8
LY_3
390
0
  6
CONTINUOUS
 62
     7
100
AcDbLine
 10
-574.681084
 20
-411.996148
 30
0.0
 11
-572.025334
 21
-407.396248
 31
0.0
  0
LINE
  5
143
100
AcDbEntity
  8
LY_3
390
0
  6
CENTER
 62
     7
100
AcDbLine
 10
-668.730328
 20
-422.720272
 30
0.0
 11
-668.730328
 21
-376.220308
 31
0.0
  0
LINE
  5
144
100
AcDbEntity
  8
LY_3
390
0
  6
CENTER
 62
     7
100
AcDbLine
 10
-668.730328
 20
-694.720288
 30
0.0
 11
-668.730328
 21
-741.220258
 31
0.0
  0
LINE
  5
145
100
AcDbEntity
  8
LY_3
390
0
  6
CENTER
 62
     7
100
AcDbLine
 10
-566.230102
 20
-686.520118
 30
0.0
 11
-566.230102
 21
-721.520116
 31
0.0
  0
LINE
  5
146
100
AcDbEntity
  8
LY_3
390
0
  6
CONTINUOUS
 62
   151
100
AcDbLine
 10
-575.230096
 20
-704.720284
 30
0.0
 11
-575.230096
 21
-710.820106
 31
0.0
  0
LINE
  5
147
100
AcDbEntity
  8
LY_3
390
0
  6
CONTINUOUS
 62
   151
100
AcDbLine
 10
-557.230102
 20
-710.820106
 30
0.0
 11
-557.230102
 21
-704.720284
 31
0.0
  0
LINE
  5
148
100
AcDbEntity
  8
LY_3
390
0
  6
CONTINUOUS
 62
     7
100
AcDbLine
 10
-562.323886
 20
-704.720284
 30
0.0
 11
-559.60543
 21
-709.428784
 31
0.0
  0
LINE
  5
149
100
AcDbEntity
  8
LY_3
390
0
  6
CONTINUOUS
 62
     7
100
AcDbLine
 10
-560.24779
 20
-704.720284
 30
0.0
 11
-563.297674
 21
-710.002846
 31
0.0
  0
LINE
  5
14A
100
AcDbEntity
  8
LY_3
390
0
  6
CONTINUOUS
 62
     7
100
AcDbLine
 10
-565.02268
 20
-705.045808
 30
0.0
 11
-562.285936
 21
-709.785982
 31
0.0
  0
LINE
  5
14B
100
AcDbEntity
  8
LY_3
390
0
  6
CONTINUOUS
 62
     7
100
AcDbLine
 10
-557.779114
 20
-705.444412
 30
0.0
 11
-560.43487
 21
-710.044318
 31
0.0
  0
LINE
  5
14C
100
AcDbEntity
  8
LY_3
390
0
  6
CONTINUOUS
 62
   151
100
AcDbLine
 10
-557.229982
 20
-710.82004
 30
0.0
 11
-558.44233
 21
-711.519994
 31
0.0
  0
LINE
  5
14D
100
AcDbEntity
  8
LY_3
390
0
  6
CONTINUOUS
 62
   151
100
AcDbLine
 10
-575.230066
 20
-710.820094
 30
0.0
 11
-574.017634
 21
-711.52009
 31
0.0
  0
LINE
  5
14E
100
AcDbEntity
  8
LY_3
390
0
  6
CONTINUOUS
 62
   151
100
AcDbLine
 10
-575.230096
 20
-710.820106
 30
0.0
 11
-557.230102
 21
-710.820106
 31
0.0
  0
LINE
  5
14F
100
AcDbEntity
  8
LY_3
390
0
  6
CONTINUOUS
 62
   151
100
AcDbLine
 10
-574.017454
 20
-711.52012
 30
0.0
 11
-558.442504
 21
-711.52012
 31
0.0
  0
LINE
  5
150
100
AcDbEntity
  8
LY_3
390
0
  6
CENTER
 62
     7
100
AcDbLine
 10
161.26967
 20
-694.720288
 30
0.0
 11
161.26967
 21
-741.220258
 31
0.0
  0
LINE
  5
151
100
AcDbEntity
  8
LY_3
390
0
  6
CENTER
 62
     7
100
AcDbLine
 10
58.769444
 20
-686.520118
 30
0.0
 11
58.769444
 21
-721.520116
 31
0.0
  0
LINE
  5
152
100
AcDbEntity
  8
LY_3
390
0
  6
CONTINUOUS
 62
   151
100
AcDbLine
 10
67.769444
 20
-704.720284
 30
0.0
 11
67.769444
 21
-710.820106
 31
0.0
  0
LINE
  5
153
100
AcDbEntity
  8
LY_3
390
0
  6
CONTINUOUS
 62
   151
100
AcDbLine
 10
49.769444
 20
-710.820106
 30
0.0
 11
49.769444
 21
-704.720284
 31
0.0
  0
LINE
  5
154
100
AcDbEntity
  8
LY_3
390
0
  6
CONTINUOUS
 62
     7
100
AcDbLine
 10
62.67566
 20
-704.720284
 30
0.0
 11
65.39411
 21
-709.428784
 31
0.0
  0
LINE
  5
155
100
AcDbEntity
  8
LY_3
390
0
  6
CONTINUOUS
 62
     7
100
AcDbLine
 10
64.751756
 20
-704.720284
 30
0.0
 11
61.701866
 21
-710.002846
 31
0.0
  0
LINE
  5
156
100
AcDbEntity
  8
LY_3
390
0
  6
CONTINUOUS
 62
     7
100
AcDbLine
 10
59.976866
 20
-705.045808
 30
0.0
 11
62.713604
 21
-709.785982
 31
0.0
  0
LINE
  5
157
100
AcDbEntity
  8
LY_3
390
0
  6
CONTINUOUS
 62
     7
100
AcDbLine
 10
67.220426
 20
-705.444412
 30
0.0
 11
64.564676
 21
-710.044318
 31
0.0
  0
LINE
  5
158
100
AcDbEntity
  8
LY_3
390
0
  6
CONTINUOUS
 62
   151
100
AcDbLine
 10
66.556796
 20
-711.52012
 30
0.0
 11
50.981846
 21
-711.52012
 31
0.0
  0
LINE
  5
159
100
AcDbEntity
  8
LY_3
390
0
  6
CONTINUOUS
 62
   151
100
AcDbLine
 10
67.769444
 20
-710.820106
 30
0.0
 11
49.769444
 21
-710.820106
 31
0.0
  0
LINE
  5
15A
100
AcDbEntity
  8
LY_3
390
0
  6
CONTINUOUS
 62
   151
100
AcDbLine
 10
67.769408
 20
-710.820094
 30
0.0
 11
66.556982
 21
-711.52009
 31
0.0
  0
LINE
  5
15B
100
AcDbEntity
  8
LY_3
390
0
  6
CONTINUOUS
 62
   151
100
AcDbLine
 10
49.769324
 20
-710.82004
 30
0.0
 11
50.981678
 21
-711.519994
 31
0.0
  0
LINE
  5
15C
100
AcDbEntity
  8
LY_3
390
0
  6
CENTER
 62
     7
100
AcDbLine
 10
58.769444
 20
-430.920442
 30
0.0
 11
58.769444
 21
-395.920444
 31
0.0
  0
LINE
  5
15D
100
AcDbEntity
  8
LY_3
390
0
  6
CONTINUOUS
 62
   151
100
AcDbLine
 10
67.769444
 20
-412.720276
 30
0.0
 11
67.769444
 21
-406.620454
 31
0.0
  0
LINE
  5
15E
100
AcDbEntity
  8
LY_3
390
0
  6
CONTINUOUS
 62
   151
100
AcDbLine
 10
49.769444
 20
-406.620454
 30
0.0
 11
49.769444
 21
-412.720276
 31
0.0
  0
LINE
  5
15F
100
AcDbEntity
  8
LY_3
390
0
  6
CONTINUOUS
 62
     7
100
AcDbLine
 10
54.863228
 20
-412.720276
 30
0.0
 11
52.144772
 21
-408.011776
 31
0.0
  0
LINE
  5
160
100
AcDbEntity
  8
LY_3
390
0
  6
CONTINUOUS
 62
     7
100
AcDbLine
 10
52.787132
 20
-412.720276
 30
0.0
 11
55.837022
 21
-407.437714
 31
0.0
  0
LINE
  5
161
100
AcDbEntity
  8
LY_3
390
0
  6
CONTINUOUS
 62
     7
100
AcDbLine
 10
57.562022
 20
-412.394752
 30
0.0
 11
54.825284
 21
-407.654584
 31
0.0
  0
LINE
  5
162
100
AcDbEntity
  8
LY_3
390
0
  6
CONTINUOUS
 62
     7
100
AcDbLine
 10
55.673882
 20
-412.720276
 30
0.0
 11
57.594482
 21
-409.393696
 31
0.0
  0
LINE
  5
163
100
AcDbEntity
  8
LY_3
390
0
  6
CONTINUOUS
 62
     7
100
AcDbLine
 10
51.976496
 20
-412.720276
 30
0.0
 11
50.35931
 21
-409.91923
 31
0.0
  0
LINE
  5
164
100
AcDbEntity
  8
LY_3
390
0
  6
CONTINUOUS
 62
     7
100
AcDbLine
 10
50.318456
 20
-411.996148
 30
0.0
 11
52.974212
 21
-407.396248
 31
0.0
  0
LINE
  5
165
100
AcDbEntity
  8
LY_3
390
0
  6
CENTER
 62
     7
100
AcDbLine
 10
161.26967
 20
-422.720272
 30
0.0
 11
161.26967
 21
-376.220308
 31
0.0
  0
LINE
  5
166
100
AcDbEntity
  8
LY_3
390
0
  6
CONTINUOUS
 62
   151
100
AcDbLine
 10
49.769324
 20
-406.62052
 30
0.0
 11
50.981678
 21
-405.920566
 31
0.0
  0
LINE
  5
167
100
AcDbEntity
  8
LY_3
390
0
  6
CONTINUOUS
 62
   151
100
AcDbLine
 10
67.769408
 20
-406.620466
 30
0.0
 11
66.556982
 21
-405.92047
 31
0.0
  0
LINE
  5
168
100
AcDbEntity
  8
LY_3
390
0
  6
CONTINUOUS
 62
   151
100
AcDbLine
 10
67.769444
 20
-406.620454
 30
0.0
 11
49.769444
 21
-406.620454
 31
0.0
  0
LINE
  5
169
100
AcDbEntity
  8
LY_3
390
0
  6
CONTINUOUS
 62
   151
100
AcDbLine
 10
66.556796
 20
-405.92044
 30
0.0
 11
50.981846
 21
-405.92044
 31
0.0
  0
LINE
  5
16A
100
AcDbEntity
  8
LY_3
390
0
  6
CONTINUOUS
 62
   151
100
AcDbLine
 10
223.269674
 20
-412.720276
 30
0.0
 11
223.269674
 21
-410.787262
 31
0.0
  0
LINE
  5
16B
100
AcDbEntity
  8
LY_3
390
0
  6
CONTINUOUS
 62
   151
100
AcDbLine
 10
299.26967
 20
-412.720276
 30
0.0
 11
299.26967
 21
-410.787262
 31
0.0
  0
LINE
  5
16C
100
AcDbEntity
  8
LY_3
390
0
  6
CONTINUOUS
 62
   151
100
AcDbLine
 10
223.269674
 20
-498.72028
 30
0.0
 11
223.269674
 21
-493.720276
 31
0.0
  0
LINE
  5
16D
100
AcDbEntity
  8
LY_3
390
0
  6
CONTINUOUS
 62
   151
100
AcDbLine
 10
299.26967
 20
-498.72028
 30
0.0
 11
299.26967
 21
-493.720276
 31
0.0
  0
LINE
  5
16E
100
AcDbEntity
  8
LY_3
390
0
  6
CONTINUOUS
 62
   151
100
AcDbLine
 10
223.269674
 20
-623.720272
 30
0.0
 11
223.269674
 21
-618.72028
 31
0.0
  0
LINE
  5
16F
100
AcDbEntity
  8
LY_3
390
0
  6
CONTINUOUS
 62
   151
100
AcDbLine
 10
299.26967
 20
-623.720272
 30
0.0
 11
299.26967
 21
-618.72028
 31
0.0
  0
LINE
  5
170
100
AcDbEntity
  8
LY_3
390
0
  6
CONTINUOUS
 62
   151
100
AcDbLine
 10
211.269596
 20
-623.720272
 30
0.0
 11
211.269596
 21
-618.72028
 31
0.0
  0
LINE
  5
171
100
AcDbEntity
  8
LY_3
390
0
  6
CONTINUOUS
 62
   151
100
AcDbLine
 10
211.269596
 20
-498.72028
 30
0.0
 11
211.269596
 21
-493.720276
 31
0.0
  0
LINE
  5
172
100
AcDbEntity
  8
LY_3
390
0
  6
CONTINUOUS
 62
   151
100
AcDbLine
 10
364.126898
 20
-498.72028
 30
0.0
 11
364.126898
 21
-618.72028
 31
0.0
  0
LINE
  5
173
100
AcDbEntity
  8
LY_3
390
0
  6
DASHED
 62
     7
100
AcDbLine
 10
-293.730328
 20
-419.720272
 30
0.0
 11
-293.730328
 21
-697.720276
 31
0.0
  0
LINE
  5
174
100
AcDbEntity
  8
LY_3
390
0
  6
DASHED
 62
     7
100
AcDbLine
 10
-213.73033
 20
-419.720272
 30
0.0
 11
-213.73033
 21
-697.720276
 31
0.0
  0
ENDSEC
  0
SECTION
  2
OBJECTS
  0
DICTIONARY
  5
19
100
AcDbDictionary
280
     0
281
     1
  3
ACAD_GROUP
350
1A
  3
ACAD_MLINESTYLE
350
1B
  3
ACAD_LAYOUT
350
1E
  3
ACAD_PLOTSETTINGS
350
22
  3
ACAD_PLOTSTYLENAME
350
1F
  0
DICTIONARY
  5
1A
102
{ACAD_REACTORS
330
19
102
}
100
AcDbDictionary
280
     0
281
     1
  0
DICTIONARY
  5
1B
102
{ACAD_REACTORS
330
19
102
}
100
AcDbDictionary
280
     0
281
     1
  3
Standard
350
1C
  0
MLINESTYLE
  5
1C
102
{ACAD_REACTORS
330
1B
102
}
100
AcDbMlineStyle
  2
Standard
 70
     0
  3

 62
     0
 51
90.0
 52
90.0
 71
     2
 49
0.5
 62
   256
  6
ByLayer
 49
-0.5
 62
   256
  6
ByLayer
  0
ACDBDICTIONARYWDFLT
  5
1F
102
{ACAD_REACTORS
330
19
102
}
100
AcDbDictionary
281
     1
  3
Normal
350
1D
100
AcDbDictionaryWithDefault
340
1D
  0
ACDBPLACEHOLDER
  5
1D
102
{ACAD_REACTORS
330
1F
102
}
  0
LAYOUT
  5
20
102
{ACAD_REACTORS
330
1E
102
}
100
AcDbPlotSettings
  1

  2

  4

  6

 40
0.0
 41
0.0
 42
0.0
 43
0.0
 44
0.0
 45
0.0
 46
0.0
 47
0.0
 48
0.0
 49
0.0
140
0.0
141
0.0
142
1.0
143
1.0
 70
  1024
 72
     0
 73
     0
 74
     0
  7

 75
     0
147
1.0
148
0.0
149
0.0
100
AcDbLayout
  1
Model
 70
     0
 71
     0
 10
0.0
 20
0.0
 11
0.0
 21
0.0
 12
0.0
 22
0.0
 32
0.0
 14
0.0
 24
0.0
 34
0.0
 15
0.0
 25
0.0
 35
0.0
146
0.0
 13
0.0
 23
0.0
 33
0.0
 16
0.0
 26
0.0
 36
0.0
 17
0.0
 27
0.0
 37
0.0
 76
     0
330
A
331
0
345
0
346
0
  0
LAYOUT
  5
21
102
{ACAD_REACTORS
330
1E
102
}
100
AcDbPlotSettings
  1

  2

  4

  6

 40
0.0
 41
0.0
 42
0.0
 43
0.0
 44
0.0
 45
0.0
 46
0.0
 47
0.0
 48
0.0
 49
0.0
140
0.0
141
0.0
142
1.0
143
1.0
 70
     0
 72
     0
 73
     0
 74
     0
  7

 75
     0
147
1.0
148
0.0
149
0.0
100
AcDbLayout
  1
Layout1
 70
     0
 71
     0
 10
0.0
 20
0.0
 11
0.0
 21
0.0
 12
0.0
 22
0.0
 32
0.0
 14
0.0
 24
0.0
 34
0.0
 15
0.0
 25
0.0
 35
0.0
146
0.0
 13
0.0
 23
0.0
 33
0.0
 16
0.0
 26
0.0
 36
0.0
 17
0.0
 27
0.0
 37
0.0
 76
     0
330
B
331
0
345
0
346
0
  0
DICTIONARY
  5
1E
102
{ACAD_REACTORS
330
19
102
}
100
AcDbDictionary
280
     0
281
     1
  3
Layout1
350
21
  3
Model
350
20
  0
DICTIONARY
  5
22
102
{ACAD_REACTORS
330
19
102
}
100
AcDbDictionary
280
     0
281
     1
  0
ENDSEC
  0
EOF
