  0
SECTION
  2
HEADER
  9
$ACADVER
  1
AC1015
  9
$ACADMAINTVER
 70
     6
  9
$DWGCODEPAGE
  3
ANSI_932
  9
$INSBASE
 10
0.0
 20
0.0
 30
0.0
  9
$EXTMIN
 10
-578.236808
 20
-451.577128
 30
0.0
  9
$EXTMAX
 10
1877.563317
 20
679.538602
 30
0.0
  9
$LIMMIN
 10
-578.236808
 20
-451.577128
  9
$LIMMAX
 10
1877.563317
 20
679.538602
  9
$ORTHOMODE
 70
     0
  9
$REGENMODE
 70
     1
  9
$FILLMODE
 70
     1
  9
$QTEXTMODE
 70
     0
  9
$MIRRTEXT
 70
     1
  9
$LTSCALE
 40
1.0
  9
$ATTMODE
 70
     1
  9
$TEXTSIZE
 40
3.2
  9
$TRACEWID
 40
0.05
  9
$TEXTSTYLE
  7
MX_NOTE_STANDARD
  9
$CLAYER
  8
LY_3
  9
$CELTYPE
  6
CONTINUOUS
  9
$CECOLOR
 62
   256
  9
$CELTSCALE
 40
1.0
  9
$DISPSILH
 70
     0
  9
$DIMSCALE
 40
1.0
  9
$DIMASZ
 40
2.5
  9
$DIMEXO
 40
0.0
  9
$DIMDLI
 40
3.75
  9
$DIMRND
 40
0.0
  9
$DIMDLE
 40
0.0
  9
$DIMEXE
 40
2.5
  9
$DIMTP
 40
0.0
  9
$DIMTM
 40
0.0
  9
$DIMTXT
 40
3.2
  9
$DIMCEN
 40
2.5
  9
$DIMTSZ
 40
0.0
  9
$DIMTOL
 70
     0
  9
$DIMLIM
 70
     0
  9
$DIMTIH
 70
     0
  9
$DIMTOH
 70
     0
  9
$DIMSE1
 70
     0
  9
$DIMSE2
 70
     0
  9
$DIMTAD
 70
     1
  9
$DIMZIN
 70
     8
  9
$DIMBLK
  1

  9
$DIMASO
 70
     1
  9
$DIMSHO
 70
     1
  9
$DIMPOST
  1

  9
$DIMAPOST
  1

  9
$DIMALT
 70
     0
  9
$DIMALTD
 70
     4
  9
$DIMALTF
 40
0.03937
  9
$DIMLFAC
 40
1.0
  9
$DIMTOFL
 70
     1
  9
$DIMTVP
 40
0.0
  9
$DIMTIX
 70
     0
  9
$DIMSOXD
 70
     0
  9
$DIMSAH
 70
     1
  9
$DIMBLK1
  1
_OPEN30
  9
$DIMBLK2
  1
_OPEN30
  9
$DIMSTYLE
  2
MXDIMSTYLE
  9
$DIMCLRD
 70
     0
  9
$DIMCLRE
 70
     0
  9
$DIMCLRT
 70
     0
  9
$DIMTFAC
 40
1.0
  9
$DIMGAP
 40
1.0
  9
$DIMJUST
 70
     0
  9
$DIMSD1
 70
     0
  9
$DIMSD2
 70
     0
  9
$DIMTOLJ
 70
     0
  9
$DIMTZIN
 70
     0
  9
$DIMALTZ
 70
     0
  9
$DIMALTTZ
 70
     0
  9
$DIMUPT
 70
     0
  9
$DIMDEC
 70
     2
  9
$DIMTDEC
 70
     2
  9
$DIMALTU
 70
     2
  9
$DIMALTTD
 70
     4
  9
$DIMTXSTY
  7
MX_NOTE_STANDARD
  9
$DIMAUNIT
 70
     0
  9
$DIMADEC
 70
     0
  9
$DIMALTRND
 40
0.0
  9
$DIMAZIN
 70
     0
  9
$DIMDSEP
 70
    46
  9
$DIMATFIT
 70
     3
  9
$DIMFRAC
 70
     0
  9
$DIMLDRBLK
  1
_OPEN30
  9
$DIMLUNIT
 70
     2
  9
$DIMLWD
 70
    -2
  9
$DIMLWE
 70
    -2
  9
$DIMTMOVE
 70
     0
  9
$LUNITS
 70
     2
  9
$LUPREC
 70
     4
  9
$SKETCHINC
 40
0.1
  9
$FILLETRAD
 40
0.0
  9
$AUNITS
 70
     0
  9
$AUPREC
 70
     0
  9
$MENU
  1
acad
  9
$ELEVATION
 40
0.0
  9
$PELEVATION
 40
0.0
  9
$THICKNESS
 40
0.0
  9
$LIMCHECK
 70
     0
  9
$CHAMFERA
 40
0.0
  9
$CHAMFERB
 40
0.0
  9
$CHAMFERC
 40
0.0
  9
$CHAMFERD
 40
0.0
  9
$SKPOLY
 70
     0
  9
$TDCREATE
 40
2458319.568263889
  9
$TDUCREATE
 40
0.000000000
  9
$TDUPDATE
 40
2458319.568263889
  9
$TDUUPDATE
 40
0.000000000
  9
$TDINDWG
 40
0.0000000000
  9
$TDUSRTIMER
 40
0.0000000000
  9
$USRTIMER
 70
     1
  9
$ANGBASE
 50
0.0
  9
$ANGDIR
 70
     0
  9
$PDMODE
 70
     0
  9
$PDSIZE
 40
0.0
  9
$PLINEWID
 40
0.0
  9
$SPLFRAME
 70
     0
  9
$SPLINETYPE
 70
     6
  9
$SPLINESEGS
 70
     8
  9
$HANDSEED
  5
171
  9
$SURFTAB1
 70
     6
  9
$SURFTAB2
 70
     6
  9
$SURFTYPE
 70
     6
  9
$SURFU
 70
     6
  9
$SURFV
 70
     6
  9
$UCSBASE
  2

  9
$UCSNAME
  2

  9
$UCSORG
 10
0.0
 20
0.0
 30
0.0
  9
$UCSXDIR
 10
1.0
 20
0.0
 30
0.0
  9
$UCSYDIR
 10
0.0
 20
1.0
 30
0.0
  9
$UCSORTHOREF
  2

  9
$UCSORTHOVIEW
 70
     0
  9
$UCSORGTOP
 10
0.0
 20
0.0
 30
0.0
  9
$UCSORGBOTTOM
 10
0.0
 20
0.0
 30
0.0
  9
$UCSORGLEFT
 10
0.0
 20
0.0
 30
0.0
  9
$UCSORGRIGHT
 10
0.0
 20
0.0
 30
0.0
  9
$UCSORGFRONT
 10
0.0
 20
0.0
 30
0.0
  9
$UCSORGBACK
 10
0.0
 20
0.0
 30
0.0
  9
$PUCSBASE
  2

  9
$PUCSNAME
  2

  9
$PUCSORG
 10
0.0
 20
0.0
 30
0.0
  9
$PUCSXDIR
 10
1.0
 20
0.0
 30
0.0
  9
$PUCSYDIR
 10
0.0
 20
1.0
 30
0.0
  9
$PUCSORTHOREF
  2

  9
$PUCSORTHOVIEW
 70
     0
  9
$PUCSORGTOP
 10
0.0
 20
0.0
 30
0.0
  9
$PUCSORGBOTTOM
 10
0.0
 20
0.0
 30
0.0
  9
$PUCSORGLEFT
 10
0.0
 20
0.0
 30
0.0
  9
$PUCSORGRIGHT
 10
0.0
 20
0.0
 30
0.0
  9
$PUCSORGFRONT
 10
0.0
 20
0.0
 30
0.0
  9
$PUCSORGBACK
 10
0.0
 20
0.0
 30
0.0
  9
$USERI1
 70
     0
  9
$USERI2
 70
     0
  9
$USERI3
 70
     0
  9
$USERI4
 70
     0
  9
$USERI5
 70
     0
  9
$USERR1
 40
0.0
  9
$USERR2
 40
0.0
  9
$USERR3
 40
0.0
  9
$USERR4
 40
0.0
  9
$USERR5
 40
0.0
  9
$WORLDVIEW
 70
     1
  9
$SHADEDGE
 70
     3
  9
$SHADEDIF
 70
    70
  9
$TILEMODE
 70
     1
  9
$MAXACTVP
 70
    16
  9
$PINSBASE
 10
0.0
 20
0.0
 30
0.0
  9
$PLIMCHECK
 70
     0
  9
$PEXTMIN
 10
1.000000E+20
 20
1.000000E+20
 30
1.000000E+20
  9
$PEXTMAX
 10
-1.000000E+20
 20
-1.000000E+20
 30
-1.000000E+20
  9
$PLIMMIN
 10
0.0
 20
0.0
  9
$PLIMMAX
 10
12.0
 20
9.0
  9
$UNITMODE
 70
     0
  9
$VISRETAIN
 70
     0
  9
$PLINEGEN
 70
     1
  9
$PSLTSCALE
 70
     0
  9
$TREEDEPTH
 70
  3020
  9
$CMLSTYLE
  2
Standard
  9
$CMLJUST
 70
     0
  9
$CMLSCALE
 40
1.0
  9
$PROXYGRAPHICS
 70
     0
  9
$MEASUREMENT
 70
     1
  9
$CELWEIGHT
370
     0
  9
$ENDCAPS
280
     0
  9
$JOINSTYLE
280
     0
  9
$LWDISPLAY
290
     0
  9
$INSUNITS
 70
     0
  9
$HYPERLINKBASE
  1

  9
$STYLESHEET
  1

  9
$XEDIT
290
     1
  9
$CEPSNTYPE
380
     0
  9
$PSTYLEMODE
290
     1
  9
$FINGERPRINTGUID
  2

  9
$VERSIONGUID
  2

  9
$EXTNAMES
290
     1
  9
$PSVPSCALE
 40
0.0
  0
ENDSEC
  0
SECTION
  2
CLASSES
  0
CLASS
  1
LWPOLYLINE
  2
AcDbPolyline
  3
AutoCAD 2000
 90
        0
280
     0
281
     1
  0
CLASS
  1
IMAGE
  2
AcDbRasterImage
  3
ISM
 90
      127
280
     0
281
     1
  0
CLASS
  1
OLE2FRAME
  2
AcDbOle2Frame
  3
AutoCAD 2000
 90
        0
280
     0
281
     1
  0
CLASS
  1
HATCH
  2
AcDbHatch
  3
AutoCAD 2000
 90
        0
280
     0
281
     1
  0
CLASS
  1
DICTIONARYVAR
  2
AcDbDictionaryVar
  3
AutoCAD 2000
 90
        0
280
     0
281
     0
  0
CLASS
  1
RASTERVARIABLES
  2
AcDbRasterVariables
  3
ISM
 90
        0
280
     0
281
     0
  0
CLASS
  1
IMAGEDEF
  2
AcDbRasterImageDef
  3
ISM
 90
        0
280
     0
281
     0
  0
CLASS
  1
IMAGEDEF_REACTOR
  2
AcDbRasterImageDefReactor
  3
ISM
 90
        1
280
     0
281
     0
  0
CLASS
  1
IDBUFFER
  2
AcDbIdBuffer
  3
AutoCAD 2000
 90
        0
280
     0
281
     0
  0
CLASS
  1
SPATIAL_FILTER
  2
AcDbSpatialFilter
  3
AutoCAD 2000
 90
        0
280
     0
281
     0
  0
CLASS
  1
XRECORD
  2
AcDbXrecord
  3
AutoCAD 2000
 90
        0
280
     0
281
     0
  0
CLASS
  1
SORTENTSTABLE
  2
AcDbSortentsTable
  3
AutoCAD 2000
 90
        0
280
     0
281
     0
  0
CLASS
  1
LAYER_INDEX
  2
AcDbLayerIndex
  3
AutoCAD 2000
 90
        0
280
     0
281
     0
  0
CLASS
  1
SPATIAL_INDEX
  2
AcDbSpatialIndex
  3
AutoCAD 2000
 90
        0
280
     0
281
     0
  0
CLASS
  1
OBJECT_PTR
  2
CAseDLPNTableRecord
  3
"ASE-LPNTableRecord"
 90
        1
280
     0
281
     0
  0
CLASS
  1
LAYOUT
  2
AcDbLayout
  3
AutoCAD 2000
 90
        0
280
     0
281
     0
  0
CLASS
  1
PLOTSETTINGS
  2
AcDbPlotSettings
  3
AutoCAD 2000
 90
        0
280
     0
281
     0
  0
CLASS
  1
ACDBDICTIONARYWDFLT
  2
AcDbDictionaryWithDefault
  3
AutoCAD 2000
 90
        0
280
     0
281
     0
  0
CLASS
  1
ACDBPLACEHOLDER
  2
AcDbPlaceHolder
  3
AutoCAD 2000
 90
        0
280
     0
281
     0
  0
ENDSEC
  0
SECTION
  2
TABLES
  0
TABLE
  2
VPORT
  5
7
100
AcDbSymbolTable
 70
     1
  0
VPORT
  5
15
100
AcDbSymbolTableRecord
100
AcDbViewportTableRecord
  2
*ACTIVE
 70
     0
 10
0.0
 20
0.0
 11
1.0
 21
1.0
 12
649.663255
 22
113.980737
 13
0.0
 23
0.0
 14
1.0
 24
1.0
 15
0.0
 25
0.0
 16
0.0
 26
0.0
 36
1.0
 17
0.0
 27
0.0
 37
0.0
 40
1142.426887
 41
1.732051
 42
50.0
 43
0.0
 44
0.0
 50
0.0
 51
0.0
 71
     0
 72
   100
 73
     1
 74
     1
 75
     0
 76
     0
 77
     0
 78
     0
281
     0
 65
     0
110
0.0
120
0.0
130
0.0
111
1.0
121
0.0
131
0.0
112
0.0
122
1.0
132
0.0
345
0
346
0
 79
     0
146
0.0
  0
ENDTAB
  0
TABLE
  2
LTYPE
  5
4
100
AcDbSymbolTable
 70
     6
  0
LTYPE
  5
11
100
AcDbSymbolTableRecord
100
AcDbLinetypeTableRecord
  2
BYBLOCK
 70
    64
  3

 72
    65
 73
     0
 40
0.0
  0
LTYPE
  5
12
100
AcDbSymbolTableRecord
100
AcDbLinetypeTableRecord
  2
BYLAYER
 70
    64
  3

 72
    65
 73
     0
 40
0.0
  0
LTYPE
  5
13
100
AcDbSymbolTableRecord
100
AcDbLinetypeTableRecord
  2
CONTINUOUS
 70
    64
  3
Solid line
 72
    65
 73
     0
 40
0.0
  0
LTYPE
  5
30
100
AcDbSymbolTableRecord
100
AcDbLinetypeTableRecord
  2
DASHED
 70
    64
  3
Dashed __ __ __ __ __ __ __ __ __ __ __ __ __ _
 72
    65
 73
     2
 40
19.05
 49
12.7
 74
     0
 49
-6.35
 74
     0
  0
LTYPE
  5
48
100
AcDbSymbolTableRecord
100
AcDbLinetypeTableRecord
  2
CENTER
 70
    64
  3
Center ____ _ ____ _ ____ _ ____ _ ____ _ ____
 72
    65
 73
     4
 40
50.8
 49
31.75
 74
     0
 49
-6.35
 74
     0
 49
6.35
 74
     0
 49
-6.35
 74
     0
  0
LTYPE
  5
106
100
AcDbSymbolTableRecord
100
AcDbLinetypeTableRecord
  2
PHANTOM
 70
    64
  3
Phantom ______  __  __  ______  __  __  ______
 72
    65
 73
     6
 40
63.5
 49
31.75
 74
     0
 49
-6.35
 74
     0
 49
6.35
 74
     0
 49
-6.35
 74
     0
 49
6.35
 74
     0
 49
-6.35
 74
     0
  0
ENDTAB
  0
TABLE
  2
LAYER
  5
2
100
AcDbSymbolTable
 70
     3
  0
LAYER
  5
14
100
AcDbSymbolTableRecord
100
AcDbLayerTableRecord
  2
0
 70
     0
 62
     7
  6
CONTINUOUS
290
     1
370
    -3
390
1D
  0
LAYER
  5
23
100
AcDbSymbolTableRecord
100
AcDbLayerTableRecord
  2
DEFPOINTS
 70
     0
 62
     7
  6
CONTINUOUS
290
     0
370
    -3
390
1D
  0
LAYER
  5
24
100
AcDbSymbolTableRecord
100
AcDbLayerTableRecord
  2
LY_3
 70
     0
 62
   161
  6
CONTINUOUS
290
     1
370
    -3
390
1D
  0
ENDTAB
  0
TABLE
  2
STYLE
  5
3
100
AcDbSymbolTable
 70
     1
  0
STYLE
  5
17
100
AcDbSymbolTableRecord
100
AcDbTextStyleTableRecord
  2
MX_NOTE_STANDARD
 70
     0
 40
0.0
 41
1.0
 50
0.0
 71
     0
 42
3.2
  3
txt.shx
  4
extfont.shx
  0
ENDTAB
  0
TABLE
  2
VIEW
  5
5
100
AcDbSymbolTable
 70
     0
  0
ENDTAB
  0
TABLE
  2
UCS
  5
6
100
AcDbSymbolTable
 70
     0
  0
ENDTAB
  0
TABLE
  2
APPID
  5
8
100
AcDbSymbolTable
 70
     1
  0
APPID
  5
16
100
AcDbSymbolTableRecord
100
AcDbRegAppTableRecord
  2
ACAD
 70
     0
  0
ENDTAB
  0
TABLE
  2
DIMSTYLE
  5
9
100
AcDbSymbolTable
 70
     1
100
AcDbDimStyleTable
 71
     0
  0
DIMSTYLE
105
18
100
AcDbSymbolTableRecord
100
AcDbDimStyleTableRecord
  2
MXDIMSTYLE
 70
     0
  3

  4

 40
1.0
 41
2.5
 42
0.0
 43
3.75
 44
2.5
 45
0.0
 46
0.0
 47
0.0
 48
0.0
 71
     0
 72
     0
 73
     0
 74
     0
 75
     0
 76
     0
 77
     1
 78
     8
 79
     0
140
3.2
141
2.5
142
0.0
143
0.03937
144
1.0
145
0.0
146
1.0
147
1.0
148
0.0
170
     0
171
     4
172
     1
173
     1
174
     0
175
     0
176
     0
177
     0
178
     0
179
     0
271
     2
272
     2
273
     2
274
     4
275
     0
276
     0
277
     2
278
    46
279
     0
280
     0
281
     0
282
     0
283
     0
284
     0
285
     0
286
     0
288
     0
289
     3
340
17
341
29
342
0
343
29
344
29
371
    -2
372
    -2
  0
ENDTAB
  0
TABLE
  2
BLOCK_RECORD
  5
1
100
AcDbSymbolTable
 70
     5
  0
BLOCK_RECORD
  5
A
100
AcDbSymbolTableRecord
100
AcDbBlockTableRecord
  2
*MODEL_SPACE
340
20
  0
BLOCK_RECORD
  5
B
100
AcDbSymbolTableRecord
100
AcDbBlockTableRecord
  2
*PAPER_SPACE
340
21
  0
BLOCK_RECORD
  5
25
100
AcDbSymbolTableRecord
100
AcDbBlockTableRecord
  2
M20-S1-W.HB
340
0
102
{BLKREFS
331
77
331
79
331
81
331
82
102
}
  0
BLOCK_RECORD
  5
26
100
AcDbSymbolTableRecord
100
AcDbBlockTableRecord
  2
M20-T.HB
340
0
102
{BLKREFS
331
69
331
6A
331
6B
331
6C
331
6D
331
6E
331
6F
331
70
331
71
331
72
331
73
331
74
331
75
331
76
102
}
  0
BLOCK_RECORD
  5
27
100
AcDbSymbolTableRecord
100
AcDbBlockTableRecord
  2
M8-S-W.SB
340
0
102
{BLKREFS
331
78
331
7A
331
7F
331
80
102
}
  0
BLOCK_RECORD
  5
28
100
AcDbSymbolTableRecord
100
AcDbBlockTableRecord
  2
M8-T-W.SB
340
0
102
{BLKREFS
331
7B
331
7C
331
7D
331
7E
102
}
  0
BLOCK_RECORD
  5
29
100
AcDbSymbolTableRecord
100
AcDbBlockTableRecord
  2
_OPEN30
340
0
  0
ENDTAB
  0
ENDSEC
  0
SECTION
  2
BLOCKS
  0
BLOCK
  5
D
100
AcDbEntity
  8
0
390
0
100
AcDbBlockBegin
  2
*MODEL_SPACE
 70
     0
 10
0.0
 20
0.0
 30
0.0
  3
*MODEL_SPACE
  1

  0
ENDBLK
  5
E
100
AcDbEntity
  8
0
390
0
100
AcDbBlockEnd
  0
BLOCK
  5
F
100
AcDbEntity
 67
     1
  8
0
390
0
100
AcDbBlockBegin
  2
*PAPER_SPACE
 70
     0
 10
0.0
 20
0.0
 30
0.0
  3
*PAPER_SPACE
  1

  0
ENDBLK
  5
10
100
AcDbEntity
 67
     1
  8
0
390
0
100
AcDbBlockEnd
  0
BLOCK
  5
2F
100
AcDbEntity
  8
0
370
    -2
390
0
100
AcDbBlockBegin
  2
M20-S1-W.HB
 70
     0
 10
0.0
 20
0.0
 30
0.0
  3
M20-S1-W.HB
  1

  0
ARC
  5
31
100
AcDbEntity
  8
0
390
0
  6
DASHED
 62
     7
100
AcDbCircle
 10
11.900116
 20
0.0
 30
0.0
 40
30.0
100
AcDbArc
 50
163.221304
 51
196.778624
  0
LINE
  5
32
100
AcDbEntity
  8
0
390
0
  6
DASHED
 62
     7
100
AcDbLine
 10
-5.099936
 20
-2.549908
 30
0.0
 11
0.000001
 21
2.55003
 31
0.0
  0
LINE
  5
33
100
AcDbEntity
  8
0
390
0
  6
DASHED
 62
     7
100
AcDbLine
 10
-5.099854
 20
-16.899994
 30
0.0
 11
0.0
 21
-16.899994
 31
0.0
  0
LINE
  5
34
100
AcDbEntity
  8
0
390
0
  6
DASHED
 62
     7
100
AcDbLine
 10
-5.099854
 20
16.900009
 30
0.0
 11
0.0
 21
16.900009
 31
0.0
  0
LINE
  5
35
100
AcDbEntity
  8
0
390
0
  6
DASHED
 62
     7
100
AcDbLine
 10
-16.822678
 20
8.660263
 30
0.0
 11
-5.099869
 21
8.660263
 31
0.0
  0
LINE
  5
36
100
AcDbEntity
  8
0
390
0
  6
DASHED
 62
     7
100
AcDbLine
 10
-18.099854
 20
15.0
 30
0.0
 11
-18.099854
 21
-15.0
 31
0.0
  0
LINE
  5
37
100
AcDbEntity
  8
0
390
0
  6
DASHED
 62
     7
100
AcDbLine
 10
-16.822678
 20
17.320496
 30
0.0
 11
-5.099869
 21
17.320496
 31
0.0
  0
LINE
  5
38
100
AcDbEntity
  8
0
390
0
  6
DASHED
 62
     7
100
AcDbLine
 10
-18.099843
 20
-14.999978
 30
0.0
 11
-16.822759
 21
-17.320307
 31
0.0
  0
LINE
  5
39
100
AcDbEntity
  8
0
390
0
  6
DASHED
 62
     7
100
AcDbLine
 10
-16.822685
 20
-8.660221
 30
0.0
 11
-18.099862
 21
-14.99997
 31
0.0
  0
LINE
  5
3A
100
AcDbEntity
  8
0
390
0
  6
DASHED
 62
     7
100
AcDbLine
 10
-18.099853
 20
14.999987
 30
0.0
 11
-16.822684
 21
8.660276
 31
0.0
  0
LINE
  5
3B
100
AcDbEntity
  8
0
390
0
  6
DASHED
 62
     7
100
AcDbLine
 10
-16.822668
 20
17.320504
 30
0.0
 11
-18.099847
 21
15.000002
 31
0.0
  0
LINE
  5
3C
100
AcDbEntity
  8
0
390
0
  6
DASHED
 62
     7
100
AcDbLine
 10
-5.099869
 20
-17.320496
 30
0.0
 11
-5.099869
 21
17.320496
 31
0.0
  0
LINE
  5
3D
100
AcDbEntity
  8
0
390
0
  6
DASHED
 62
     7
100
AcDbLine
 10
-16.822678
 20
-8.660248
 30
0.0
 11
-5.099869
 21
-8.660248
 31
0.0
  0
LINE
  5
3E
100
AcDbEntity
  8
0
390
0
  6
DASHED
 62
     7
100
AcDbLine
 10
-16.822678
 20
-17.320496
 30
0.0
 11
-5.099869
 21
-17.320496
 31
0.0
  0
ENDBLK
  5
3F
100
AcDbEntity
  8
0
370
    -2
390
0
100
AcDbBlockEnd
  0
BLOCK
  5
40
100
AcDbEntity
  8
0
370
    -2
390
0
100
AcDbBlockBegin
  2
M20-T.HB
 70
     0
 10
0.0
 20
0.0
 30
0.0
  3
M20-T.HB
  1

  0
CIRCLE
  5
41
100
AcDbEntity
  8
0
390
0
  6
CONTINUOUS
 62
   151
100
AcDbCircle
 10
0.0
 20
0.0
 30
0.0
 40
15.0
  0
LINE
  5
42
100
AcDbEntity
  8
0
390
0
  6
CONTINUOUS
 62
   151
100
AcDbLine
 10
-15.000014
 20
-8.6604
 30
0.0
 11
-15.000014
 21
8.660156
 31
0.0
  0
LINE
  5
43
100
AcDbEntity
  8
0
390
0
  6
CONTINUOUS
 62
   151
100
AcDbLine
 10
14.999985
 20
-8.6604
 30
0.0
 11
14.999985
 21
8.660156
 31
0.0
  0
LINE
  5
44
100
AcDbEntity
  8
0
390
0
  6
CONTINUOUS
 62
   151
100
AcDbLine
 10
-15.000045
 20
-8.660358
 30
0.0
 11
-0.000057
 21
-17.320604
 31
0.0
  0
LINE
  5
45
100
AcDbEntity
  8
0
390
0
  6
CONTINUOUS
 62
   151
100
AcDbLine
 10
-0.000047
 20
17.320403
 30
0.0
 11
14.999954
 21
8.660149
 31
0.0
  0
LINE
  5
46
100
AcDbEntity
  8
0
390
0
  6
CONTINUOUS
 62
   151
100
AcDbLine
 10
0.000007
 20
-17.320518
 30
0.0
 11
14.999995
 21
-8.660272
 31
0.0
  0
LINE
  5
47
100
AcDbEntity
  8
0
390
0
  6
CONTINUOUS
 62
   151
100
AcDbLine
 10
-15.000004
 20
8.660235
 30
0.0
 11
-0.000002
 21
17.320489
 31
0.0
  0
LINE
  5
49
100
AcDbEntity
  8
0
390
0
  6
CENTER
 62
     7
100
AcDbLine
 10
0.0
 20
22.993896
 30
0.0
 11
0.0
 21
-24.928711
 31
0.0
  0
ENDBLK
  5
4A
100
AcDbEntity
  8
0
370
    -2
390
0
100
AcDbBlockEnd
  0
BLOCK
  5
4B
100
AcDbEntity
  8
0
370
    -2
390
0
100
AcDbBlockBegin
  2
M8-S-W.SB
 70
     0
 10
0.0
 20
0.0
 30
0.0
  3
M8-S-W.SB
  1

  0
LINE
  5
4C
100
AcDbEntity
  8
0
390
0
  6
CONTINUOUS
 62
   151
100
AcDbLine
 10
0.000051
 20
-1.000026
 30
0.0
 11
2.000053
 21
0.999976
 31
0.0
  0
LINE
  5
4D
100
AcDbEntity
  8
0
390
0
  6
CONTINUOUS
 62
   151
100
AcDbLine
 10
0.0
 20
-7.700195
 30
0.0
 11
2.0
 21
-7.700195
 31
0.0
  0
LINE
  5
4E
100
AcDbEntity
  8
0
390
0
  6
CONTINUOUS
 62
   151
100
AcDbLine
 10
0.0
 20
7.699951
 30
0.0
 11
2.0
 21
7.699951
 31
0.0
  0
LINE
  5
4F
100
AcDbEntity
  8
0
390
0
  6
CONTINUOUS
 62
     7
100
AcDbLine
 10
5.772607
 20
6.008511
 30
0.0
 11
8.860889
 21
4.225492
 31
0.0
  0
LINE
  5
50
100
AcDbEntity
  8
0
390
0
  6
CONTINUOUS
 62
     7
100
AcDbLine
 10
3.612227
 20
4.190759
 30
0.0
 11
6.775764
 21
6.017228
 31
0.0
  0
LINE
  5
51
100
AcDbEntity
  8
0
390
0
  6
CONTINUOUS
 62
     7
100
AcDbLine
 10
3.583178
 20
2.653777
 30
0.0
 11
7.048588
 21
0.653022
 31
0.0
  0
LINE
  5
52
100
AcDbEntity
  8
0
390
0
  6
CONTINUOUS
 62
     7
100
AcDbLine
 10
5.447639
 20
0.631634
 30
0.0
 11
8.823812
 21
2.580868
 31
0.0
  0
LINE
  5
53
100
AcDbEntity
  8
0
390
0
  6
CONTINUOUS
 62
     7
100
AcDbLine
 10
3.63776
 20
4.931665
 30
0.0
 11
8.887483
 21
1.900736
 31
0.0
  0
LINE
  5
54
100
AcDbEntity
  8
0
390
0
  6
CONTINUOUS
 62
     7
100
AcDbLine
 10
3.510361
 20
1.822547
 30
0.0
 11
8.761156
 21
4.854094
 31
0.0
  0
LINE
  5
55
100
AcDbEntity
  8
0
390
0
  6
CONTINUOUS
 62
   151
100
AcDbLine
 10
9.499961
 20
-6.500072
 30
0.0
 11
9.99996
 21
-5.634047
 31
0.0
  0
LINE
  5
56
100
AcDbEntity
  8
0
390
0
  6
CONTINUOUS
 62
   151
100
AcDbLine
 10
9.500004
 20
6.499988
 30
0.0
 11
10.000004
 21
5.633962
 31
0.0
  0
LINE
  5
57
100
AcDbEntity
  8
0
390
0
  6
CONTINUOUS
 62
   151
100
AcDbLine
 10
9.5
 20
-6.5
 30
0.0
 11
2.0
 21
-6.5
 31
0.0
  0
LINE
  5
58
100
AcDbEntity
  8
0
390
0
  6
CONTINUOUS
 62
   151
100
AcDbLine
 10
9.5
 20
6.5
 30
0.0
 11
9.5
 21
-6.5
 31
0.0
  0
LINE
  5
59
100
AcDbEntity
  8
0
390
0
  6
CONTINUOUS
 62
   151
100
AcDbLine
 10
2.0
 20
6.5
 30
0.0
 11
9.5
 21
6.5
 31
0.0
  0
LINE
  5
5A
100
AcDbEntity
  8
0
390
0
  6
CONTINUOUS
 62
   151
100
AcDbLine
 10
10.0
 20
5.633789
 30
0.0
 11
10.0
 21
-5.634033
 31
0.0
  0
LINE
  5
5B
100
AcDbEntity
  8
0
390
0
  6
CONTINUOUS
 62
   151
100
AcDbLine
 10
2.0
 20
7.699951
 30
0.0
 11
2.0
 21
-7.700195
 31
0.0
  0
ENDBLK
  5
5C
100
AcDbEntity
  8
0
370
    -2
390
0
100
AcDbBlockEnd
  0
BLOCK
  5
5D
100
AcDbEntity
  8
0
370
    -2
390
0
100
AcDbBlockBegin
  2
M8-T-W.SB
 70
     0
 10
0.0
 20
0.0
 30
0.0
  3
M8-T-W.SB
  1

  0
LINE
  5
5E
100
AcDbEntity
  8
0
390
0
  6
CONTINUOUS
 62
   151
100
AcDbLine
 10
1.750013
 20
3.031066
 30
0.0
 11
3.500016
 21
-0.00002
 31
0.0
  0
LINE
  5
5F
100
AcDbEntity
  8
0
390
0
  6
CONTINUOUS
 62
   151
100
AcDbLine
 10
1.75
 20
3.031006
 30
0.0
 11
-1.75
 21
3.031006
 31
0.0
  0
LINE
  5
60
100
AcDbEntity
  8
0
390
0
  6
CONTINUOUS
 62
   151
100
AcDbLine
 10
-1.750042
 20
3.031033
 30
0.0
 11
-3.500037
 21
-0.00004
 31
0.0
  0
LINE
  5
61
100
AcDbEntity
  8
0
390
0
  6
CONTINUOUS
 62
   151
100
AcDbLine
 10
-1.750013
 20
-3.031114
 30
0.0
 11
-3.499997
 21
-0.000017
 31
0.0
  0
LINE
  5
62
100
AcDbEntity
  8
0
390
0
  6
CONTINUOUS
 62
   151
100
AcDbLine
 10
-1.750015
 20
-3.03125
 30
0.0
 11
1.749985
 21
-3.03125
 31
0.0
  0
LINE
  5
63
100
AcDbEntity
  8
0
390
0
  6
CONTINUOUS
 62
   151
100
AcDbLine
 10
1.749978
 20
-3.031119
 30
0.0
 11
3.499985
 21
-0.000036
 31
0.0
  0
LINE
  5
64
100
AcDbEntity
  8
0
390
0
  6
CONTINUOUS
 62
   151
100
AcDbLine
 10
7.699997
 20
0.0
 30
0.0
 11
6.5
 21
0.0
 31
0.0
  0
CIRCLE
  5
65
100
AcDbEntity
  8
0
390
0
  6
CONTINUOUS
 62
   151
100
AcDbCircle
 10
0.0
 20
0.0
 30
0.0
 40
6.5
  0
CIRCLE
  5
66
100
AcDbEntity
  8
0
390
0
  6
CONTINUOUS
 62
   151
100
AcDbCircle
 10
0.0
 20
0.0
 30
0.0
 40
5.634
  0
CIRCLE
  5
67
100
AcDbEntity
  8
0
390
0
  6
CONTINUOUS
 62
   151
100
AcDbCircle
 10
0.0
 20
0.0
 30
0.0
 40
7.7
  0
ENDBLK
  5
68
100
AcDbEntity
  8
0
370
    -2
390
0
100
AcDbBlockEnd
  0
BLOCK
  5
2A
100
AcDbEntity
  8
0
370
    -2
390
0
  6
ByBlock
 62
     0
100
AcDbBlockBegin
  2
_OPEN30
 70
     2
 10
0.0
 20
0.0
 30
0.0
  3
_OPEN30
  1

  0
LINE
  5
2B
100
AcDbEntity
  8
0
370
    -2
390
0
  6
ByBlock
 62
     0
100
AcDbLine
 10
-1.0
 20
0.267949
 30
0.0
 11
0.0
 21
0.0
 31
0.0
  0
LINE
  5
2C
100
AcDbEntity
  8
0
370
    -2
390
0
  6
ByBlock
 62
     0
100
AcDbLine
 10
0.0
 20
0.0
 30
0.0
 11
-1.0
 21
-0.267949
 31
0.0
  0
LINE
  5
2D
100
AcDbEntity
  8
0
370
    -2
390
0
  6
ByBlock
 62
     0
100
AcDbLine
 10
0.0
 20
0.0
 30
0.0
 11
-1.0
 21
0.0
 31
0.0
  0
ENDBLK
  5
2E
100
AcDbEntity
  8
0
370
    -2
390
0
  6
ByBlock
 62
     0
100
AcDbBlockEnd
  0
ENDSEC
  0
SECTION
  2
ENTITIES
  0
INSERT
  5
69
100
AcDbEntity
  8
LY_3
390
0
  6
ByBlock
100
AcDbBlockReference
  2
M20-T.HB
 10
16.220602
 20
396.510532
 30
0.0
 42
-1.0
 50
113.999978
  0
INSERT
  5
6A
100
AcDbEntity
  8
LY_3
390
0
  6
ByBlock
100
AcDbBlockReference
  2
M20-T.HB
 10
-49.771373
 20
487.340767
 30
0.0
 42
-1.0
 50
137.999978
  0
INSERT
  5
6B
100
AcDbEntity
  8
LY_3
390
0
  6
ByBlock
100
AcDbBlockReference
  2
M20-T.HB
 10
-147.002028
 20
543.476957
 30
0.0
 42
-1.0
 50
161.999978
  0
INSERT
  5
6C
100
AcDbEntity
  8
LY_3
390
0
  6
ByBlock
100
AcDbBlockReference
  2
M20-T.HB
 10
-258.659298
 20
555.212652
 30
0.0
 42
-1.0
 50
185.999978
  0
INSERT
  5
6D
100
AcDbEntity
  8
LY_3
390
0
  6
ByBlock
100
AcDbBlockReference
  2
M20-T.HB
 10
-365.436623
 20
520.518642
 30
0.0
 42
-1.0
 50
209.999978
  0
INSERT
  5
6E
100
AcDbEntity
  8
LY_3
390
0
  6
ByBlock
100
AcDbBlockReference
  2
M20-T.HB
 10
-448.871243
 20
445.393832
 30
0.0
 42
-1.0
 50
233.999978
  0
INSERT
  5
6F
100
AcDbEntity
  8
LY_3
390
0
  6
ByBlock
100
AcDbBlockReference
  2
M20-T.HB
 10
-494.536543
 20
342.827987
 30
0.0
 42
-1.0
 50
257.999978
  0
INSERT
  5
70
100
AcDbEntity
  8
LY_3
390
0
  6
ByBlock
100
AcDbBlockReference
  2
M20-T.HB
 10
-494.536588
 20
230.555677
 30
0.0
 42
-1.0
 50
281.999978
  0
INSERT
  5
71
100
AcDbEntity
  8
LY_3
390
0
  6
ByBlock
100
AcDbBlockReference
  2
M20-T.HB
 10
-448.871363
 20
127.989797
 30
0.0
 42
-1.0
 50
305.999978
  0
INSERT
  5
72
100
AcDbEntity
  8
LY_3
390
0
  6
ByBlock
100
AcDbBlockReference
  2
M20-T.HB
 10
-365.436803
 20
52.864922
 30
0.0
 42
-1.0
 50
329.999978
  0
INSERT
  5
73
100
AcDbEntity
  8
LY_3
390
0
  6
ByBlock
100
AcDbBlockReference
  2
M20-T.HB
 10
-258.659498
 20
18.170832
 30
0.0
 42
-1.0
 50
353.999978
  0
INSERT
  5
74
100
AcDbEntity
  8
LY_3
390
0
  6
ByBlock
100
AcDbBlockReference
  2
M20-T.HB
 10
-147.002223
 20
29.906442
 30
0.0
 42
-1.0
 50
17.999978
  0
INSERT
  5
75
100
AcDbEntity
  8
LY_3
390
0
  6
ByBlock
100
AcDbBlockReference
  2
M20-T.HB
 10
-49.771528
 20
86.042557
 30
0.0
 42
-1.0
 50
41.999978
  0
INSERT
  5
76
100
AcDbEntity
  8
LY_3
390
0
  6
ByBlock
100
AcDbBlockReference
  2
M20-T.HB
 10
16.220517
 20
176.872742
 30
0.0
 42
-1.0
 50
65.999978
  0
INSERT
  5
77
100
AcDbEntity
  8
LY_3
390
0
  6
ByBlock
100
AcDbBlockReference
  2
M20-S1-W.HB
 10
-500.436838
 20
-414.077128
 30
0.0
 42
-1.0
 50
90.0
  0
INSERT
  5
78
100
AcDbEntity
  8
LY_3
390
0
  6
ByBlock
100
AcDbBlockReference
  2
M8-S-W.SB
 10
-437.936898
 20
-159.777078
 30
0.0
 50
90.0
  0
INSERT
  5
79
100
AcDbEntity
  8
LY_3
390
0
  6
ByBlock
100
AcDbBlockReference
  2
M20-S1-W.HB
 10
-500.436838
 20
-167.077008
 30
0.0
 50
270.0
  0
INSERT
  5
7A
100
AcDbEntity
  8
LY_3
390
0
  6
ByBlock
100
AcDbBlockReference
  2
M8-S-W.SB
 10
-22.936773
 20
-159.776958
 30
0.0
 50
90.0
  0
INSERT
  5
7B
100
AcDbEntity
  8
LY_3
390
0
  6
ByBlock
100
AcDbBlockReference
  2
M8-T-W.SB
 10
-230.436733
 20
494.191792
 30
0.0
  0
INSERT
  5
7C
100
AcDbEntity
  8
LY_3
390
0
  6
ByBlock
100
AcDbBlockReference
  2
M8-T-W.SB
 10
-437.936833
 20
286.691772
 30
0.0
 50
90.0
  0
INSERT
  5
7D
100
AcDbEntity
  8
LY_3
390
0
  6
ByBlock
100
AcDbBlockReference
  2
M8-T-W.SB
 10
-230.436813
 20
79.191672
 30
0.0
 50
180.0
  0
INSERT
  5
7E
100
AcDbEntity
  8
LY_3
390
0
  6
ByBlock
100
AcDbBlockReference
  2
M8-T-W.SB
 10
-22.936713
 20
286.691692
 30
0.0
 50
270.0
  0
INSERT
  5
7F
100
AcDbEntity
  8
LY_3
390
0
  6
ByBlock
100
AcDbBlockReference
  2
M8-S-W.SB
 10
-22.936773
 20
-421.377178
 30
0.0
 50
270.0
  0
INSERT
  5
80
100
AcDbEntity
  8
LY_3
390
0
  6
ByBlock
100
AcDbBlockReference
  2
M8-S-W.SB
 10
-437.936898
 20
-421.377058
 30
0.0
 50
270.0
  0
INSERT
  5
81
100
AcDbEntity
  8
LY_3
390
0
  6
ByBlock
100
AcDbBlockReference
  2
M20-S1-W.HB
 10
39.563162
 20
-167.077008
 30
0.0
 50
270.0
  0
INSERT
  5
82
100
AcDbEntity
  8
LY_3
390
0
  6
ByBlock
100
AcDbBlockReference
  2
M20-S1-W.HB
 10
39.563162
 20
-414.077128
 30
0.0
 42
-1.0
 50
90.0
  0
MTEXT
  5
83
100
AcDbEntity
  8
LY_3
390
0
  6
CONTINUOUS
 62
     7
100
AcDbMText
 10
320.643167
 20
673.632352
 30
0.0
 40
23.625
 41
0.0
 71
     1
 72
     1
  1
\W0.833;\A1;ＣＡＭ　ＣＬＵＴＣＨ
 73
     1
 44
0.9
  0
ARC
  5
84
100
AcDbEntity
  8
LY_3
390
0
  6
CONTINUOUS
 62
   151
100
AcDbCircle
 10
-257.036838
 20
422.691732
 30
0.0
 40
1.4
100
AcDbArc
 50
90.0
 51
180.0
  0
ARC
  5
85
100
AcDbEntity
  8
LY_3
390
0
  6
CONTINUOUS
 62
   151
100
AcDbCircle
 10
-203.836838
 20
422.691732
 30
0.0
 40
1.4
100
AcDbArc
 50
0.0
 51
90.0
  0
LINE
  5
86
100
AcDbEntity
  8
LY_3
390
0
  6
CONTINUOUS
 62
   151
100
AcDbLine
 10
-202.436838
 20
422.691732
 30
0.0
 11
-202.436838
 21
408.515372
 31
0.0
  0
LINE
  5
87
100
AcDbEntity
  8
LY_3
390
0
  6
CONTINUOUS
 62
   151
100
AcDbLine
 10
-258.436838
 20
422.691732
 30
0.0
 11
-258.436838
 21
408.515372
 31
0.0
  0
LINE
  5
88
100
AcDbEntity
  8
LY_3
390
0
  6
CONTINUOUS
 62
   151
100
AcDbLine
 10
-257.036838
 20
424.091732
 30
0.0
 11
-203.836838
 21
424.091732
 31
0.0
  0
ARC
  5
89
100
AcDbEntity
  8
LY_3
390
0
  6
CONTINUOUS
 62
   151
100
AcDbCircle
 10
-230.436838
 20
286.691732
 30
0.0
 40
125.0
100
AcDbArc
 50
102.944082
 51
77.055918
  0
LINE
  5
8A
100
AcDbEntity
  8
LY_3
390
0
  6
CENTER
 62
     7
100
AcDbLine
 10
99.563162
 20
-445.576948
 30
0.0
 11
99.563162
 21
-135.577068
 31
0.0
  0
LINE
  5
8B
100
AcDbEntity
  8
LY_3
390
0
  6
CONTINUOUS
 62
   151
100
AcDbLine
 10
129.563162
 20
-414.823358
 30
0.0
 11
129.563162
 21
-414.077128
 31
0.0
  0
LINE
  5
8C
100
AcDbEntity
  8
LY_3
390
0
  6
CONTINUOUS
 62
   151
100
AcDbLine
 10
154.563162
 20
-348.077008
 30
0.0
 11
154.563162
 21
-414.077128
 31
0.0
  0
LINE
  5
8D
100
AcDbEntity
  8
LY_3
390
0
  6
CONTINUOUS
 62
   151
100
AcDbLine
 10
154.563162
 20
-348.077008
 30
0.0
 11
44.563162
 21
-348.077008
 31
0.0
  0
LINE
  5
8E
100
AcDbEntity
  8
LY_3
390
0
  6
CONTINUOUS
 62
   151
100
AcDbLine
 10
69.563162
 20
-414.823358
 30
0.0
 11
69.563162
 21
-414.077128
 31
0.0
  0
LINE
  5
8F
100
AcDbEntity
  8
LY_3
390
0
  6
CONTINUOUS
 62
   151
100
AcDbLine
 10
44.563162
 20
-233.077008
 30
0.0
 11
44.563162
 21
-210.077008
 31
0.0
  0
LINE
  5
90
100
AcDbEntity
  8
LY_3
390
0
  6
CONTINUOUS
 62
   151
100
AcDbLine
 10
154.563162
 20
-167.077008
 30
0.0
 11
154.563162
 21
-233.077008
 31
0.0
  0
CIRCLE
  5
91
100
AcDbEntity
  8
LY_3
390
0
  6
CENTER
 62
     7
100
AcDbCircle
 10
-230.436713
 20
286.691732
 30
0.0
 40
270.0
  0
CIRCLE
  5
92
100
AcDbEntity
  8
LY_3
390
0
  6
CONTINUOUS
 62
   151
100
AcDbCircle
 10
99.563162
 20
41.691732
 30
0.0
 40
30.0
  0
LINE
  5
93
100
AcDbEntity
  8
LY_3
390
0
  6
CONTINUOUS
 62
   151
100
AcDbLine
 10
154.563162
 20
41.691732
 30
0.0
 11
154.563162
 21
531.691732
 31
0.0
  0
LINE
  5
94
100
AcDbEntity
  8
LY_3
390
0
  6
CONTINUOUS
 62
   151
100
AcDbLine
 10
-230.436838
 20
-13.308208
 30
0.0
 11
80.938607
 21
-13.308208
 31
0.0
  0
LINE
  5
95
100
AcDbEntity
  8
LY_3
390
0
  6
CONTINUOUS
 62
   151
100
AcDbLine
 10
-230.436838
 20
586.691672
 30
0.0
 11
99.481227
 21
586.691672
 31
0.0
  0
CIRCLE
  5
96
100
AcDbEntity
  8
LY_3
390
0
  6
CONTINUOUS
 62
   151
100
AcDbCircle
 10
99.563162
 20
531.691732
 30
0.0
 40
30.0
  0
LINE
  5
97
100
AcDbEntity
  8
LY_3
390
0
  6
CONTINUOUS
 62
   151
100
AcDbLine
 10
-530.436898
 20
-389.077128
 30
0.0
 11
-530.436898
 21
-414.077128
 31
0.0
  0
LINE
  5
98
100
AcDbEntity
  8
LY_3
390
0
  6
CONTINUOUS
 62
   151
100
AcDbLine
 10
-530.436898
 20
-409.077128
 30
0.0
 11
-530.436898
 21
-389.077128
 31
0.0
  0
LINE
  5
99
100
AcDbEntity
  8
LY_3
390
0
  6
CONTINUOUS
 62
   151
100
AcDbLine
 10
-135.436838
 20
-389.077128
 30
0.0
 11
-530.436898
 21
-389.077128
 31
0.0
  0
LINE
  5
9A
100
AcDbEntity
  8
LY_3
390
0
  6
CONTINUOUS
 62
   151
100
AcDbLine
 10
-527.436248
 20
-389.076733
 30
0.0
 11
-530.436228
 21
-386.076753
 31
0.0
  0
LINE
  5
9B
100
AcDbEntity
  8
LY_3
390
0
  6
CONTINUOUS
 62
   151
100
AcDbLine
 10
-135.436838
 20
-192.077008
 30
0.0
 11
-530.436898
 21
-192.077008
 31
0.0
  0
LINE
  5
9C
100
AcDbEntity
  8
LY_3
390
0
  6
CONTINUOUS
 62
   151
100
AcDbLine
 10
-450.436838
 20
-160.277078
 30
0.0
 11
-450.436838
 21
-167.077008
 31
0.0
  0
LINE
  5
9D
100
AcDbEntity
  8
LY_3
390
0
  6
CONTINUOUS
 62
   151
100
AcDbLine
 10
-530.436898
 20
-192.077008
 30
0.0
 11
-530.436898
 21
-167.077008
 31
0.0
  0
LINE
  5
9E
100
AcDbEntity
  8
LY_3
390
0
  6
CONTINUOUS
 62
   151
100
AcDbLine
 10
-10.936838
 20
-159.777078
 30
0.0
 11
-449.936838
 21
-159.777078
 31
0.0
  0
LINE
  5
9F
100
AcDbEntity
  8
LY_3
390
0
  6
CONTINUOUS
 62
   151
100
AcDbLine
 10
-530.436898
 20
-172.077008
 30
0.0
 11
-530.436898
 21
-192.077008
 31
0.0
  0
LINE
  5
A0
100
AcDbEntity
  8
LY_3
390
0
  6
CONTINUOUS
 62
   151
100
AcDbLine
 10
154.563162
 20
-167.077008
 30
0.0
 11
-530.436898
 21
-167.077008
 31
0.0
  0
LINE
  5
A1
100
AcDbEntity
  8
LY_3
390
0
  6
DASHED
 62
     7
100
AcDbLine
 10
-355.436838
 20
-402.077243
 30
0.0
 11
-355.436838
 21
-179.076893
 31
0.0
  0
LINE
  5
A2
100
AcDbEntity
  8
LY_3
390
0
  6
DASHED
 62
     7
100
AcDbLine
 10
-105.436878
 20
-402.077243
 30
0.0
 11
-105.436878
 21
-179.076893
 31
0.0
  0
LINE
  5
A3
100
AcDbEntity
  8
LY_3
390
0
  6
DASHED
 62
     7
100
AcDbLine
 10
-355.436288
 20
-179.077218
 30
0.0
 11
-358.436138
 21
-176.077368
 31
0.0
  0
LINE
  5
A4
100
AcDbEntity
  8
LY_3
390
0
  6
DASHED
 62
     7
100
AcDbLine
 10
-105.436838
 20
-179.077163
 30
0.0
 11
-102.436983
 21
-176.077313
 31
0.0
  0
LINE
  5
A5
100
AcDbEntity
  8
LY_3
390
0
  6
DASHED
 62
     7
100
AcDbLine
 10
-105.436608
 20
-179.076893
 30
0.0
 11
-355.436838
 21
-179.076893
 31
0.0
  0
CIRCLE
  5
A6
100
AcDbEntity
  8
LY_3
390
0
  6
CONTINUOUS
 62
   151
100
AcDbCircle
 10
-230.436958
 20
149.691672
 30
0.0
 40
5.9
  0
CIRCLE
  5
A7
100
AcDbEntity
  8
LY_3
390
0
  6
CONTINUOUS
 62
     7
100
AcDbCircle
 10
-230.436958
 20
149.691672
 30
0.0
 40
6.999995
  0
CIRCLE
  5
A8
100
AcDbEntity
  8
LY_3
390
0
  6
CONTINUOUS
 62
   151
100
AcDbCircle
 10
-230.436838
 20
286.691732
 30
0.0
 40
161.99994
  0
CIRCLE
  5
A9
100
AcDbEntity
  8
LY_3
390
0
  6
CONTINUOUS
 62
   151
100
AcDbCircle
 10
-230.436838
 20
286.691732
 30
0.0
 40
164.99994
  0
ARC
  5
AA
100
AcDbEntity
  8
LY_3
390
0
  6
CONTINUOUS
 62
   151
100
AcDbCircle
 10
-230.436838
 20
286.691732
 30
0.0
 40
299.99994
100
AcDbArc
 50
90.0
 51
270.0
  0
LINE
  5
AB
100
AcDbEntity
  8
LY_3
390
0
  6
CENTER
 62
     7
100
AcDbLine
 10
-559.700203
 20
286.691732
 30
0.0
 11
1877.563317
 21
286.691732
 31
0.0
  0
LINE
  5
AC
100
AcDbEntity
  8
LY_3
390
0
  6
CENTER
 62
     7
100
AcDbLine
 10
-132.281548
 20
343.361627
 30
0.0
 11
-95.771208
 21
364.440882
 31
0.0
  0
LINE
  5
AD
100
AcDbEntity
  8
LY_3
390
0
  6
CENTER
 62
     7
100
AcDbLine
 10
-365.102378
 20
364.440832
 30
0.0
 11
-328.592103
 21
343.361612
 31
0.0
  0
LINE
  5
AE
100
AcDbEntity
  8
LY_3
390
0
  6
CENTER
 62
     7
100
AcDbLine
 10
-230.436838
 20
-35.367593
 30
0.0
 11
-230.436713
 21
611.691672
 31
0.0
  0
LINE
  5
AF
100
AcDbEntity
  8
LY_3
390
0
  6
CENTER
 62
     7
100
AcDbLine
 10
-230.436838
 20
-451.577128
 30
0.0
 11
-230.436838
 21
-129.577008
 31
0.0
  0
LINE
  5
B0
100
AcDbEntity
  8
LY_3
390
0
  6
CONTINUOUS
 62
   151
100
AcDbLine
 10
-395.436838
 20
-421.577008
 30
0.0
 11
-395.436838
 21
-421.377058
 31
0.0
  0
LINE
  5
B1
100
AcDbEntity
  8
LY_3
390
0
  6
CONTINUOUS
 62
   151
100
AcDbLine
 10
-65.436898
 20
-421.377058
 30
0.0
 11
-65.436898
 21
-421.577233
 31
0.0
  0
LINE
  5
B2
100
AcDbEntity
  8
LY_3
390
0
  6
CONTINUOUS
 62
   151
100
AcDbLine
 10
-65.436898
 20
-159.576778
 30
0.0
 11
-65.436898
 21
-159.777078
 31
0.0
  0
LINE
  5
B3
100
AcDbEntity
  8
LY_3
390
0
  6
CENTER
 62
     7
100
AcDbLine
 10
-437.936898
 20
-416.377058
 30
0.0
 11
-437.936898
 21
-436.377058
 31
0.0
  0
LINE
  5
B4
100
AcDbEntity
  8
LY_3
390
0
  6
CONTINUOUS
 62
   151
100
AcDbLine
 10
-527.436248
 20
-192.077403
 30
0.0
 11
-530.436228
 21
-195.077383
 31
0.0
  0
LINE
  5
B5
100
AcDbEntity
  8
LY_3
390
0
  6
CONTINUOUS
 62
   151
100
AcDbLine
 10
-530.436898
 20
-386.076083
 30
0.0
 11
-530.436898
 21
-195.077383
 31
0.0
  0
LINE
  5
B6
100
AcDbEntity
  8
LY_3
390
0
  6
CONTINUOUS
 62
   151
100
AcDbLine
 10
1852.563317
 20
439.191732
 30
0.0
 11
1852.563317
 21
134.191732
 31
0.0
  0
LINE
  5
B7
100
AcDbEntity
  8
LY_3
390
0
  6
CONTINUOUS
 62
   151
100
AcDbLine
 10
364.563257
 20
-240.577068
 30
0.0
 11
29.563162
 21
-240.577068
 31
0.0
  0
LINE
  5
B8
100
AcDbEntity
  8
LY_3
390
0
  6
CONTINUOUS
 62
   151
100
AcDbLine
 10
29.563162
 20
-340.577068
 30
0.0
 11
29.563162
 21
-240.577068
 31
0.0
  0
LINE
  5
B9
100
AcDbEntity
  8
LY_3
390
0
  6
CONTINUOUS
 62
   151
100
AcDbLine
 10
1852.563317
 20
-354.077008
 30
0.0
 11
1852.563317
 21
-227.077008
 31
0.0
  0
CIRCLE
  5
BA
100
AcDbEntity
  8
LY_3
390
0
  6
CONTINUOUS
 62
   151
100
AcDbCircle
 10
99.563162
 20
-161.077008
 30
0.0
 40
4.0
  0
LINE
  5
BB
100
AcDbEntity
  8
LY_3
390
0
  6
CENTER
 62
     7
100
AcDbLine
 10
90.563162
 20
-161.077008
 30
0.0
 11
108.563162
 21
-161.077008
 31
0.0
  0
LINE
  5
BC
100
AcDbEntity
  8
LY_3
390
0
  6
CONTINUOUS
 62
   151
100
AcDbLine
 10
73.382402
 20
-152.077068
 30
0.0
 11
125.743927
 21
-152.077068
 31
0.0
  0
CIRCLE
  5
BD
100
AcDbEntity
  8
LY_3
390
0
  6
CONTINUOUS
 62
   151
100
AcDbCircle
 10
99.563162
 20
-420.077008
 30
0.0
 40
4.0
  0
LINE
  5
BE
100
AcDbEntity
  8
LY_3
390
0
  6
CENTER
 62
     7
100
AcDbLine
 10
90.563162
 20
-420.077008
 30
0.0
 11
108.563162
 21
-420.077008
 31
0.0
  0
LINE
  5
BF
100
AcDbEntity
  8
LY_3
390
0
  6
CONTINUOUS
 62
   151
100
AcDbLine
 10
73.382402
 20
-429.076948
 30
0.0
 11
125.743927
 21
-429.076948
 31
0.0
  0
CIRCLE
  5
C0
100
AcDbEntity
  8
LY_3
390
0
  6
CENTER
 62
     7
100
AcDbCircle
 10
-230.436773
 20
286.691732
 30
0.0
 40
207.50006
  0
CIRCLE
  5
C1
100
AcDbEntity
  8
LY_3
390
0
  6
CONTINUOUS
 62
   151
100
AcDbCircle
 10
-230.436773
 20
286.691732
 30
0.0
 40
220.0
  0
LINE
  5
C2
100
AcDbEntity
  8
LY_3
390
0
  6
CENTER
 62
     7
100
AcDbLine
 10
-578.236808
 20
-290.577068
 30
0.0
 11
-520.436898
 21
-290.577068
 31
0.0
  0
LINE
  5
C3
100
AcDbEntity
  8
LY_3
390
0
  6
CONTINUOUS
 62
   151
100
AcDbLine
 10
95.563162
 20
561.356052
 30
0.0
 11
95.563162
 21
562.930377
 31
0.0
  0
ARC
  5
C4
100
AcDbEntity
  8
LY_3
390
0
  6
CONTINUOUS
 62
   151
100
AcDbCircle
 10
99.563162
 20
571.191732
 30
0.0
 40
7.5
100
AcDbArc
 50
314.07921
 51
225.92079
  0
ARC
  5
C5
100
AcDbEntity
  8
LY_3
390
0
  6
CONTINUOUS
 62
   151
100
AcDbCircle
 10
99.563162
 20
571.191732
 30
0.0
 40
3.5
100
AcDbArc
 50
282.839588
 51
257.160412
  0
ARC
  5
C6
100
AcDbEntity
  8
LY_3
390
0
  6
CONTINUOUS
 62
   151
100
AcDbCircle
 10
91.563162
 20
562.930377
 30
0.0
 40
4.0
100
AcDbArc
 50
0.0
 51
45.92079
  0
LINE
  5
C7
100
AcDbEntity
  8
LY_3
390
0
  6
CONTINUOUS
 62
   151
100
AcDbLine
 10
99.563162
 20
561.691732
 30
0.0
 11
99.563162
 21
566.804247
 31
0.0
  0
ARC
  5
C8
100
AcDbEntity
  8
LY_3
390
0
  6
CONTINUOUS
 62
   151
100
AcDbCircle
 10
98.563162
 20
566.804247
 30
0.0
 40
1.0
100
AcDbArc
 50
0.0
 51
77.160412
  0
LINE
  5
C9
100
AcDbEntity
  8
LY_3
390
0
  6
CONTINUOUS
 62
   151
100
AcDbLine
 10
103.563162
 20
561.356052
 30
0.0
 11
103.563162
 21
562.930377
 31
0.0
  0
ARC
  5
CA
100
AcDbEntity
  8
LY_3
390
0
  6
CONTINUOUS
 62
   151
100
AcDbCircle
 10
100.563162
 20
566.804247
 30
0.0
 40
1.0
100
AcDbArc
 50
102.839588
 51
180.0
  0
ARC
  5
CB
100
AcDbEntity
  8
LY_3
390
0
  6
CONTINUOUS
 62
   151
100
AcDbCircle
 10
107.563162
 20
562.930377
 30
0.0
 40
4.0
100
AcDbArc
 50
134.07921
 51
180.0
  0
LINE
  5
CC
100
AcDbEntity
  8
LY_3
390
0
  6
CONTINUOUS
 62
   151
100
AcDbLine
 10
99.043357
 20
500.050137
 30
0.0
 11
83.748077
 21
473.557937
 31
0.0
  0
LINE
  5
CD
100
AcDbEntity
  8
LY_3
390
0
  6
CONTINUOUS
 62
   151
100
AcDbLine
 10
95.311302
 20
501.586032
 30
0.0
 11
80.283977
 21
475.557937
 31
0.0
  0
LINE
  5
CE
100
AcDbEntity
  8
LY_3
390
0
  6
CONTINUOUS
 62
   151
100
AcDbLine
 10
80.283977
 20
475.557937
 30
0.0
 11
83.748077
 21
473.557937
 31
0.0
  0
LINE
  5
CF
100
AcDbEntity
  8
LY_3
390
0
  6
CONTINUOUS
 62
   151
100
AcDbLine
 10
103.847202
 20
501.586032
 30
0.0
 11
118.874532
 21
475.557937
 31
0.0
  0
ARC
  5
D0
100
AcDbEntity
  8
LY_3
390
0
  6
CONTINUOUS
 62
   151
100
AcDbCircle
 10
103.579252
 20
502.050137
 30
0.0
 40
4.0
100
AcDbArc
 50
185.140659
 51
210.0
  0
LINE
  5
D1
100
AcDbEntity
  8
LY_3
390
0
  6
CONTINUOUS
 62
   151
100
AcDbLine
 10
118.874532
 20
475.557937
 30
0.0
 11
115.410432
 21
473.557937
 31
0.0
  0
LINE
  5
D2
100
AcDbEntity
  8
LY_3
390
0
  6
CONTINUOUS
 62
   151
100
AcDbLine
 10
100.115152
 20
500.050137
 30
0.0
 11
115.410432
 21
473.557937
 31
0.0
  0
ARC
  5
D3
100
AcDbEntity
  8
LY_3
390
0
  6
CONTINUOUS
 62
   151
100
AcDbCircle
 10
95.579252
 20
502.050137
 30
0.0
 40
4.0
100
AcDbArc
 50
330.0
 51
354.859341
  0
ARC
  5
D4
100
AcDbEntity
  8
LY_3
390
0
  6
CONTINUOUS
 62
   151
100
AcDbCircle
 10
93.579252
 20
502.586032
 30
0.0
 40
2.0
100
AcDbArc
 50
330.0
 51
342.078219
  0
ARC
  5
D5
100
AcDbEntity
  8
LY_3
390
0
  6
CONTINUOUS
 62
   151
100
AcDbCircle
 10
105.579252
 20
502.586032
 30
0.0
 40
2.0
100
AcDbArc
 50
197.793963
 51
210.0
  0
ARC
  5
D6
100
AcDbEntity
  8
LY_3
390
0
  6
CONTINUOUS
 62
   151
100
AcDbCircle
 10
107.563162
 20
72.930377
 30
0.0
 40
4.0
100
AcDbArc
 50
134.07921
 51
180.0
  0
ARC
  5
D7
100
AcDbEntity
  8
LY_3
390
0
  6
CONTINUOUS
 62
   151
100
AcDbCircle
 10
100.563162
 20
76.804247
 30
0.0
 40
1.0
100
AcDbArc
 50
102.839588
 51
180.0
  0
LINE
  5
D8
100
AcDbEntity
  8
LY_3
390
0
  6
CONTINUOUS
 62
   151
100
AcDbLine
 10
103.563162
 20
71.356052
 30
0.0
 11
103.563162
 21
72.930377
 31
0.0
  0
ARC
  5
D9
100
AcDbEntity
  8
LY_3
390
0
  6
CONTINUOUS
 62
   151
100
AcDbCircle
 10
98.563162
 20
76.804247
 30
0.0
 40
1.0
100
AcDbArc
 50
0.0
 51
77.160412
  0
LINE
  5
DA
100
AcDbEntity
  8
LY_3
390
0
  6
CONTINUOUS
 62
   151
100
AcDbLine
 10
99.563162
 20
71.691732
 30
0.0
 11
99.563162
 21
76.804247
 31
0.0
  0
ARC
  5
DB
100
AcDbEntity
  8
LY_3
390
0
  6
CONTINUOUS
 62
   151
100
AcDbCircle
 10
91.563162
 20
72.930377
 30
0.0
 40
4.0
100
AcDbArc
 50
0.0
 51
45.92079
  0
ARC
  5
DC
100
AcDbEntity
  8
LY_3
390
0
  6
CONTINUOUS
 62
   151
100
AcDbCircle
 10
99.563162
 20
81.191732
 30
0.0
 40
3.5
100
AcDbArc
 50
282.839588
 51
257.160412
  0
ARC
  5
DD
100
AcDbEntity
  8
LY_3
390
0
  6
CONTINUOUS
 62
   151
100
AcDbCircle
 10
99.563162
 20
81.191732
 30
0.0
 40
7.5
100
AcDbArc
 50
314.07921
 51
225.92079
  0
LINE
  5
DE
100
AcDbEntity
  8
LY_3
390
0
  6
CONTINUOUS
 62
   151
100
AcDbLine
 10
95.563162
 20
71.356052
 30
0.0
 11
95.563162
 21
72.930377
 31
0.0
  0
ARC
  5
DF
100
AcDbEntity
  8
LY_3
390
0
  6
CONTINUOUS
 62
   151
100
AcDbCircle
 10
105.579252
 20
12.586032
 30
0.0
 40
2.0
100
AcDbArc
 50
197.793963
 51
210.0
  0
ARC
  5
E0
100
AcDbEntity
  8
LY_3
390
0
  6
CONTINUOUS
 62
   151
100
AcDbCircle
 10
93.579252
 20
12.586032
 30
0.0
 40
2.0
100
AcDbArc
 50
330.0
 51
342.078219
  0
ARC
  5
E1
100
AcDbEntity
  8
LY_3
390
0
  6
CONTINUOUS
 62
   151
100
AcDbCircle
 10
95.579252
 20
12.050137
 30
0.0
 40
4.0
100
AcDbArc
 50
330.0
 51
354.859341
  0
LINE
  5
E2
100
AcDbEntity
  8
LY_3
390
0
  6
CONTINUOUS
 62
   151
100
AcDbLine
 10
100.115152
 20
10.050137
 30
0.0
 11
115.410432
 21
-16.442063
 31
0.0
  0
LINE
  5
E3
100
AcDbEntity
  8
LY_3
390
0
  6
CONTINUOUS
 62
   151
100
AcDbLine
 10
118.874532
 20
-14.442063
 30
0.0
 11
115.410432
 21
-16.442063
 31
0.0
  0
ARC
  5
E4
100
AcDbEntity
  8
LY_3
390
0
  6
CONTINUOUS
 62
   151
100
AcDbCircle
 10
103.579252
 20
12.050137
 30
0.0
 40
4.0
100
AcDbArc
 50
185.140659
 51
210.0
  0
LINE
  5
E5
100
AcDbEntity
  8
LY_3
390
0
  6
CONTINUOUS
 62
   151
100
AcDbLine
 10
103.847202
 20
11.586032
 30
0.0
 11
118.874532
 21
-14.442063
 31
0.0
  0
LINE
  5
E6
100
AcDbEntity
  8
LY_3
390
0
  6
CONTINUOUS
 62
   151
100
AcDbLine
 10
80.283977
 20
-14.442063
 30
0.0
 11
83.748077
 21
-16.442063
 31
0.0
  0
LINE
  5
E7
100
AcDbEntity
  8
LY_3
390
0
  6
CONTINUOUS
 62
   151
100
AcDbLine
 10
95.311302
 20
11.586032
 30
0.0
 11
80.283977
 21
-14.442063
 31
0.0
  0
LINE
  5
E8
100
AcDbEntity
  8
LY_3
390
0
  6
CONTINUOUS
 62
   151
100
AcDbLine
 10
99.043357
 20
10.050137
 30
0.0
 11
83.748077
 21
-16.442063
 31
0.0
  0
LINE
  5
E9
100
AcDbEntity
  8
LY_3
390
0
  6
CONTINUOUS
 62
   151
100
AcDbLine
 10
154.563162
 20
-233.077008
 30
0.0
 11
44.563162
 21
-233.077008
 31
0.0
  0
LINE
  5
EA
100
AcDbEntity
  8
LY_3
390
0
  6
CONTINUOUS
 62
   151
100
AcDbLine
 10
154.563162
 20
-414.077128
 30
0.0
 11
-530.436898
 21
-414.077128
 31
0.0
  0
LINE
  5
EB
100
AcDbEntity
  8
LY_3
390
0
  6
DASHED
 62
     7
100
AcDbLine
 10
-380.436838
 20
-175.277068
 30
0.0
 11
-380.436838
 21
-155.077008
 31
0.0
  0
CIRCLE
  5
EC
100
AcDbEntity
  8
LY_3
390
0
  6
CONTINUOUS
 62
   151
100
AcDbCircle
 10
-230.436773
 20
286.691732
 30
0.0
 40
150.0
  0
LINE
  5
ED
100
AcDbEntity
  8
LY_3
390
0
  6
DASHED
 62
     7
100
AcDbLine
 10
-81.236838
 20
-176.077068
 30
0.0
 11
-379.636838
 21
-176.077068
 31
0.0
  0
LINE
  5
EE
100
AcDbEntity
  8
LY_3
390
0
  6
DASHED
 62
     7
100
AcDbLine
 10
-80.436838
 20
-175.277068
 30
0.0
 11
-80.436838
 21
-155.077008
 31
0.0
  0
LINE
  5
EF
100
AcDbEntity
  8
LY_3
390
0
  6
DASHED
 62
     7
100
AcDbLine
 10
-380.436838
 20
-405.877068
 30
0.0
 11
-380.436838
 21
-426.077128
 31
0.0
  0
LINE
  5
F0
100
AcDbEntity
  8
LY_3
390
0
  6
DASHED
 62
     7
100
AcDbLine
 10
-81.236838
 20
-405.077068
 30
0.0
 11
-379.636838
 21
-405.077068
 31
0.0
  0
LINE
  5
F1
100
AcDbEntity
  8
LY_3
390
0
  6
DASHED
 62
     7
100
AcDbLine
 10
-355.436288
 20
-402.076918
 30
0.0
 11
-358.436138
 21
-405.076768
 31
0.0
  0
LINE
  5
F2
100
AcDbEntity
  8
LY_3
390
0
  6
DASHED
 62
     7
100
AcDbLine
 10
-105.436838
 20
-402.076973
 30
0.0
 11
-102.436983
 21
-405.076823
 31
0.0
  0
LINE
  5
F3
100
AcDbEntity
  8
LY_3
390
0
  6
DASHED
 62
     7
100
AcDbLine
 10
-80.436838
 20
-405.877068
 30
0.0
 11
-80.436838
 21
-426.077128
 31
0.0
  0
ARC
  5
F4
100
AcDbEntity
  8
LY_3
390
0
  6
CENTER
 62
     7
100
AcDbCircle
 10
-230.436773
 20
286.691732
 30
0.0
 40
137.0
100
AcDbArc
 50
260.823714
 51
279.176134
  0
CIRCLE
  5
F5
100
AcDbEntity
  8
LY_3
390
0
  6
CONTINUOUS
 62
   151
100
AcDbCircle
 10
-111.791148
 20
355.191602
 30
0.0
 40
5.9
  0
CIRCLE
  5
F6
100
AcDbEntity
  8
LY_3
390
0
  6
CONTINUOUS
 62
     7
100
AcDbCircle
 10
-111.791148
 20
355.191602
 30
0.0
 40
6.999995
  0
ARC
  5
F7
100
AcDbEntity
  8
LY_3
390
0
  6
CENTER
 62
     7
100
AcDbCircle
 10
-230.436773
 20
286.691732
 30
0.0
 40
137.0
100
AcDbArc
 50
19.483245
 51
39.176134
  0
CIRCLE
  5
F8
100
AcDbEntity
  8
LY_3
390
0
  6
CONTINUOUS
 62
   151
100
AcDbCircle
 10
-349.082218
 20
355.191917
 30
0.0
 40
5.9
  0
CIRCLE
  5
F9
100
AcDbEntity
  8
LY_3
390
0
  6
CONTINUOUS
 62
     7
100
AcDbCircle
 10
-349.082218
 20
355.191917
 30
0.0
 40
6.999995
  0
ARC
  5
FA
100
AcDbEntity
  8
LY_3
390
0
  6
CENTER
 62
     7
100
AcDbCircle
 10
-230.436773
 20
286.691732
 30
0.0
 40
137.0
100
AcDbArc
 50
140.823714
 51
160.755787
  0
LINE
  5
FB
100
AcDbEntity
  8
LY_3
390
0
  6
CONTINUOUS
 62
   151
100
AcDbLine
 10
-10.936838
 20
-421.377058
 30
0.0
 11
-449.936838
 21
-421.377058
 31
0.0
  0
LINE
  5
FC
100
AcDbEntity
  8
LY_3
390
0
  6
CONTINUOUS
 62
   151
100
AcDbLine
 10
-395.436838
 20
-159.027008
 30
0.0
 11
-394.056653
 21
-155.234988
 31
0.0
  0
ARC
  5
FD
100
AcDbEntity
  8
LY_3
390
0
  6
CONTINUOUS
 62
   151
100
AcDbCircle
 10
-393.116958
 20
-155.577008
 30
0.0
 40
1.0
100
AcDbArc
 50
90.0
 51
160.0
  0
LINE
  5
FE
100
AcDbEntity
  8
LY_3
390
0
  6
CONTINUOUS
 62
   151
100
AcDbLine
 10
-65.436838
 20
-159.577008
 30
0.0
 11
-67.017203
 21
-155.234988
 31
0.0
  0
ARC
  5
FF
100
AcDbEntity
  8
LY_3
390
0
  6
CONTINUOUS
 62
   151
100
AcDbCircle
 10
-67.956893
 20
-155.577008
 30
0.0
 40
1.0
100
AcDbArc
 50
20.0
 51
90.0
  0
LINE
  5
100
100
AcDbEntity
  8
LY_3
390
0
  6
CONTINUOUS
 62
   151
100
AcDbLine
 10
-67.956893
 20
-154.577008
 30
0.0
 11
-393.116958
 21
-154.577008
 31
0.0
  0
LINE
  5
101
100
AcDbEntity
  8
LY_3
390
0
  6
CONTINUOUS
 62
   151
100
AcDbLine
 10
-395.436838
 20
-421.577128
 30
0.0
 11
-393.856468
 21
-425.919148
 31
0.0
  0
ARC
  5
102
100
AcDbEntity
  8
LY_3
390
0
  6
CONTINUOUS
 62
   151
100
AcDbCircle
 10
-392.916778
 20
-425.577128
 30
0.0
 40
1.0
100
AcDbArc
 50
200.0
 51
270.0
  0
LINE
  5
103
100
AcDbEntity
  8
LY_3
390
0
  6
CONTINUOUS
 62
   151
100
AcDbLine
 10
-67.956893
 20
-426.577128
 30
0.0
 11
-392.916778
 21
-426.577128
 31
0.0
  0
LINE
  5
104
100
AcDbEntity
  8
LY_3
390
0
  6
CONTINUOUS
 62
   151
100
AcDbLine
 10
-65.436838
 20
-421.577128
 30
0.0
 11
-67.017203
 21
-425.919148
 31
0.0
  0
ARC
  5
105
100
AcDbEntity
  8
LY_3
390
0
  6
CONTINUOUS
 62
   151
100
AcDbCircle
 10
-67.956893
 20
-425.577128
 30
0.0
 40
1.0
100
AcDbArc
 50
270.0
 51
340.0
  0
LINE
  5
107
100
AcDbEntity
  8
LY_3
390
0
  6
PHANTOM
 62
     7
100
AcDbLine
 10
-532.236808
 20
-304.012068
 30
0.0
 11
-532.236808
 21
-277.142068
 31
0.0
  0
LINE
  5
108
100
AcDbEntity
  8
LY_3
390
0
  6
PHANTOM
 62
     7
100
AcDbLine
 10
-530.436898
 20
-297.077028
 30
0.0
 11
-532.236803
 21
-297.077033
 31
0.0
  0
LINE
  5
109
100
AcDbEntity
  8
LY_3
390
0
  6
PHANTOM
 62
     7
100
AcDbLine
 10
-530.436898
 20
-296.077028
 30
0.0
 11
-532.236803
 21
-296.077033
 31
0.0
  0
LINE
  5
10A
100
AcDbEntity
  8
LY_3
390
0
  6
PHANTOM
 62
     7
100
AcDbLine
 10
-542.236808
 20
-312.577068
 30
0.0
 11
-542.236808
 21
-268.577068
 31
0.0
  0
LINE
  5
10B
100
AcDbEntity
  8
LY_3
390
0
  6
PHANTOM
 62
     7
100
AcDbLine
 10
-568.236808
 20
-312.577068
 30
0.0
 11
-568.236808
 21
-268.577068
 31
0.0
  0
LINE
  5
10C
100
AcDbEntity
  8
LY_3
390
0
  6
PHANTOM
 62
     7
100
AcDbLine
 10
-542.236808
 20
-304.012068
 30
0.0
 11
-532.236803
 21
-290.577068
 31
0.0
  0
LINE
  5
10D
100
AcDbEntity
  8
LY_3
390
0
  6
PHANTOM
 62
     7
100
AcDbLine
 10
-532.236808
 20
-304.012068
 30
0.0
 11
-542.236803
 21
-290.577068
 31
0.0
  0
LINE
  5
10E
100
AcDbEntity
  8
LY_3
390
0
  6
PHANTOM
 62
     7
100
AcDbLine
 10
-542.236808
 20
-304.012068
 30
0.0
 11
-532.236808
 21
-304.012068
 31
0.0
  0
LINE
  5
10F
100
AcDbEntity
  8
LY_3
390
0
  6
PHANTOM
 62
     7
100
AcDbLine
 10
-568.236808
 20
-312.577068
 30
0.0
 11
-542.236808
 21
-312.577068
 31
0.0
  0
LINE
  5
110
100
AcDbEntity
  8
LY_3
390
0
  6
PHANTOM
 62
     7
100
AcDbLine
 10
-542.236803
 20
-290.577068
 30
0.0
 11
-532.236803
 21
-290.577068
 31
0.0
  0
LINE
  5
111
100
AcDbEntity
  8
LY_3
390
0
  6
PHANTOM
 62
     7
100
AcDbLine
 10
-542.236808
 20
-277.142068
 30
0.0
 11
-532.236803
 21
-290.577068
 31
0.0
  0
LINE
  5
112
100
AcDbEntity
  8
LY_3
390
0
  6
PHANTOM
 62
     7
100
AcDbLine
 10
-532.236808
 20
-277.142068
 30
0.0
 11
-542.236803
 21
-290.577068
 31
0.0
  0
LINE
  5
113
100
AcDbEntity
  8
LY_3
390
0
  6
PHANTOM
 62
     7
100
AcDbLine
 10
-542.236808
 20
-277.142068
 30
0.0
 11
-532.236808
 21
-277.142068
 31
0.0
  0
LINE
  5
114
100
AcDbEntity
  8
LY_3
390
0
  6
PHANTOM
 62
     7
100
AcDbLine
 10
-568.236808
 20
-268.577068
 30
0.0
 11
-542.236808
 21
-268.577068
 31
0.0
  0
LINE
  5
115
100
AcDbEntity
  8
LY_3
390
0
  6
PHANTOM
 62
     7
100
AcDbLine
 10
-530.436898
 20
-284.077033
 30
0.0
 11
-532.236823
 21
-284.077033
 31
0.0
  0
LINE
  5
116
100
AcDbEntity
  8
LY_3
390
0
  6
CONTINUOUS
 62
     7
100
AcDbLine
 10
-530.436898
 20
-285.077033
 30
0.0
 11
-532.236818
 21
-285.077033
 31
0.0
  0
LINE
  5
117
100
AcDbEntity
  8
LY_3
390
0
  6
CONTINUOUS
 62
   151
100
AcDbLine
 10
-453.341433
 20
490.596512
 30
0.0
 11
-434.341478
 21
509.596472
 31
0.0
  0
LINE
  5
118
100
AcDbEntity
  8
LY_3
390
0
  6
CONTINUOUS
 62
   151
100
AcDbLine
 10
-447.022493
 20
494.085197
 30
0.0
 11
-448.437623
 21
495.500322
 31
0.0
  0
LINE
  5
119
100
AcDbEntity
  8
LY_3
390
0
  6
CONTINUOUS
 62
     7
100
AcDbLine
 10
-446.355863
 20
494.832777
 30
0.0
 11
-447.730518
 21
496.207427
 31
0.0
  0
LINE
  5
11A
100
AcDbEntity
  8
LY_3
390
0
  6
CONTINUOUS
 62
   151
100
AcDbLine
 10
-466.468873
 20
491.611212
 30
0.0
 11
-435.356178
 21
522.723907
 31
0.0
  0
LINE
  5
11B
100
AcDbEntity
  8
LY_3
390
0
  6
CONTINUOUS
 62
   151
100
AcDbLine
 10
-484.853648
 20
509.995987
 30
0.0
 11
-453.740953
 21
541.108687
 31
0.0
  0
LINE
  5
11C
100
AcDbEntity
  8
LY_3
390
0
  6
CONTINUOUS
 62
     7
100
AcDbLine
 10
-460.412503
 20
497.667577
 30
0.0
 11
-443.841453
 21
500.096487
 31
0.0
  0
LINE
  5
11D
100
AcDbEntity
  8
LY_3
390
0
  6
CONTINUOUS
 62
     7
100
AcDbLine
 10
-453.341433
 20
490.596512
 30
0.0
 11
-450.912518
 21
507.167557
 31
0.0
  0
LINE
  5
11E
100
AcDbEntity
  8
LY_3
390
0
  6
CONTINUOUS
 62
   151
100
AcDbLine
 10
-460.412503
 20
497.667577
 30
0.0
 11
-453.341433
 21
490.596512
 31
0.0
  0
LINE
  5
11F
100
AcDbEntity
  8
LY_3
390
0
  6
CONTINUOUS
 62
   151
100
AcDbLine
 10
-484.853648
 20
509.995987
 30
0.0
 11
-466.468873
 21
491.611212
 31
0.0
  0
LINE
  5
120
100
AcDbEntity
  8
LY_3
390
0
  6
CONTINUOUS
 62
   151
100
AcDbLine
 10
-437.830123
 20
503.277597
 30
0.0
 11
-439.245248
 21
504.692717
 31
0.0
  0
LINE
  5
121
100
AcDbEntity
  8
LY_3
390
0
  6
CONTINUOUS
 62
     7
100
AcDbLine
 10
-438.577698
 20
502.610957
 30
0.0
 11
-439.952353
 21
503.985612
 31
0.0
  0
LINE
  5
122
100
AcDbEntity
  8
LY_3
390
0
  6
CONTINUOUS
 62
     7
100
AcDbLine
 10
-441.412543
 20
516.667537
 30
0.0
 11
-443.841453
 21
500.096487
 31
0.0
  0
LINE
  5
123
100
AcDbEntity
  8
LY_3
390
0
  6
CONTINUOUS
 62
     7
100
AcDbLine
 10
-434.341478
 20
509.596472
 30
0.0
 11
-450.912518
 21
507.167557
 31
0.0
  0
LINE
  5
124
100
AcDbEntity
  8
LY_3
390
0
  6
CONTINUOUS
 62
   151
100
AcDbLine
 10
-441.412543
 20
516.667537
 30
0.0
 11
-434.341478
 21
509.596472
 31
0.0
  0
LINE
  5
125
100
AcDbEntity
  8
LY_3
390
0
  6
CONTINUOUS
 62
   151
100
AcDbLine
 10
-453.740953
 20
541.108687
 30
0.0
 11
-435.356178
 21
522.723907
 31
0.0
  0
LINE
  5
126
100
AcDbEntity
  8
LY_3
390
0
  6
CONTINUOUS
 62
   151
100
AcDbLine
 10
-450.912518
 20
507.167557
 30
0.0
 11
-443.841453
 21
500.096487
 31
0.0
  0
LINE
  5
127
100
AcDbEntity
  8
LY_3
390
0
  6
CENTER
 62
     7
100
AcDbLine
 10
-476.368363
 20
532.623412
 30
0.0
 11
-435.497688
 21
491.752722
 31
0.0
  0
CIRCLE
  5
128
100
AcDbEntity
  8
LY_3
390
0
  6
CONTINUOUS
 62
   151
100
AcDbCircle
 10
-500.436713
 20
286.691732
 30
0.0
 40
8.84999
  0
CIRCLE
  5
129
100
AcDbEntity
  8
LY_3
390
0
  6
CONTINUOUS
 62
     7
100
AcDbCircle
 10
-500.436713
 20
286.691732
 30
0.0
 40
10.0
  0
CIRCLE
  5
12A
100
AcDbEntity
  8
LY_3
390
0
  6
CONTINUOUS
 62
   151
100
AcDbCircle
 10
-95.436713
 20
52.864872
 30
0.0
 40
8.84999
  0
CIRCLE
  5
12B
100
AcDbEntity
  8
LY_3
390
0
  6
CONTINUOUS
 62
     7
100
AcDbCircle
 10
-95.436713
 20
52.864872
 30
0.0
 40
10.0
  0
LINE
  5
12C
100
AcDbEntity
  8
LY_3
390
0
  6
CENTER
 62
     7
100
AcDbLine
 10
-79.186683
 20
24.718992
 30
0.0
 11
-115.857773
 21
88.235182
 31
0.0
  0
CIRCLE
  5
12D
100
AcDbEntity
  8
LY_3
390
0
  6
CONTINUOUS
 62
   151
100
AcDbCircle
 10
-95.436713
 20
520.518592
 30
0.0
 40
8.84999
  0
CIRCLE
  5
12E
100
AcDbEntity
  8
LY_3
390
0
  6
CONTINUOUS
 62
     7
100
AcDbCircle
 10
-95.436713
 20
520.518592
 30
0.0
 40
10.0
  0
LINE
  5
12F
100
AcDbEntity
  8
LY_3
390
0
  6
CENTER
 62
     7
100
AcDbLine
 10
-79.186683
 20
548.664467
 30
0.0
 11
-115.857773
 21
485.148277
 31
0.0
  0
LINE
  5
130
100
AcDbEntity
  8
LY_3
390
0
  6
CENTER
 62
     7
100
AcDbLine
 10
-500.436838
 20
-409.077128
 30
0.0
 11
-500.436838
 21
-437.176983
 31
0.0
  0
LINE
  5
131
100
AcDbEntity
  8
LY_3
390
0
  6
CONTINUOUS
 62
   151
100
AcDbLine
 10
-449.936838
 20
-159.777078
 30
0.0
 11
-450.436838
 21
-160.277078
 31
0.0
  0
LINE
  5
132
100
AcDbEntity
  8
LY_3
390
0
  6
CONTINUOUS
 62
   151
100
AcDbLine
 10
-450.936838
 20
-414.077128
 30
0.0
 11
-450.436838
 21
-413.577128
 31
0.0
  0
LINE
  5
133
100
AcDbEntity
  8
LY_3
390
0
  6
CONTINUOUS
 62
   151
100
AcDbLine
 10
-9.936838
 20
-414.077128
 30
0.0
 11
-10.436838
 21
-413.577128
 31
0.0
  0
LINE
  5
134
100
AcDbEntity
  8
LY_3
390
0
  6
CONTINUOUS
 62
   151
100
AcDbLine
 10
-9.936838
 20
-167.077008
 30
0.0
 11
-10.436838
 21
-167.577008
 31
0.0
  0
LINE
  5
135
100
AcDbEntity
  8
LY_3
390
0
  6
CONTINUOUS
 62
   151
100
AcDbLine
 10
-10.936838
 20
-159.777078
 30
0.0
 11
-10.436838
 21
-160.277078
 31
0.0
  0
ARC
  5
136
100
AcDbEntity
  8
LY_3
390
0
  6
DASHED
 62
     7
100
AcDbCircle
 10
-379.636838
 20
-175.277068
 30
0.0
 40
0.8
100
AcDbArc
 50
180.0
 51
270.0
  0
ARC
  5
137
100
AcDbEntity
  8
LY_3
390
0
  6
DASHED
 62
     7
100
AcDbCircle
 10
-379.636838
 20
-405.877068
 30
0.0
 40
0.8
100
AcDbArc
 50
90.0
 51
180.0
  0
ARC
  5
138
100
AcDbEntity
  8
LY_3
390
0
  6
DASHED
 62
     7
100
AcDbCircle
 10
-81.236838
 20
-405.877068
 30
0.0
 40
0.8
100
AcDbArc
 50
0.0
 51
90.0
  0
ARC
  5
139
100
AcDbEntity
  8
LY_3
390
0
  6
DASHED
 62
     7
100
AcDbCircle
 10
-81.236838
 20
-175.277068
 30
0.0
 40
0.8
100
AcDbArc
 50
270.0
 51
0.0
  0
LINE
  5
13A
100
AcDbEntity
  8
LY_3
390
0
  6
DASHED
 62
     7
100
AcDbLine
 10
-80.436838
 20
-155.077008
 30
0.0
 11
-79.936838
 21
-154.577008
 31
0.0
  0
LINE
  5
13B
100
AcDbEntity
  8
LY_3
390
0
  6
DASHED
 62
     7
100
AcDbLine
 10
-80.436838
 20
-426.077128
 30
0.0
 11
-79.936838
 21
-426.577128
 31
0.0
  0
LINE
  5
13C
100
AcDbEntity
  8
LY_3
390
0
  6
DASHED
 62
     7
100
AcDbLine
 10
-380.436838
 20
-426.077128
 30
0.0
 11
-380.936838
 21
-426.577128
 31
0.0
  0
LINE
  5
13D
100
AcDbEntity
  8
LY_3
390
0
  6
DASHED
 62
     7
100
AcDbLine
 10
-380.436838
 20
-155.077008
 30
0.0
 11
-380.936838
 21
-154.577008
 31
0.0
  0
LINE
  5
13E
100
AcDbEntity
  8
LY_3
390
0
  6
CONTINUOUS
 62
   151
100
AcDbLine
 10
69.563162
 20
-166.330658
 30
0.0
 11
73.382402
 21
-152.077068
 31
0.0
  0
LINE
  5
13F
100
AcDbEntity
  8
LY_3
390
0
  6
CONTINUOUS
 62
   151
100
AcDbLine
 10
129.563162
 20
-166.330658
 30
0.0
 11
125.743927
 21
-152.077068
 31
0.0
  0
LINE
  5
140
100
AcDbEntity
  8
LY_3
390
0
  6
CONTINUOUS
 62
   151
100
AcDbLine
 10
69.563162
 20
-414.823358
 30
0.0
 11
73.382402
 21
-429.076948
 31
0.0
  0
LINE
  5
141
100
AcDbEntity
  8
LY_3
390
0
  6
CONTINUOUS
 62
   151
100
AcDbLine
 10
129.563162
 20
-414.823358
 30
0.0
 11
125.743927
 21
-429.076948
 31
0.0
  0
LINE
  5
142
100
AcDbEntity
  8
LY_3
390
0
  6
CONTINUOUS
 62
   151
100
AcDbLine
 10
154.563162
 20
439.191732
 30
0.0
 11
1852.563317
 21
439.191732
 31
0.0
  0
LINE
  5
143
100
AcDbEntity
  8
LY_3
390
0
  6
CONTINUOUS
 62
   151
100
AcDbLine
 10
154.563162
 20
134.191732
 30
0.0
 11
1852.563317
 21
134.191732
 31
0.0
  0
LINE
  5
144
100
AcDbEntity
  8
LY_3
390
0
  6
CONTINUOUS
 62
   151
100
AcDbLine
 10
154.563162
 20
425.374132
 30
0.0
 11
1852.563317
 21
425.374132
 31
0.0
  0
LINE
  5
145
100
AcDbEntity
  8
LY_3
390
0
  6
CONTINUOUS
 62
   151
100
AcDbLine
 10
154.563162
 20
148.009332
 30
0.0
 11
1852.563317
 21
148.009332
 31
0.0
  0
LINE
  5
146
100
AcDbEntity
  8
LY_3
390
0
  6
CONTINUOUS
 62
   151
100
AcDbLine
 10
364.563257
 20
439.191732
 30
0.0
 11
364.563257
 21
464.191732
 31
0.0
  0
LINE
  5
147
100
AcDbEntity
  8
LY_3
390
0
  6
CONTINUOUS
 62
   151
100
AcDbLine
 10
364.563257
 20
464.191732
 30
0.0
 11
189.615212
 21
586.691672
 31
0.0
  0
LINE
  5
148
100
AcDbEntity
  8
LY_3
390
0
  6
CONTINUOUS
 62
   151
100
AcDbLine
 10
189.615212
 20
586.691672
 30
0.0
 11
99.645102
 21
586.691672
 31
0.0
  0
LINE
  5
149
100
AcDbEntity
  8
LY_3
390
0
  6
CONTINUOUS
 62
   151
100
AcDbLine
 10
364.563257
 20
109.191732
 30
0.0
 11
189.615212
 21
-13.308208
 31
0.0
  0
LINE
  5
14A
100
AcDbEntity
  8
LY_3
390
0
  6
CONTINUOUS
 62
   151
100
AcDbLine
 10
189.615212
 20
-13.308208
 30
0.0
 11
118.219902
 21
-13.308208
 31
0.0
  0
LINE
  5
14B
100
AcDbEntity
  8
LY_3
390
0
  6
CONTINUOUS
 62
   151
100
AcDbLine
 10
364.563257
 20
134.191732
 30
0.0
 11
364.563257
 21
109.191732
 31
0.0
  0
LINE
  5
14C
100
AcDbEntity
  8
LY_3
390
0
  6
CONTINUOUS
 62
   151
100
AcDbLine
 10
85.557407
 20
-13.308208
 30
0.0
 11
99.481227
 21
-13.308208
 31
0.0
  0
ARC
  5
14D
100
AcDbEntity
  8
LY_3
390
0
  6
CONTINUOUS
 62
   151
100
AcDbCircle
 10
99.563162
 20
41.691732
 30
0.0
 40
55.0
100
AcDbArc
 50
269.914642
 51
283.801896
  0
LINE
  5
14E
100
AcDbEntity
  8
LY_3
390
0
  6
CONTINUOUS
 62
   151
100
AcDbLine
 10
113.601097
 20
-13.308208
 30
0.0
 11
99.645102
 21
-13.308208
 31
0.0
  0
LINE
  5
14F
100
AcDbEntity
  8
LY_3
390
0
  6
CONTINUOUS
 62
   151
100
AcDbLine
 10
154.563162
 20
-227.077008
 30
0.0
 11
1852.563317
 21
-227.077008
 31
0.0
  0
LINE
  5
150
100
AcDbEntity
  8
LY_3
390
0
  6
CONTINUOUS
 62
   151
100
AcDbLine
 10
154.563162
 20
-354.077008
 30
0.0
 11
1852.563317
 21
-354.077008
 31
0.0
  0
LINE
  5
151
100
AcDbEntity
  8
LY_3
390
0
  6
CONTINUOUS
 62
   151
100
AcDbLine
 10
364.563257
 20
-340.577068
 30
0.0
 11
29.563162
 21
-340.577068
 31
0.0
  0
LINE
  5
152
100
AcDbEntity
  8
LY_3
390
0
  6
CONTINUOUS
 62
   151
100
AcDbLine
 10
364.563257
 20
-340.577068
 30
0.0
 11
364.563257
 21
-240.577068
 31
0.0
  0
ARC
  5
153
100
AcDbEntity
  8
LY_3
390
0
  6
CONTINUOUS
 62
   151
100
AcDbCircle
 10
99.563162
 20
531.691732
 30
0.0
 40
55.0
100
AcDbArc
 50
0.0
 51
90.085358
  0
ARC
  5
154
100
AcDbEntity
  8
LY_3
390
0
  6
CONTINUOUS
 62
   151
100
AcDbCircle
 10
99.563162
 20
41.691732
 30
0.0
 40
55.0
100
AcDbArc
 50
269.914642
 51
0.0
  0
LINE
  5
155
100
AcDbEntity
  8
LY_3
390
0
  6
DASHED
 62
     7
100
AcDbLine
 10
-105.436608
 20
-402.077243
 30
0.0
 11
-355.436838
 21
-402.077243
 31
0.0
  0
MTEXT
  5
156
100
AcDbEntity
  8
LY_3
390
0
  6
CONTINUOUS
 62
     7
100
AcDbMText
 10
367.393172
 20
633.694851
 30
0.0
 40
30.0
 41
0.0
 71
     1
 72
     1
  1
\W0.781;\A1;ＢＳ２５０Ｆ
 73
     1
 44
0.9
  0
LINE
  5
157
100
AcDbEntity
  8
LY_3
390
0
  6
CONTINUOUS
 62
   151
100
AcDbLine
 10
-10.436838
 20
-160.277078
 30
0.0
 11
-10.436838
 21
-167.077008
 31
0.0
  0
LINE
  5
158
100
AcDbEntity
  8
LY_3
390
0
  6
CONTINUOUS
 62
   151
100
AcDbLine
 10
-450.436838
 20
-420.877058
 30
0.0
 11
-450.436838
 21
-414.077128
 31
0.0
  0
LINE
  5
159
100
AcDbEntity
  8
LY_3
390
0
  6
CONTINUOUS
 62
   151
100
AcDbLine
 10
-449.936838
 20
-421.377058
 30
0.0
 11
-450.436838
 21
-420.877058
 31
0.0
  0
LINE
  5
15A
100
AcDbEntity
  8
LY_3
390
0
  6
CONTINUOUS
 62
   151
100
AcDbLine
 10
-10.436838
 20
-420.877058
 30
0.0
 11
-10.436838
 21
-414.077128
 31
0.0
  0
LINE
  5
15B
100
AcDbEntity
  8
LY_3
390
0
  6
CONTINUOUS
 62
   151
100
AcDbLine
 10
-10.936838
 20
-421.377058
 30
0.0
 11
-10.436838
 21
-420.877058
 31
0.0
  0
LINE
  5
15C
100
AcDbEntity
  8
LY_3
390
0
  6
CONTINUOUS
 62
   151
100
AcDbLine
 10
-135.436838
 20
-210.077008
 30
0.0
 11
44.563162
 21
-210.077008
 31
0.0
  0
LINE
  5
15D
100
AcDbEntity
  8
LY_3
390
0
  6
CONTINUOUS
 62
   151
100
AcDbLine
 10
44.563162
 20
-348.077128
 30
0.0
 11
44.563162
 21
-371.077128
 31
0.0
  0
LINE
  5
15E
100
AcDbEntity
  8
LY_3
390
0
  6
CONTINUOUS
 62
   151
100
AcDbLine
 10
-135.436838
 20
-371.077128
 30
0.0
 11
44.563162
 21
-371.077128
 31
0.0
  0
LINE
  5
15F
100
AcDbEntity
  8
LY_3
390
0
  6
CONTINUOUS
 62
   151
100
AcDbLine
 10
-395.436838
 20
-159.777078
 30
0.0
 11
-395.436838
 21
-159.027008
 31
0.0
  0
LINE
  5
160
100
AcDbEntity
  8
LY_3
390
0
  6
CONTINUOUS
 62
   151
100
AcDbLine
 10
-135.436838
 20
-389.077128
 30
0.0
 11
-135.436838
 21
-371.077128
 31
0.0
  0
LINE
  5
161
100
AcDbEntity
  8
LY_3
390
0
  6
CONTINUOUS
 62
   151
100
AcDbLine
 10
-135.436838
 20
-210.077008
 30
0.0
 11
-135.436838
 21
-192.077008
 31
0.0
  0
LINE
  5
162
100
AcDbEntity
  8
LY_3
390
0
  6
CENTER
 62
     7
100
AcDbLine
 10
-500.436838
 20
-172.077008
 30
0.0
 11
-500.436838
 21
-143.977153
 31
0.0
  0
LINE
  5
163
100
AcDbEntity
  8
LY_3
390
0
  6
CENTER
 62
     7
100
AcDbLine
 10
-437.936898
 20
-164.777078
 30
0.0
 11
-437.936898
 21
-144.777078
 31
0.0
  0
LINE
  5
164
100
AcDbEntity
  8
LY_3
390
0
  6
CENTER
 62
     7
100
AcDbLine
 10
-22.936773
 20
-416.377058
 30
0.0
 11
-22.936773
 21
-436.377058
 31
0.0
  0
LINE
  5
165
100
AcDbEntity
  8
LY_3
390
0
  6
CENTER
 62
     7
100
AcDbLine
 10
-22.936773
 20
-164.777078
 30
0.0
 11
-22.936773
 21
-144.777078
 31
0.0
  0
LINE
  5
166
100
AcDbEntity
  8
LY_3
390
0
  6
CENTER
 62
     7
100
AcDbLine
 10
39.563162
 20
-172.077008
 30
0.0
 11
39.563162
 21
-143.977153
 31
0.0
  0
LINE
  5
167
100
AcDbEntity
  8
LY_3
390
0
  6
CENTER
 62
     7
100
AcDbLine
 10
39.563162
 20
-409.077128
 30
0.0
 11
39.563162
 21
-437.176983
 31
0.0
  0
LINE
  5
168
100
AcDbEntity
  8
LY_3
390
0
  6
CONTINUOUS
 62
   151
100
AcDbLine
 10
69.563162
 20
-348.077008
 30
0.0
 11
69.563162
 21
-340.577068
 31
0.0
  0
LINE
  5
169
100
AcDbEntity
  8
LY_3
390
0
  6
CONTINUOUS
 62
   151
100
AcDbLine
 10
129.563162
 20
-348.077008
 30
0.0
 11
129.563162
 21
-340.577068
 31
0.0
  0
LINE
  5
16A
100
AcDbEntity
  8
LY_3
390
0
  6
CONTINUOUS
 62
   151
100
AcDbLine
 10
69.563162
 20
-167.077008
 30
0.0
 11
69.563162
 21
-166.330658
 31
0.0
  0
LINE
  5
16B
100
AcDbEntity
  8
LY_3
390
0
  6
CONTINUOUS
 62
   151
100
AcDbLine
 10
129.563162
 20
-167.077008
 30
0.0
 11
129.563162
 21
-166.330658
 31
0.0
  0
LINE
  5
16C
100
AcDbEntity
  8
LY_3
390
0
  6
CONTINUOUS
 62
   151
100
AcDbLine
 10
69.563162
 20
-240.577068
 30
0.0
 11
69.563162
 21
-233.077008
 31
0.0
  0
LINE
  5
16D
100
AcDbEntity
  8
LY_3
390
0
  6
CONTINUOUS
 62
   151
100
AcDbLine
 10
129.563162
 20
-240.577068
 30
0.0
 11
129.563162
 21
-233.077008
 31
0.0
  0
LINE
  5
16E
100
AcDbEntity
  8
LY_3
390
0
  6
DASHED
 62
     7
100
AcDbLine
 10
-258.436838
 20
-176.077068
 30
0.0
 11
-258.436838
 21
-405.077068
 31
0.0
  0
LINE
  5
16F
100
AcDbEntity
  8
LY_3
390
0
  6
DASHED
 62
     7
100
AcDbLine
 10
-202.436838
 20
-176.077068
 30
0.0
 11
-202.436838
 21
-405.077068
 31
0.0
  0
LINE
  5
170
100
AcDbEntity
  8
LY_3
390
0
  6
CONTINUOUS
 62
   151
100
AcDbLine
 10
189.615212
 20
-240.577068
 30
0.0
 11
189.615212
 21
-340.577068
 31
0.0
  0
ENDSEC
  0
SECTION
  2
OBJECTS
  0
DICTIONARY
  5
19
100
AcDbDictionary
280
     0
281
     1
  3
ACAD_GROUP
350
1A
  3
ACAD_MLINESTYLE
350
1B
  3
ACAD_LAYOUT
350
1E
  3
ACAD_PLOTSETTINGS
350
22
  3
ACAD_PLOTSTYLENAME
350
1F
  0
DICTIONARY
  5
1A
102
{ACAD_REACTORS
330
19
102
}
100
AcDbDictionary
280
     0
281
     1
  0
DICTIONARY
  5
1B
102
{ACAD_REACTORS
330
19
102
}
100
AcDbDictionary
280
     0
281
     1
  3
Standard
350
1C
  0
MLINESTYLE
  5
1C
102
{ACAD_REACTORS
330
1B
102
}
100
AcDbMlineStyle
  2
Standard
 70
     0
  3

 62
     0
 51
90.0
 52
90.0
 71
     2
 49
0.5
 62
   256
  6
ByLayer
 49
-0.5
 62
   256
  6
ByLayer
  0
ACDBDICTIONARYWDFLT
  5
1F
102
{ACAD_REACTORS
330
19
102
}
100
AcDbDictionary
281
     1
  3
Normal
350
1D
100
AcDbDictionaryWithDefault
340
1D
  0
ACDBPLACEHOLDER
  5
1D
102
{ACAD_REACTORS
330
1F
102
}
  0
LAYOUT
  5
20
102
{ACAD_REACTORS
330
1E
102
}
100
AcDbPlotSettings
  1

  2

  4

  6

 40
0.0
 41
0.0
 42
0.0
 43
0.0
 44
0.0
 45
0.0
 46
0.0
 47
0.0
 48
0.0
 49
0.0
140
0.0
141
0.0
142
1.0
143
1.0
 70
  1024
 72
     0
 73
     0
 74
     0
  7

 75
     0
147
1.0
148
0.0
149
0.0
100
AcDbLayout
  1
Model
 70
     0
 71
     0
 10
0.0
 20
0.0
 11
0.0
 21
0.0
 12
0.0
 22
0.0
 32
0.0
 14
0.0
 24
0.0
 34
0.0
 15
0.0
 25
0.0
 35
0.0
146
0.0
 13
0.0
 23
0.0
 33
0.0
 16
0.0
 26
0.0
 36
0.0
 17
0.0
 27
0.0
 37
0.0
 76
     0
330
A
331
0
345
0
346
0
  0
LAYOUT
  5
21
102
{ACAD_REACTORS
330
1E
102
}
100
AcDbPlotSettings
  1

  2

  4

  6

 40
0.0
 41
0.0
 42
0.0
 43
0.0
 44
0.0
 45
0.0
 46
0.0
 47
0.0
 48
0.0
 49
0.0
140
0.0
141
0.0
142
1.0
143
1.0
 70
     0
 72
     0
 73
     0
 74
     0
  7

 75
     0
147
1.0
148
0.0
149
0.0
100
AcDbLayout
  1
Layout1
 70
     0
 71
     0
 10
0.0
 20
0.0
 11
0.0
 21
0.0
 12
0.0
 22
0.0
 32
0.0
 14
0.0
 24
0.0
 34
0.0
 15
0.0
 25
0.0
 35
0.0
146
0.0
 13
0.0
 23
0.0
 33
0.0
 16
0.0
 26
0.0
 36
0.0
 17
0.0
 27
0.0
 37
0.0
 76
     0
330
B
331
0
345
0
346
0
  0
DICTIONARY
  5
1E
102
{ACAD_REACTORS
330
19
102
}
100
AcDbDictionary
280
     0
281
     1
  3
Layout1
350
21
  3
Model
350
20
  0
DICTIONARY
  5
22
102
{ACAD_REACTORS
330
19
102
}
100
AcDbDictionary
280
     0
281
     1
  0
ENDSEC
  0
EOF
