  0
SECTION
  2
HEADER
  9
$ACADVER
  1
AC1015
  9
$ACADMAINTVER
 70
     6
  9
$DWGCODEPAGE
  3
ANSI_932
  9
$INSBASE
 10
0.0
 20
0.0
 30
0.0
  9
$EXTMIN
 10
-507.27089
 20
-142.170348
 30
0.0
  9
$EXTMAX
 10
1416.529024
 20
495.992847
 30
0.0
  9
$LIMMIN
 10
-507.27089
 20
-142.170348
  9
$LIMMAX
 10
1416.529024
 20
495.992847
  9
$ORTHOMODE
 70
     0
  9
$REGENMODE
 70
     1
  9
$FILLMODE
 70
     1
  9
$QTEXTMODE
 70
     0
  9
$MIRRTEXT
 70
     1
  9
$LTSCALE
 40
1.0
  9
$ATTMODE
 70
     1
  9
$TEXTSIZE
 40
3.2
  9
$TRACEWID
 40
0.05
  9
$TEXTSTYLE
  7
MX_NOTE_STANDARD
  9
$CLAYER
  8
LY_3
  9
$CELTYPE
  6
CONTINUOUS
  9
$CECOLOR
 62
   256
  9
$CELTSCALE
 40
1.0
  9
$DISPSILH
 70
     0
  9
$DIMSCALE
 40
1.0
  9
$DIMASZ
 40
2.5
  9
$DIMEXO
 40
0.0
  9
$DIMDLI
 40
3.75
  9
$DIMRND
 40
0.0
  9
$DIMDLE
 40
0.0
  9
$DIMEXE
 40
2.5
  9
$DIMTP
 40
0.0
  9
$DIMTM
 40
0.0
  9
$DIMTXT
 40
3.2
  9
$DIMCEN
 40
2.5
  9
$DIMTSZ
 40
0.0
  9
$DIMTOL
 70
     0
  9
$DIMLIM
 70
     0
  9
$DIMTIH
 70
     0
  9
$DIMTOH
 70
     0
  9
$DIMSE1
 70
     0
  9
$DIMSE2
 70
     0
  9
$DIMTAD
 70
     1
  9
$DIMZIN
 70
     8
  9
$DIMBLK
  1

  9
$DIMASO
 70
     1
  9
$DIMSHO
 70
     1
  9
$DIMPOST
  1

  9
$DIMAPOST
  1

  9
$DIMALT
 70
     0
  9
$DIMALTD
 70
     4
  9
$DIMALTF
 40
0.03937
  9
$DIMLFAC
 40
1.0
  9
$DIMTOFL
 70
     1
  9
$DIMTVP
 40
0.0
  9
$DIMTIX
 70
     0
  9
$DIMSOXD
 70
     0
  9
$DIMSAH
 70
     1
  9
$DIMBLK1
  1
_OPEN30
  9
$DIMBLK2
  1
_OPEN30
  9
$DIMSTYLE
  2
MXDIMSTYLE
  9
$DIMCLRD
 70
     0
  9
$DIMCLRE
 70
     0
  9
$DIMCLRT
 70
     0
  9
$DIMTFAC
 40
1.0
  9
$DIMGAP
 40
1.0
  9
$DIMJUST
 70
     0
  9
$DIMSD1
 70
     0
  9
$DIMSD2
 70
     0
  9
$DIMTOLJ
 70
     0
  9
$DIMTZIN
 70
     0
  9
$DIMALTZ
 70
     0
  9
$DIMALTTZ
 70
     0
  9
$DIMUPT
 70
     0
  9
$DIMDEC
 70
     2
  9
$DIMTDEC
 70
     2
  9
$DIMALTU
 70
     2
  9
$DIMALTTD
 70
     4
  9
$DIMTXSTY
  7
MX_NOTE_STANDARD
  9
$DIMAUNIT
 70
     0
  9
$DIMADEC
 70
     0
  9
$DIMALTRND
 40
0.0
  9
$DIMAZIN
 70
     0
  9
$DIMDSEP
 70
    46
  9
$DIMATFIT
 70
     3
  9
$DIMFRAC
 70
     0
  9
$DIMLDRBLK
  1
_OPEN30
  9
$DIMLUNIT
 70
     2
  9
$DIMLWD
 70
    -2
  9
$DIMLWE
 70
    -2
  9
$DIMTMOVE
 70
     0
  9
$LUNITS
 70
     2
  9
$LUPREC
 70
     4
  9
$SKETCHINC
 40
0.1
  9
$FILLETRAD
 40
0.0
  9
$AUNITS
 70
     0
  9
$AUPREC
 70
     0
  9
$MENU
  1
acad
  9
$ELEVATION
 40
0.0
  9
$PELEVATION
 40
0.0
  9
$THICKNESS
 40
0.0
  9
$LIMCHECK
 70
     0
  9
$CHAMFERA
 40
0.0
  9
$CHAMFERB
 40
0.0
  9
$CHAMFERC
 40
0.0
  9
$CHAMFERD
 40
0.0
  9
$SKPOLY
 70
     0
  9
$TDCREATE
 40
2458319.566944445
  9
$TDUCREATE
 40
0.000000000
  9
$TDUPDATE
 40
2458319.566944445
  9
$TDUUPDATE
 40
0.000000000
  9
$TDINDWG
 40
0.0000000000
  9
$TDUSRTIMER
 40
0.0000000000
  9
$USRTIMER
 70
     1
  9
$ANGBASE
 50
0.0
  9
$ANGDIR
 70
     0
  9
$PDMODE
 70
     0
  9
$PDSIZE
 40
0.0
  9
$PLINEWID
 40
0.0
  9
$SPLFRAME
 70
     0
  9
$SPLINETYPE
 70
     6
  9
$SPLINESEGS
 70
     8
  9
$HANDSEED
  5
16B
  9
$SURFTAB1
 70
     6
  9
$SURFTAB2
 70
     6
  9
$SURFTYPE
 70
     6
  9
$SURFU
 70
     6
  9
$SURFV
 70
     6
  9
$UCSBASE
  2

  9
$UCSNAME
  2

  9
$UCSORG
 10
0.0
 20
0.0
 30
0.0
  9
$UCSXDIR
 10
1.0
 20
0.0
 30
0.0
  9
$UCSYDIR
 10
0.0
 20
1.0
 30
0.0
  9
$UCSORTHOREF
  2

  9
$UCSORTHOVIEW
 70
     0
  9
$UCSORGTOP
 10
0.0
 20
0.0
 30
0.0
  9
$UCSORGBOTTOM
 10
0.0
 20
0.0
 30
0.0
  9
$UCSORGLEFT
 10
0.0
 20
0.0
 30
0.0
  9
$UCSORGRIGHT
 10
0.0
 20
0.0
 30
0.0
  9
$UCSORGFRONT
 10
0.0
 20
0.0
 30
0.0
  9
$UCSORGBACK
 10
0.0
 20
0.0
 30
0.0
  9
$PUCSBASE
  2

  9
$PUCSNAME
  2

  9
$PUCSORG
 10
0.0
 20
0.0
 30
0.0
  9
$PUCSXDIR
 10
1.0
 20
0.0
 30
0.0
  9
$PUCSYDIR
 10
0.0
 20
1.0
 30
0.0
  9
$PUCSORTHOREF
  2

  9
$PUCSORTHOVIEW
 70
     0
  9
$PUCSORGTOP
 10
0.0
 20
0.0
 30
0.0
  9
$PUCSORGBOTTOM
 10
0.0
 20
0.0
 30
0.0
  9
$PUCSORGLEFT
 10
0.0
 20
0.0
 30
0.0
  9
$PUCSORGRIGHT
 10
0.0
 20
0.0
 30
0.0
  9
$PUCSORGFRONT
 10
0.0
 20
0.0
 30
0.0
  9
$PUCSORGBACK
 10
0.0
 20
0.0
 30
0.0
  9
$USERI1
 70
     0
  9
$USERI2
 70
     0
  9
$USERI3
 70
     0
  9
$USERI4
 70
     0
  9
$USERI5
 70
     0
  9
$USERR1
 40
0.0
  9
$USERR2
 40
0.0
  9
$USERR3
 40
0.0
  9
$USERR4
 40
0.0
  9
$USERR5
 40
0.0
  9
$WORLDVIEW
 70
     1
  9
$SHADEDGE
 70
     3
  9
$SHADEDIF
 70
    70
  9
$TILEMODE
 70
     1
  9
$MAXACTVP
 70
    16
  9
$PINSBASE
 10
0.0
 20
0.0
 30
0.0
  9
$PLIMCHECK
 70
     0
  9
$PEXTMIN
 10
1.000000E+20
 20
1.000000E+20
 30
1.000000E+20
  9
$PEXTMAX
 10
-1.000000E+20
 20
-1.000000E+20
 30
-1.000000E+20
  9
$PLIMMIN
 10
0.0
 20
0.0
  9
$PLIMMAX
 10
12.0
 20
9.0
  9
$UNITMODE
 70
     0
  9
$VISRETAIN
 70
     0
  9
$PLINEGEN
 70
     1
  9
$PSLTSCALE
 70
     0
  9
$TREEDEPTH
 70
  3020
  9
$CMLSTYLE
  2
Standard
  9
$CMLJUST
 70
     0
  9
$CMLSCALE
 40
1.0
  9
$PROXYGRAPHICS
 70
     0
  9
$MEASUREMENT
 70
     1
  9
$CELWEIGHT
370
     0
  9
$ENDCAPS
280
     0
  9
$JOINSTYLE
280
     0
  9
$LWDISPLAY
290
     0
  9
$INSUNITS
 70
     0
  9
$HYPERLINKBASE
  1

  9
$STYLESHEET
  1

  9
$XEDIT
290
     1
  9
$CEPSNTYPE
380
     0
  9
$PSTYLEMODE
290
     1
  9
$FINGERPRINTGUID
  2

  9
$VERSIONGUID
  2

  9
$EXTNAMES
290
     1
  9
$PSVPSCALE
 40
0.0
  0
ENDSEC
  0
SECTION
  2
CLASSES
  0
CLASS
  1
LWPOLYLINE
  2
AcDbPolyline
  3
AutoCAD 2000
 90
        0
280
     0
281
     1
  0
CLASS
  1
IMAGE
  2
AcDbRasterImage
  3
ISM
 90
      127
280
     0
281
     1
  0
CLASS
  1
OLE2FRAME
  2
AcDbOle2Frame
  3
AutoCAD 2000
 90
        0
280
     0
281
     1
  0
CLASS
  1
HATCH
  2
AcDbHatch
  3
AutoCAD 2000
 90
        0
280
     0
281
     1
  0
CLASS
  1
DICTIONARYVAR
  2
AcDbDictionaryVar
  3
AutoCAD 2000
 90
        0
280
     0
281
     0
  0
CLASS
  1
RASTERVARIABLES
  2
AcDbRasterVariables
  3
ISM
 90
        0
280
     0
281
     0
  0
CLASS
  1
IMAGEDEF
  2
AcDbRasterImageDef
  3
ISM
 90
        0
280
     0
281
     0
  0
CLASS
  1
IMAGEDEF_REACTOR
  2
AcDbRasterImageDefReactor
  3
ISM
 90
        1
280
     0
281
     0
  0
CLASS
  1
IDBUFFER
  2
AcDbIdBuffer
  3
AutoCAD 2000
 90
        0
280
     0
281
     0
  0
CLASS
  1
SPATIAL_FILTER
  2
AcDbSpatialFilter
  3
AutoCAD 2000
 90
        0
280
     0
281
     0
  0
CLASS
  1
XRECORD
  2
AcDbXrecord
  3
AutoCAD 2000
 90
        0
280
     0
281
     0
  0
CLASS
  1
SORTENTSTABLE
  2
AcDbSortentsTable
  3
AutoCAD 2000
 90
        0
280
     0
281
     0
  0
CLASS
  1
LAYER_INDEX
  2
AcDbLayerIndex
  3
AutoCAD 2000
 90
        0
280
     0
281
     0
  0
CLASS
  1
SPATIAL_INDEX
  2
AcDbSpatialIndex
  3
AutoCAD 2000
 90
        0
280
     0
281
     0
  0
CLASS
  1
OBJECT_PTR
  2
CAseDLPNTableRecord
  3
"ASE-LPNTableRecord"
 90
        1
280
     0
281
     0
  0
CLASS
  1
LAYOUT
  2
AcDbLayout
  3
AutoCAD 2000
 90
        0
280
     0
281
     0
  0
CLASS
  1
PLOTSETTINGS
  2
AcDbPlotSettings
  3
AutoCAD 2000
 90
        0
280
     0
281
     0
  0
CLASS
  1
ACDBDICTIONARYWDFLT
  2
AcDbDictionaryWithDefault
  3
AutoCAD 2000
 90
        0
280
     0
281
     0
  0
CLASS
  1
ACDBPLACEHOLDER
  2
AcDbPlaceHolder
  3
AutoCAD 2000
 90
        0
280
     0
281
     0
  0
ENDSEC
  0
SECTION
  2
TABLES
  0
TABLE
  2
VPORT
  5
7
100
AcDbSymbolTable
 70
     1
  0
VPORT
  5
15
100
AcDbSymbolTableRecord
100
AcDbViewportTableRecord
  2
*ACTIVE
 70
     0
 10
0.0
 20
0.0
 11
1.0
 21
1.0
 12
454.629067
 22
176.911249
 13
0.0
 23
0.0
 14
1.0
 24
1.0
 15
0.0
 25
0.0
 16
0.0
 26
0.0
 36
1.0
 17
0.0
 27
0.0
 37
0.0
 40
644.544827
 41
1.732051
 42
50.0
 43
0.0
 44
0.0
 50
0.0
 51
0.0
 71
     0
 72
   100
 73
     1
 74
     1
 75
     0
 76
     0
 77
     0
 78
     0
281
     0
 65
     0
110
0.0
120
0.0
130
0.0
111
1.0
121
0.0
131
0.0
112
0.0
122
1.0
132
0.0
345
0
346
0
 79
     0
146
0.0
  0
ENDTAB
  0
TABLE
  2
LTYPE
  5
4
100
AcDbSymbolTable
 70
     6
  0
LTYPE
  5
11
100
AcDbSymbolTableRecord
100
AcDbLinetypeTableRecord
  2
BYBLOCK
 70
    64
  3

 72
    65
 73
     0
 40
0.0
  0
LTYPE
  5
12
100
AcDbSymbolTableRecord
100
AcDbLinetypeTableRecord
  2
BYLAYER
 70
    64
  3

 72
    65
 73
     0
 40
0.0
  0
LTYPE
  5
13
100
AcDbSymbolTableRecord
100
AcDbLinetypeTableRecord
  2
CONTINUOUS
 70
    64
  3
Solid line
 72
    65
 73
     0
 40
0.0
  0
LTYPE
  5
2F
100
AcDbSymbolTableRecord
100
AcDbLinetypeTableRecord
  2
PHANTOM
 70
    64
  3
Phantom ______  __  __  ______  __  __  ______
 72
    65
 73
     6
 40
63.5
 49
31.75
 74
     0
 49
-6.35
 74
     0
 49
6.35
 74
     0
 49
-6.35
 74
     0
 49
6.35
 74
     0
 49
-6.35
 74
     0
  0
LTYPE
  5
47
100
AcDbSymbolTableRecord
100
AcDbLinetypeTableRecord
  2
CENTER
 70
    64
  3
Center ____ _ ____ _ ____ _ ____ _ ____ _ ____
 72
    65
 73
     4
 40
50.8
 49
31.75
 74
     0
 49
-6.35
 74
     0
 49
6.35
 74
     0
 49
-6.35
 74
     0
  0
LTYPE
  5
7B
100
AcDbSymbolTableRecord
100
AcDbLinetypeTableRecord
  2
DASHED
 70
    64
  3
Dashed __ __ __ __ __ __ __ __ __ __ __ __ __ _
 72
    65
 73
     2
 40
19.05
 49
12.7
 74
     0
 49
-6.35
 74
     0
  0
ENDTAB
  0
TABLE
  2
LAYER
  5
2
100
AcDbSymbolTable
 70
     3
  0
LAYER
  5
14
100
AcDbSymbolTableRecord
100
AcDbLayerTableRecord
  2
0
 70
     0
 62
     7
  6
CONTINUOUS
290
     1
370
    -3
390
1D
  0
LAYER
  5
23
100
AcDbSymbolTableRecord
100
AcDbLayerTableRecord
  2
DEFPOINTS
 70
     0
 62
     7
  6
CONTINUOUS
290
     0
370
    -3
390
1D
  0
LAYER
  5
24
100
AcDbSymbolTableRecord
100
AcDbLayerTableRecord
  2
LY_3
 70
     0
 62
   161
  6
CONTINUOUS
290
     1
370
    -3
390
1D
  0
ENDTAB
  0
TABLE
  2
STYLE
  5
3
100
AcDbSymbolTable
 70
     1
  0
STYLE
  5
17
100
AcDbSymbolTableRecord
100
AcDbTextStyleTableRecord
  2
MX_NOTE_STANDARD
 70
     0
 40
0.0
 41
1.0
 50
0.0
 71
     0
 42
3.2
  3
txt.shx
  4
extfont.shx
  0
ENDTAB
  0
TABLE
  2
VIEW
  5
5
100
AcDbSymbolTable
 70
     0
  0
ENDTAB
  0
TABLE
  2
UCS
  5
6
100
AcDbSymbolTable
 70
     0
  0
ENDTAB
  0
TABLE
  2
APPID
  5
8
100
AcDbSymbolTable
 70
     1
  0
APPID
  5
16
100
AcDbSymbolTableRecord
100
AcDbRegAppTableRecord
  2
ACAD
 70
     0
  0
ENDTAB
  0
TABLE
  2
DIMSTYLE
  5
9
100
AcDbSymbolTable
 70
     1
100
AcDbDimStyleTable
 71
     0
  0
DIMSTYLE
105
18
100
AcDbSymbolTableRecord
100
AcDbDimStyleTableRecord
  2
MXDIMSTYLE
 70
     0
  3

  4

 40
1.0
 41
2.5
 42
0.0
 43
3.75
 44
2.5
 45
0.0
 46
0.0
 47
0.0
 48
0.0
 71
     0
 72
     0
 73
     0
 74
     0
 75
     0
 76
     0
 77
     1
 78
     8
 79
     0
140
3.2
141
2.5
142
0.0
143
0.03937
144
1.0
145
0.0
146
1.0
147
1.0
148
0.0
170
     0
171
     4
172
     1
173
     1
174
     0
175
     0
176
     0
177
     0
178
     0
179
     0
271
     2
272
     2
273
     2
274
     4
275
     0
276
     0
277
     2
278
    46
279
     0
280
     0
281
     0
282
     0
283
     0
284
     0
285
     0
286
     0
288
     0
289
     3
340
17
341
28
342
0
343
28
344
28
371
    -2
372
    -2
  0
ENDTAB
  0
TABLE
  2
BLOCK_RECORD
  5
1
100
AcDbSymbolTable
 70
     4
  0
BLOCK_RECORD
  5
A
100
AcDbSymbolTableRecord
100
AcDbBlockTableRecord
  2
*MODEL_SPACE
340
20
  0
BLOCK_RECORD
  5
B
100
AcDbSymbolTableRecord
100
AcDbBlockTableRecord
  2
*PAPER_SPACE
340
21
  0
BLOCK_RECORD
  5
25
100
AcDbSymbolTableRecord
100
AcDbBlockTableRecord
  2
M16-S1-W.HB
340
0
102
{BLKREFS
331
57
331
62
331
67
331
68
102
}
  0
BLOCK_RECORD
  5
26
100
AcDbSymbolTableRecord
100
AcDbBlockTableRecord
  2
M16-T.HB
340
0
102
{BLKREFS
331
58
331
59
331
5A
331
5B
331
5C
331
5D
331
5E
331
5F
331
60
331
61
102
}
  0
BLOCK_RECORD
  5
27
100
AcDbSymbolTableRecord
100
AcDbBlockTableRecord
  2
M5-T-W.SB
340
0
102
{BLKREFS
331
63
331
64
331
65
331
66
102
}
  0
BLOCK_RECORD
  5
28
100
AcDbSymbolTableRecord
100
AcDbBlockTableRecord
  2
_OPEN30
340
0
  0
ENDTAB
  0
ENDSEC
  0
SECTION
  2
BLOCKS
  0
BLOCK
  5
D
100
AcDbEntity
  8
0
390
0
100
AcDbBlockBegin
  2
*MODEL_SPACE
 70
     0
 10
0.0
 20
0.0
 30
0.0
  3
*MODEL_SPACE
  1

  0
ENDBLK
  5
E
100
AcDbEntity
  8
0
390
0
100
AcDbBlockEnd
  0
BLOCK
  5
F
100
AcDbEntity
 67
     1
  8
0
390
0
100
AcDbBlockBegin
  2
*PAPER_SPACE
 70
     0
 10
0.0
 20
0.0
 30
0.0
  3
*PAPER_SPACE
  1

  0
ENDBLK
  5
10
100
AcDbEntity
 67
     1
  8
0
390
0
100
AcDbBlockEnd
  0
BLOCK
  5
2E
100
AcDbEntity
  8
0
370
    -2
390
0
100
AcDbBlockBegin
  2
M16-S1-W.HB
 70
     0
 10
0.0
 20
0.0
 30
0.0
  3
M16-S1-W.HB
  1

  0
ARC
  5
30
100
AcDbEntity
  8
0
390
0
  6
PHANTOM
 62
     7
100
AcDbCircle
 10
9.999985
 20
0.0
 30
0.0
 40
24.0
100
AcDbArc
 50
163.221304
 51
196.778624
  0
LINE
  5
31
100
AcDbEntity
  8
0
390
0
  6
PHANTOM
 62
     7
100
AcDbLine
 10
-3.999827
 20
-1.999931
 30
0.0
 11
0.00008
 21
1.999975
 31
0.0
  0
LINE
  5
32
100
AcDbEntity
  8
0
390
0
  6
PHANTOM
 62
     7
100
AcDbLine
 10
-4.0
 20
-14.0
 30
0.0
 11
0.0
 21
-14.0
 31
0.0
  0
LINE
  5
33
100
AcDbEntity
  8
0
390
0
  6
PHANTOM
 62
     7
100
AcDbLine
 10
-4.0
 20
14.0
 30
0.0
 11
0.0
 21
14.0
 31
0.0
  0
LINE
  5
34
100
AcDbEntity
  8
0
390
0
  6
PHANTOM
 62
     7
100
AcDbLine
 10
-14.0
 20
12.0
 30
0.0
 11
-14.0
 21
-12.0
 31
0.0
  0
LINE
  5
35
100
AcDbEntity
  8
0
390
0
  6
PHANTOM
 62
     7
100
AcDbLine
 10
-13.999994
 20
-11.999964
 30
0.0
 11
-12.978246
 21
-13.856378
 31
0.0
  0
LINE
  5
36
100
AcDbEntity
  8
0
390
0
  6
PHANTOM
 62
     7
100
AcDbLine
 10
-12.978254
 20
-6.928178
 30
0.0
 11
-13.999998
 21
-11.999974
 31
0.0
  0
LINE
  5
37
100
AcDbEntity
  8
0
390
0
  6
PHANTOM
 62
     7
100
AcDbLine
 10
-14.000011
 20
12.000006
 30
0.0
 11
-12.978267
 21
6.92821
 31
0.0
  0
LINE
  5
38
100
AcDbEntity
  8
0
390
0
  6
PHANTOM
 62
     7
100
AcDbLine
 10
-12.978251
 20
13.856432
 30
0.0
 11
-13.999999
 21
12.000019
 31
0.0
  0
LINE
  5
39
100
AcDbEntity
  8
0
390
0
  6
PHANTOM
 62
     7
100
AcDbLine
 10
-4.0
 20
-14.0
 30
0.0
 11
-4.0
 21
14.0
 31
0.0
  0
LINE
  5
3A
100
AcDbEntity
  8
0
390
0
  6
PHANTOM
 62
     7
100
AcDbLine
 10
-12.978256
 20
13.856415
 30
0.0
 11
-4.0
 21
13.856415
 31
0.0
  0
LINE
  5
3B
100
AcDbEntity
  8
0
390
0
  6
PHANTOM
 62
     7
100
AcDbLine
 10
-12.978256
 20
6.928207
 30
0.0
 11
-4.0
 21
6.928207
 31
0.0
  0
LINE
  5
3C
100
AcDbEntity
  8
0
390
0
  6
PHANTOM
 62
     7
100
AcDbLine
 10
-12.978256
 20
-6.928192
 30
0.0
 11
-4.0
 21
-6.928192
 31
0.0
  0
LINE
  5
3D
100
AcDbEntity
  8
0
390
0
  6
PHANTOM
 62
     7
100
AcDbLine
 10
-12.978256
 20
-13.8564
 30
0.0
 11
-4.0
 21
-13.8564
 31
0.0
  0
ENDBLK
  5
3E
100
AcDbEntity
  8
0
370
    -2
390
0
100
AcDbBlockEnd
  0
BLOCK
  5
3F
100
AcDbEntity
  8
0
370
    -2
390
0
100
AcDbBlockBegin
  2
M16-T.HB
 70
     0
 10
0.0
 20
0.0
 30
0.0
  3
M16-T.HB
  1

  0
CIRCLE
  5
40
100
AcDbEntity
  8
0
390
0
  6
CONTINUOUS
 62
   151
100
AcDbCircle
 10
0.0
 20
0.0
 30
0.0
 40
12.0
  0
LINE
  5
41
100
AcDbEntity
  8
0
390
0
  6
CONTINUOUS
 62
   151
100
AcDbLine
 10
12.0
 20
-6.928223
 30
0.0
 11
12.0
 21
6.927979
 31
0.0
  0
LINE
  5
42
100
AcDbEntity
  8
0
390
0
  6
CONTINUOUS
 62
   151
100
AcDbLine
 10
-11.999994
 20
-6.928223
 30
0.0
 11
-11.999994
 21
6.927979
 31
0.0
  0
LINE
  5
43
100
AcDbEntity
  8
0
390
0
  6
CONTINUOUS
 62
   151
100
AcDbLine
 10
-11.999994
 20
-6.928216
 30
0.0
 11
-0.000001
 21
-13.856415
 31
0.0
  0
LINE
  5
44
100
AcDbEntity
  8
0
390
0
  6
CONTINUOUS
 62
   151
100
AcDbLine
 10
-0.000011
 20
13.856366
 30
0.0
 11
11.999982
 21
6.928167
 31
0.0
  0
LINE
  5
45
100
AcDbEntity
  8
0
390
0
  6
CONTINUOUS
 62
   151
100
AcDbLine
 10
0.000006
 20
-13.856415
 30
0.0
 11
11.999999
 21
-6.928217
 31
0.0
  0
LINE
  5
46
100
AcDbEntity
  8
0
390
0
  6
CONTINUOUS
 62
   151
100
AcDbLine
 10
-11.999962
 20
6.92814
 30
0.0
 11
0.000031
 21
13.856339
 31
0.0
  0
LINE
  5
48
100
AcDbEntity
  8
0
390
0
  6
CENTER
 62
     7
100
AcDbLine
 10
0.0
 20
16.501465
 30
0.0
 11
0.0
 21
-15.834961
 31
0.0
  0
ENDBLK
  5
49
100
AcDbEntity
  8
0
370
    -2
390
0
100
AcDbBlockEnd
  0
BLOCK
  5
4A
100
AcDbEntity
  8
0
370
    -2
390
0
100
AcDbBlockBegin
  2
M5-T-W.SB
 70
     0
 10
0.0
 20
0.0
 30
0.0
  3
M5-T-W.SB
  1

  0
LINE
  5
4B
100
AcDbEntity
  8
0
390
0
  6
CENTER
 62
     7
100
AcDbLine
 10
0.0
 20
7.099854
 30
0.0
 11
0.0
 21
-7.100098
 31
0.0
  0
LINE
  5
4C
100
AcDbEntity
  8
0
390
0
  6
CONTINUOUS
 62
   151
100
AcDbLine
 10
2.350092
 20
-0.000172
 30
0.0
 11
1.175042
 21
2.03507
 31
0.0
  0
LINE
  5
4D
100
AcDbEntity
  8
0
390
0
  6
CONTINUOUS
 62
   151
100
AcDbLine
 10
2.35
 20
-0.000001
 30
0.0
 11
1.175002
 21
-2.035168
 31
0.0
  0
LINE
  5
4E
100
AcDbEntity
  8
0
390
0
  6
CONTINUOUS
 62
   151
100
AcDbLine
 10
1.175003
 20
-2.0354
 30
0.0
 11
-1.174988
 21
-2.0354
 31
0.0
  0
LINE
  5
4F
100
AcDbEntity
  8
0
390
0
  6
CONTINUOUS
 62
   151
100
AcDbLine
 10
-1.174914
 20
-2.035337
 30
0.0
 11
-2.349958
 21
-0.000091
 31
0.0
  0
LINE
  5
50
100
AcDbEntity
  8
0
390
0
  6
CONTINUOUS
 62
   151
100
AcDbLine
 10
-2.349997
 20
-0.000015
 30
0.0
 11
-1.174993
 21
2.035148
 31
0.0
  0
LINE
  5
51
100
AcDbEntity
  8
0
390
0
  6
CONTINUOUS
 62
   151
100
AcDbLine
 10
-1.174988
 20
2.035156
 30
0.0
 11
1.175003
 21
2.035156
 31
0.0
  0
LINE
  5
52
100
AcDbEntity
  8
0
390
0
  6
CONTINUOUS
 62
   151
100
AcDbLine
 10
4.600006
 20
0.0
 30
0.0
 11
4.25
 21
0.0
 31
0.0
  0
CIRCLE
  5
53
100
AcDbEntity
  8
0
390
0
  6
CONTINUOUS
 62
   151
100
AcDbCircle
 10
0.0
 20
0.0
 30
0.0
 40
4.25
  0
CIRCLE
  5
54
100
AcDbEntity
  8
0
390
0
  6
CONTINUOUS
 62
   151
100
AcDbCircle
 10
0.0
 20
0.0
 30
0.0
 40
3.73
  0
CIRCLE
  5
55
100
AcDbEntity
  8
0
390
0
  6
CONTINUOUS
 62
   151
100
AcDbCircle
 10
0.0
 20
0.0
 30
0.0
 40
4.599999
  0
ENDBLK
  5
56
100
AcDbEntity
  8
0
370
    -2
390
0
100
AcDbBlockEnd
  0
BLOCK
  5
29
100
AcDbEntity
  8
0
370
    -2
390
0
  6
ByBlock
 62
     0
100
AcDbBlockBegin
  2
_OPEN30
 70
     2
 10
0.0
 20
0.0
 30
0.0
  3
_OPEN30
  1

  0
LINE
  5
2A
100
AcDbEntity
  8
0
370
    -2
390
0
  6
ByBlock
 62
     0
100
AcDbLine
 10
-1.0
 20
0.267949
 30
0.0
 11
0.0
 21
0.0
 31
0.0
  0
LINE
  5
2B
100
AcDbEntity
  8
0
370
    -2
390
0
  6
ByBlock
 62
     0
100
AcDbLine
 10
0.0
 20
0.0
 30
0.0
 11
-1.0
 21
-0.267949
 31
0.0
  0
LINE
  5
2C
100
AcDbEntity
  8
0
370
    -2
390
0
  6
ByBlock
 62
     0
100
AcDbLine
 10
0.0
 20
0.0
 30
0.0
 11
-1.0
 21
0.0
 31
0.0
  0
ENDBLK
  5
2D
100
AcDbEntity
  8
0
370
    -2
390
0
  6
ByBlock
 62
     0
100
AcDbBlockEnd
  0
ENDSEC
  0
SECTION
  2
ENTITIES
  0
INSERT
  5
57
100
AcDbEntity
  8
LY_3
390
0
  6
ByBlock
100
AcDbBlockReference
  2
M16-S1-W.HB
 10
-440.970977
 20
-112.170411
 30
0.0
 41
0.999999
 42
-0.999999
 43
0.999999
 50
90.0
  0
INSERT
  5
58
100
AcDbEntity
  8
LY_3
390
0
  6
ByBlock
100
AcDbBlockReference
  2
M16-T.HB
 10
-433.066604
 20
331.463526
 30
0.0
 41
0.999999
 42
0.999999
 43
0.999999
 50
72.0
  0
INSERT
  5
59
100
AcDbEntity
  8
LY_3
390
0
  6
ByBlock
100
AcDbBlockReference
  2
M16-T.HB
 10
-374.398295
 20
412.213527
 30
0.0
 41
0.999999
 42
0.999999
 43
0.999999
 50
36.0
  0
INSERT
  5
5A
100
AcDbEntity
  8
LY_3
390
0
  6
ByBlock
100
AcDbBlockReference
  2
M16-T.HB
 10
-279.470978
 20
443.057283
 30
0.0
 41
0.999999
 42
0.999999
 43
0.999999
  0
INSERT
  5
5B
100
AcDbEntity
  8
LY_3
390
0
  6
ByBlock
100
AcDbBlockReference
  2
M16-T.HB
 10
-184.543658
 20
412.213527
 30
0.0
 41
0.999999
 42
0.999999
 43
0.999999
 50
324.0
  0
INSERT
  5
5C
100
AcDbEntity
  8
LY_3
390
0
  6
ByBlock
100
AcDbBlockReference
  2
M16-T.HB
 10
-125.875349
 20
331.463526
 30
0.0
 41
0.999999
 42
0.999999
 43
0.999999
 50
288.0
  0
INSERT
  5
5D
100
AcDbEntity
  8
LY_3
390
0
  6
ByBlock
100
AcDbBlockReference
  2
M16-T.HB
 10
-125.875349
 20
231.651039
 30
0.0
 41
0.999999
 42
0.999999
 43
0.999999
 50
252.0
  0
INSERT
  5
5E
100
AcDbEntity
  8
LY_3
390
0
  6
ByBlock
100
AcDbBlockReference
  2
M16-T.HB
 10
-184.543658
 20
150.901038
 30
0.0
 41
0.999999
 42
0.999999
 43
0.999999
 50
216.0
  0
INSERT
  5
5F
100
AcDbEntity
  8
LY_3
390
0
  6
ByBlock
100
AcDbBlockReference
  2
M16-T.HB
 10
-279.470978
 20
120.057282
 30
0.0
 41
0.999999
 42
0.999999
 43
0.999999
 50
180.0
  0
INSERT
  5
60
100
AcDbEntity
  8
LY_3
390
0
  6
ByBlock
100
AcDbBlockReference
  2
M16-T.HB
 10
-374.398295
 20
150.901038
 30
0.0
 41
0.999999
 42
0.999999
 43
0.999999
 50
144.0
  0
INSERT
  5
61
100
AcDbEntity
  8
LY_3
390
0
  6
ByBlock
100
AcDbBlockReference
  2
M16-T.HB
 10
-433.066604
 20
231.651039
 30
0.0
 41
0.999999
 42
0.999999
 43
0.999999
 50
108.0
  0
INSERT
  5
62
100
AcDbEntity
  8
LY_3
390
0
  6
ByBlock
100
AcDbBlockReference
  2
M16-S1-W.HB
 10
-440.970977
 20
28.829406
 30
0.0
 41
0.999999
 42
0.999999
 43
0.999999
 50
270.0
  0
INSERT
  5
63
100
AcDbEntity
  8
LY_3
390
0
  6
ByBlock
100
AcDbBlockReference
  2
M5-T-W.SB
 10
-279.470978
 20
411.557283
 30
0.0
 41
0.999999
 42
0.999999
 43
0.999999
  0
INSERT
  5
64
100
AcDbEntity
  8
LY_3
390
0
  6
ByBlock
100
AcDbBlockReference
  2
M5-T-W.SB
 10
-409.470977
 20
281.557281
 30
0.0
 41
0.999999
 42
0.999999
 43
0.999999
 50
90.0
  0
INSERT
  5
65
100
AcDbEntity
  8
LY_3
390
0
  6
ByBlock
100
AcDbBlockReference
  2
M5-T-W.SB
 10
-279.470978
 20
151.557282
 30
0.0
 41
0.999999
 42
0.999999
 43
0.999999
 50
180.0
  0
INSERT
  5
66
100
AcDbEntity
  8
LY_3
390
0
  6
ByBlock
100
AcDbBlockReference
  2
M5-T-W.SB
 10
-149.470976
 20
281.557281
 30
0.0
 41
0.999999
 42
0.999999
 43
0.999999
 50
270.0
  0
INSERT
  5
67
100
AcDbEntity
  8
LY_3
390
0
  6
ByBlock
100
AcDbBlockReference
  2
M16-S1-W.HB
 10
-117.970976
 20
28.829406
 30
0.0
 41
0.999999
 42
0.999999
 43
0.999999
 50
270.0
  0
INSERT
  5
68
100
AcDbEntity
  8
LY_3
390
0
  6
ByBlock
100
AcDbBlockReference
  2
M16-S1-W.HB
 10
-117.970976
 20
-112.170411
 30
0.0
 41
0.999999
 42
-0.999999
 43
0.999999
 50
90.0
  0
MTEXT
  5
69
100
AcDbEntity
  8
LY_3
390
0
  6
CONTINUOUS
 62
     7
100
AcDbMText
 10
146.222809
 20
493.630347
 30
0.0
 40
9.450001
 41
0.0
 71
     1
 72
     1
  1
\W0.833;\A1;ＣＡＭ　ＣＬＵＴＣＨ
 73
     1
 44
0.9
  0
CIRCLE
  5
6A
100
AcDbEntity
  8
LY_3
390
0
  6
CENTER
 62
     7
100
AcDbCircle
 10
-279.470978
 20
281.557281
 30
0.0
 40
161.500002
  0
LINE
  5
6B
100
AcDbEntity
  8
LY_3
390
0
  6
CENTER
 62
     7
100
AcDbLine
 10
-76.970975
 20
58.829406
 30
0.0
 11
-76.970975
 21
-142.170348
 31
0.0
  0
LINE
  5
6C
100
AcDbEntity
  8
LY_3
390
0
  6
CONTINUOUS
 62
   151
100
AcDbLine
 10
-36.970976
 20
28.829406
 30
0.0
 11
-36.970976
 21
-8.170593
 31
0.0
  0
LINE
  5
6D
100
AcDbEntity
  8
LY_3
390
0
  6
CONTINUOUS
 62
   151
100
AcDbLine
 10
-170.210885
 20
28.829406
 30
0.0
 11
-36.970976
 21
28.829406
 31
0.0
  0
LINE
  5
6E
100
AcDbEntity
  8
LY_3
390
0
  6
CONTINUOUS
 62
   151
100
AcDbLine
 10
-459.470978
 20
-112.170411
 30
0.0
 11
-36.970976
 21
-112.170411
 31
0.0
  0
LINE
  5
6F
100
AcDbEntity
  8
LY_3
390
0
  6
CONTINUOUS
 62
   151
100
AcDbLine
 10
-459.470978
 20
-112.170411
 30
0.0
 11
-459.470978
 21
-95.670411
 31
0.0
  0
LINE
  5
70
100
AcDbEntity
  8
LY_3
390
0
  6
CONTINUOUS
 62
   151
100
AcDbLine
 10
-456.970865
 20
-95.670441
 30
0.0
 11
-459.470606
 21
-93.170715
 31
0.0
  0
LINE
  5
71
100
AcDbEntity
  8
LY_3
390
0
  6
CENTER
 62
     7
100
AcDbLine
 10
-440.970977
 20
-131.17041
 30
0.0
 11
-440.970977
 21
-107.17041
 31
0.0
  0
LINE
  5
72
100
AcDbEntity
  8
LY_3
390
0
  6
CONTINUOUS
 62
   151
100
AcDbLine
 10
-279.470978
 20
101.557281
 30
0.0
 11
-91.281533
 21
101.557281
 31
0.0
  0
LINE
  5
73
100
AcDbEntity
  8
LY_3
390
0
  6
CONTINUOUS
 62
   151
100
AcDbLine
 10
-36.970976
 20
141.557283
 30
0.0
 11
-36.970976
 21
421.557282
 31
0.0
  0
CIRCLE
  5
74
100
AcDbEntity
  8
LY_3
390
0
  6
CONTINUOUS
 62
   151
100
AcDbCircle
 10
-279.470978
 20
281.557281
 30
0.0
 40
110.000001
  0
ARC
  5
75
100
AcDbEntity
  8
LY_3
390
0
  6
CONTINUOUS
 62
   151
100
AcDbCircle
 10
-260.270978
 20
372.657282
 30
0.0
 40
0.800001
100
AcDbArc
 50
0.0
 51
90.0
  0
ARC
  5
76
100
AcDbEntity
  8
LY_3
390
0
  6
CONTINUOUS
 62
   151
100
AcDbCircle
 10
-298.670978
 20
372.657282
 30
0.0
 40
0.800001
100
AcDbArc
 50
90.0
 51
180.0
  0
LINE
  5
77
100
AcDbEntity
  8
LY_3
390
0
  6
CONTINUOUS
 62
   151
100
AcDbLine
 10
-299.470976
 20
372.657282
 30
0.0
 11
-299.470976
 21
361.596336
 31
0.0
  0
LINE
  5
78
100
AcDbEntity
  8
LY_3
390
0
  6
CONTINUOUS
 62
   151
100
AcDbLine
 10
-259.470977
 20
372.657282
 30
0.0
 11
-259.470977
 21
361.596336
 31
0.0
  0
LINE
  5
79
100
AcDbEntity
  8
LY_3
390
0
  6
CONTINUOUS
 62
   151
100
AcDbLine
 10
-298.670978
 20
373.457283
 30
0.0
 11
-260.270978
 21
373.457283
 31
0.0
  0
ARC
  5
7A
100
AcDbEntity
  8
LY_3
390
0
  6
CONTINUOUS
 62
   151
100
AcDbCircle
 10
-279.470978
 20
281.557281
 30
0.0
 40
82.5
100
AcDbArc
 50
104.029665
 51
75.970335
  0
LINE
  5
7C
100
AcDbEntity
  8
LY_3
390
0
  6
DASHED
 62
     7
100
AcDbLine
 10
-196.971002
 20
-105.670407
 30
0.0
 11
-193.970999
 21
-108.67041
 31
0.0
  0
LINE
  5
7D
100
AcDbEntity
  8
LY_3
390
0
  6
DASHED
 62
     7
100
AcDbLine
 10
-361.970978
 20
-105.670428
 30
0.0
 11
-364.97096
 21
-108.67041
 31
0.0
  0
LINE
  5
7E
100
AcDbEntity
  8
LY_3
390
0
  6
CONTINUOUS
 62
   151
100
AcDbLine
 10
-459.470978
 20
28.829406
 30
0.0
 11
-459.470978
 21
12.329406
 31
0.0
  0
LINE
  5
7F
100
AcDbEntity
  8
LY_3
390
0
  6
CENTER
 62
     7
100
AcDbLine
 10
-409.470977
 20
21.779409
 30
0.0
 11
-409.470977
 21
38.079396
 31
0.0
  0
LINE
  5
80
100
AcDbEntity
  8
LY_3
390
0
  6
CONTINUOUS
 62
   151
100
AcDbLine
 10
-388.731068
 20
28.829406
 30
0.0
 11
-459.470978
 21
28.829406
 31
0.0
  0
LINE
  5
81
100
AcDbEntity
  8
LY_3
390
0
  6
CONTINUOUS
 62
   151
100
AcDbLine
 10
-459.470978
 20
-93.170343
 30
0.0
 11
-459.470978
 21
9.829338
 31
0.0
  0
LINE
  5
82
100
AcDbEntity
  8
LY_3
390
0
  6
CENTER
 62
     7
100
AcDbLine
 10
-279.470978
 20
-124.670409
 30
0.0
 11
-279.470978
 21
41.329407
 31
0.0
  0
LINE
  5
83
100
AcDbEntity
  8
LY_3
390
0
  6
CONTINUOUS
 62
   151
100
AcDbLine
 10
-456.970865
 20
12.329436
 30
0.0
 11
-459.470606
 21
9.82971
 31
0.0
  0
LINE
  5
84
100
AcDbEntity
  8
LY_3
390
0
  6
CONTINUOUS
 62
   151
100
AcDbLine
 10
-387.860843
 20
29.329407
 30
0.0
 11
-171.08111
 21
29.329407
 31
0.0
  0
LINE
  5
85
100
AcDbEntity
  8
LY_3
390
0
  6
CENTER
 62
     7
100
AcDbLine
 10
-440.970977
 20
47.829408
 30
0.0
 11
-440.970977
 21
23.829408
 31
0.0
  0
CIRCLE
  5
86
100
AcDbEntity
  8
LY_3
390
0
  6
CONTINUOUS
 62
   151
100
AcDbCircle
 10
-360.877358
 20
328.55727
 30
0.0
 40
4.155
  0
CIRCLE
  5
87
100
AcDbEntity
  8
LY_3
390
0
  6
CONTINUOUS
 62
     7
100
AcDbCircle
 10
-360.877358
 20
328.55727
 30
0.0
 40
5.000001
  0
LINE
  5
88
100
AcDbEntity
  8
LY_3
390
0
  6
DASHED
 62
     7
100
AcDbLine
 10
-196.970978
 20
22.329438
 30
0.0
 11
-361.970975
 21
22.329438
 31
0.0
  0
LINE
  5
89
100
AcDbEntity
  8
LY_3
390
0
  6
DASHED
 62
     7
100
AcDbLine
 10
-196.971002
 20
22.329444
 30
0.0
 11
-193.970999
 21
25.32945
 31
0.0
  0
LINE
  5
8A
100
AcDbEntity
  8
LY_3
390
0
  6
DASHED
 62
     7
100
AcDbLine
 10
-361.970978
 20
22.329468
 30
0.0
 11
-364.97096
 21
25.32945
 31
0.0
  0
LINE
  5
8B
100
AcDbEntity
  8
LY_3
390
0
  6
DASHED
 62
     7
100
AcDbLine
 10
-196.970978
 20
-105.670398
 30
0.0
 11
-196.970978
 21
22.329438
 31
0.0
  0
LINE
  5
8C
100
AcDbEntity
  8
LY_3
390
0
  6
DASHED
 62
     7
100
AcDbLine
 10
-361.970975
 20
-105.670398
 30
0.0
 11
-361.970975
 21
22.329438
 31
0.0
  0
LINE
  5
8D
100
AcDbEntity
  8
LY_3
390
0
  6
CENTER
 62
     7
100
AcDbLine
 10
-374.733641
 20
336.557319
 30
0.0
 11
-349.686371
 21
322.096269
 31
0.0
  0
LINE
  5
8E
100
AcDbEntity
  8
LY_3
390
0
  6
CONTINUOUS
 62
   151
100
AcDbLine
 10
-279.470978
 20
461.557284
 30
0.0
 11
-76.970975
 21
461.557284
 31
0.0
  0
LINE
  5
8F
100
AcDbEntity
  8
LY_3
390
0
  6
CONTINUOUS
 62
   151
100
AcDbLine
 10
-76.970975
 20
461.557284
 30
0.0
 11
-9.963248
 21
461.557284
 31
0.0
  0
LINE
  5
90
100
AcDbEntity
  8
LY_3
390
0
  6
CONTINUOUS
 62
   151
100
AcDbLine
 10
135.529024
 20
357.557283
 30
0.0
 11
135.529024
 21
377.557281
 31
0.0
  0
ARC
  5
91
100
AcDbEntity
  8
LY_3
390
0
  6
CONTINUOUS
 62
   151
100
AcDbCircle
 10
-76.970975
 20
421.557282
 30
0.0
 40
39.999999
100
AcDbArc
 50
0.0
 51
90.0
  0
ARC
  5
92
100
AcDbEntity
  8
LY_3
390
0
  6
CONTINUOUS
 62
   151
100
AcDbCircle
 10
-76.970975
 20
141.557283
 30
0.0
 40
39.999999
100
AcDbArc
 50
289.03745
 51
0.0
  0
LINE
  5
93
100
AcDbEntity
  8
LY_3
390
0
  6
CONTINUOUS
 62
   151
100
AcDbLine
 10
1396.529023
 20
205.357281
 30
0.0
 11
1396.529023
 21
357.757281
 31
0.0
  0
CIRCLE
  5
94
100
AcDbEntity
  8
LY_3
390
0
  6
CONTINUOUS
 62
   151
100
AcDbCircle
 10
-279.470978
 20
281.557281
 30
0.0
 40
135.999999
  0
CIRCLE
  5
95
100
AcDbEntity
  8
LY_3
390
0
  6
CENTER
 62
     7
100
AcDbCircle
 10
-279.470978
 20
281.557281
 30
0.0
 40
129.999999
  0
LINE
  5
96
100
AcDbEntity
  8
LY_3
390
0
  6
CONTINUOUS
 62
   151
100
AcDbLine
 10
-96.470975
 20
29.575557
 30
0.0
 11
-96.470975
 21
28.829406
 31
0.0
  0
LINE
  5
97
100
AcDbEntity
  8
LY_3
390
0
  6
CONTINUOUS
 62
   151
100
AcDbLine
 10
-387.860843
 20
-112.670409
 30
0.0
 11
-171.08111
 21
-112.670409
 31
0.0
  0
ARC
  5
98
100
AcDbEntity
  8
LY_3
390
0
  6
CONTINUOUS
 62
   151
100
AcDbCircle
 10
-387.860843
 20
-111.67041
 30
0.0
 40
0.999999
100
AcDbArc
 50
210.0
 51
270.0
  0
LINE
  5
99
100
AcDbEntity
  8
LY_3
390
0
  6
CONTINUOUS
 62
   151
100
AcDbLine
 10
-116.970977
 20
-71.670471
 30
0.0
 11
-116.970977
 21
-11.670471
 31
0.0
  0
LINE
  5
9A
100
AcDbEntity
  8
LY_3
390
0
  6
CONTINUOUS
 62
   151
100
AcDbLine
 10
135.529024
 20
-71.670471
 30
0.0
 11
135.529024
 21
-11.670471
 31
0.0
  0
LINE
  5
9B
100
AcDbEntity
  8
LY_3
390
0
  6
CONTINUOUS
 62
   151
100
AcDbLine
 10
-116.970977
 20
-71.670471
 30
0.0
 11
135.529024
 21
-71.670471
 31
0.0
  0
LINE
  5
9C
100
AcDbEntity
  8
LY_3
390
0
  6
CONTINUOUS
 62
   151
100
AcDbLine
 10
-57.470975
 20
29.575557
 30
0.0
 11
-57.470975
 21
28.829406
 31
0.0
  0
CIRCLE
  5
9D
100
AcDbEntity
  8
LY_3
390
0
  6
CONTINUOUS
 62
   151
100
AcDbCircle
 10
-76.970975
 20
34.829406
 30
0.0
 40
3.999999
  0
LINE
  5
9E
100
AcDbEntity
  8
LY_3
390
0
  6
CENTER
 62
     7
100
AcDbLine
 10
-85.970975
 20
34.829406
 30
0.0
 11
-67.970975
 21
34.829406
 31
0.0
  0
LINE
  5
9F
100
AcDbEntity
  8
LY_3
390
0
  6
CONTINUOUS
 62
   151
100
AcDbLine
 10
-92.651669
 20
43.829406
 30
0.0
 11
-61.290284
 21
43.829406
 31
0.0
  0
CIRCLE
  5
A0
100
AcDbEntity
  8
LY_3
390
0
  6
CONTINUOUS
 62
   151
100
AcDbCircle
 10
-76.970975
 20
-118.170348
 30
0.0
 40
3.999999
  0
LINE
  5
A1
100
AcDbEntity
  8
LY_3
390
0
  6
CENTER
 62
     7
100
AcDbLine
 10
-85.970975
 20
-118.170348
 30
0.0
 11
-67.970975
 21
-118.170348
 31
0.0
  0
LINE
  5
A2
100
AcDbEntity
  8
LY_3
390
0
  6
CONTINUOUS
 62
   151
100
AcDbLine
 10
-92.651738
 20
-127.170348
 30
0.0
 11
-61.290215
 21
-127.170348
 31
0.0
  0
LINE
  5
A3
100
AcDbEntity
  8
LY_3
390
0
  6
CENTER
 62
     7
100
AcDbLine
 10
-507.27089
 20
-41.670501
 30
0.0
 11
-449.470976
 21
-41.670501
 31
0.0
  0
LINE
  5
A4
100
AcDbEntity
  8
LY_3
390
0
  6
CONTINUOUS
 62
   151
100
AcDbLine
 10
-96.266255
 20
92.923491
 30
0.0
 11
-92.802152
 21
90.923493
 31
0.0
  0
LINE
  5
A5
100
AcDbEntity
  8
LY_3
390
0
  6
CONTINUOUS
 62
   151
100
AcDbLine
 10
-57.675698
 20
92.923491
 30
0.0
 11
-61.139798
 21
90.923493
 31
0.0
  0
ARC
  5
A6
100
AcDbEntity
  8
LY_3
390
0
  6
CONTINUOUS
 62
   151
100
AcDbCircle
 10
-76.970975
 20
141.557283
 30
0.0
 40
39.999999
100
AcDbArc
 50
270.0
 51
283.132026
  0
LINE
  5
A7
100
AcDbEntity
  8
LY_3
390
0
  6
CONTINUOUS
 62
   151
100
AcDbLine
 10
-86.662733
 20
101.557281
 30
0.0
 11
-76.970975
 21
101.557281
 31
0.0
  0
LINE
  5
A8
100
AcDbEntity
  8
LY_3
390
0
  6
CONTINUOUS
 62
   151
100
AcDbLine
 10
-72.703028
 20
398.951592
 30
0.0
 11
-57.675698
 21
372.923493
 31
0.0
  0
LINE
  5
A9
100
AcDbEntity
  8
LY_3
390
0
  6
CONTINUOUS
 62
   151
100
AcDbLine
 10
-76.435079
 20
397.415694
 30
0.0
 11
-61.139798
 21
370.923492
 31
0.0
  0
ARC
  5
AA
100
AcDbEntity
  8
LY_3
390
0
  6
CONTINUOUS
 62
   151
100
AcDbCircle
 10
-72.970976
 20
399.415692
 30
0.0
 40
3.999999
100
AcDbArc
 50
180.0
 51
210.0
  0
ARC
  5
AB
100
AcDbEntity
  8
LY_3
390
0
  6
CONTINUOUS
 62
   151
100
AcDbCircle
 10
-70.970975
 20
399.951591
 30
0.0
 40
2.000001
100
AcDbArc
 50
180.0
 51
210.0
  0
LINE
  5
AC
100
AcDbEntity
  8
LY_3
390
0
  6
CONTINUOUS
 62
   151
100
AcDbLine
 10
-77.506874
 20
397.415694
 30
0.0
 11
-92.802152
 21
370.923492
 31
0.0
  0
ARC
  5
AD
100
AcDbEntity
  8
LY_3
390
0
  6
CONTINUOUS
 62
   151
100
AcDbCircle
 10
-80.970977
 20
399.415692
 30
0.0
 40
3.999999
100
AcDbArc
 50
330.0
 51
0.0
  0
LINE
  5
AE
100
AcDbEntity
  8
LY_3
390
0
  6
CONTINUOUS
 62
   151
100
AcDbLine
 10
-81.238925
 20
398.951592
 30
0.0
 11
-96.266255
 21
372.923493
 31
0.0
  0
ARC
  5
AF
100
AcDbEntity
  8
LY_3
390
0
  6
CONTINUOUS
 62
   151
100
AcDbCircle
 10
-82.970975
 20
399.951591
 30
0.0
 40
2.000001
100
AcDbArc
 50
330.0
 51
0.0
  0
LINE
  5
B0
100
AcDbEntity
  8
LY_3
390
0
  6
CONTINUOUS
 62
   151
100
AcDbLine
 10
-57.675698
 20
372.923493
 30
0.0
 11
-61.139798
 21
370.923492
 31
0.0
  0
LINE
  5
B1
100
AcDbEntity
  8
LY_3
390
0
  6
CONTINUOUS
 62
   151
100
AcDbLine
 10
-96.266255
 20
372.923493
 30
0.0
 11
-92.802152
 21
370.923492
 31
0.0
  0
ARC
  5
B2
100
AcDbEntity
  8
LY_3
390
0
  6
CONTINUOUS
 62
   151
100
AcDbCircle
 10
-76.970975
 20
453.557283
 30
0.0
 40
7.5
100
AcDbArc
 50
314.07921
 51
225.92079
  0
ARC
  5
B3
100
AcDbEntity
  8
LY_3
390
0
  6
CONTINUOUS
 62
   151
100
AcDbCircle
 10
-76.970975
 20
453.557283
 30
0.0
 40
3.500001
100
AcDbArc
 50
282.839588
 51
257.160412
  0
ARC
  5
B4
100
AcDbEntity
  8
LY_3
390
0
  6
CONTINUOUS
 62
   151
100
AcDbCircle
 10
-68.970977
 20
445.295928
 30
0.0
 40
3.999999
100
AcDbArc
 50
134.07921
 51
180.0
  0
LINE
  5
B5
100
AcDbEntity
  8
LY_3
390
0
  6
CONTINUOUS
 62
   151
100
AcDbLine
 10
-80.970977
 20
440.642619
 30
0.0
 11
-80.970977
 21
445.295928
 31
0.0
  0
ARC
  5
B6
100
AcDbEntity
  8
LY_3
390
0
  6
CONTINUOUS
 62
   151
100
AcDbCircle
 10
-77.970977
 20
449.169801
 30
0.0
 40
0.999999
100
AcDbArc
 50
0.0
 51
77.160412
  0
ARC
  5
B7
100
AcDbEntity
  8
LY_3
390
0
  6
CONTINUOUS
 62
   151
100
AcDbCircle
 10
-84.970976
 20
445.295928
 30
0.0
 40
3.999999
100
AcDbArc
 50
0.0
 51
45.92079
  0
LINE
  5
B8
100
AcDbEntity
  8
LY_3
390
0
  6
CONTINUOUS
 62
   151
100
AcDbLine
 10
-72.970976
 20
440.642619
 30
0.0
 11
-72.970976
 21
445.295928
 31
0.0
  0
ARC
  5
B9
100
AcDbEntity
  8
LY_3
390
0
  6
CONTINUOUS
 62
   151
100
AcDbCircle
 10
-75.970976
 20
449.169801
 30
0.0
 40
0.999999
100
AcDbArc
 50
102.839588
 51
180.0
  0
LINE
  5
BA
100
AcDbEntity
  8
LY_3
390
0
  6
CONTINUOUS
 62
   151
100
AcDbLine
 10
-76.970975
 20
441.057282
 30
0.0
 11
-76.970975
 21
449.169801
 31
0.0
  0
LINE
  5
BB
100
AcDbEntity
  8
LY_3
390
0
  6
DASHED
 62
     7
100
AcDbLine
 10
-175.770977
 20
-108.67041
 30
0.0
 11
-383.170979
 21
-108.67041
 31
0.0
  0
CIRCLE
  5
BC
100
AcDbEntity
  8
LY_3
390
0
  6
CONTINUOUS
 62
   151
100
AcDbCircle
 10
-279.470978
 20
281.557281
 30
0.0
 40
104.500002
  0
CIRCLE
  5
BD
100
AcDbEntity
  8
LY_3
390
0
  6
CONTINUOUS
 62
   151
100
AcDbCircle
 10
-279.470969
 20
187.557294
 30
0.0
 40
4.155
  0
CIRCLE
  5
BE
100
AcDbEntity
  8
LY_3
390
0
  6
CONTINUOUS
 62
     7
100
AcDbCircle
 10
-279.470969
 20
187.557294
 30
0.0
 40
5.000001
  0
ARC
  5
BF
100
AcDbEntity
  8
LY_3
390
0
  6
CENTER
 62
     7
100
AcDbCircle
 10
-279.470978
 20
281.557281
 30
0.0
 40
93.999999
100
AcDbArc
 50
259.428707
 51
280.571197
  0
CIRCLE
  5
C0
100
AcDbEntity
  8
LY_3
390
0
  6
CONTINUOUS
 62
   151
100
AcDbCircle
 10
-198.064604
 20
328.557285
 30
0.0
 40
4.155
  0
CIRCLE
  5
C1
100
AcDbEntity
  8
LY_3
390
0
  6
CONTINUOUS
 62
     7
100
AcDbCircle
 10
-198.064604
 20
328.557285
 30
0.0
 40
5.000001
  0
LINE
  5
C2
100
AcDbEntity
  8
LY_3
390
0
  6
CENTER
 62
     7
100
AcDbLine
 10
-184.208216
 20
336.557151
 30
0.0
 11
-209.255489
 21
322.096104
 31
0.0
  0
LINE
  5
C3
100
AcDbEntity
  8
LY_3
390
0
  6
DASHED
 62
     7
100
AcDbLine
 10
-383.970977
 20
28.829406
 30
0.0
 11
-383.970977
 21
26.129406
 31
0.0
  0
LINE
  5
C4
100
AcDbEntity
  8
LY_3
390
0
  6
DASHED
 62
     7
100
AcDbLine
 10
-383.970977
 20
-109.470411
 30
0.0
 11
-383.970977
 21
-112.170411
 31
0.0
  0
LINE
  5
C5
100
AcDbEntity
  8
LY_3
390
0
  6
DASHED
 62
     7
100
AcDbLine
 10
-174.970976
 20
-109.470411
 30
0.0
 11
-174.970976
 21
-112.170411
 31
0.0
  0
LINE
  5
C6
100
AcDbEntity
  8
LY_3
390
0
  6
DASHED
 62
     7
100
AcDbLine
 10
-174.970976
 20
28.829406
 30
0.0
 11
-174.970976
 21
26.129406
 31
0.0
  0
ARC
  5
C7
100
AcDbEntity
  8
LY_3
390
0
  6
DASHED
 62
     7
100
AcDbCircle
 10
-383.170979
 20
-109.470411
 30
0.0
 40
0.800001
100
AcDbArc
 50
90.0
 51
180.0
  0
ARC
  5
C8
100
AcDbEntity
  8
LY_3
390
0
  6
DASHED
 62
     7
100
AcDbCircle
 10
-383.170979
 20
26.129406
 30
0.0
 40
0.800001
100
AcDbArc
 50
180.0
 51
270.0
  0
ARC
  5
C9
100
AcDbEntity
  8
LY_3
390
0
  6
DASHED
 62
     7
100
AcDbCircle
 10
-175.770977
 20
26.129406
 30
0.0
 40
0.800001
100
AcDbArc
 50
270.0
 51
0.0
  0
ARC
  5
CA
100
AcDbEntity
  8
LY_3
390
0
  6
DASHED
 62
     7
100
AcDbCircle
 10
-175.770977
 20
-109.470411
 30
0.0
 40
0.800001
100
AcDbArc
 50
0.0
 51
90.0
  0
LINE
  5
CB
100
AcDbEntity
  8
LY_3
390
0
  6
DASHED
 62
     7
100
AcDbLine
 10
-174.970976
 20
-112.170411
 30
0.0
 11
-174.470978
 21
-112.670409
 31
0.0
  0
LINE
  5
CC
100
AcDbEntity
  8
LY_3
390
0
  6
DASHED
 62
     7
100
AcDbLine
 10
-174.970976
 20
28.829406
 30
0.0
 11
-174.470978
 21
29.329407
 31
0.0
  0
LINE
  5
CD
100
AcDbEntity
  8
LY_3
390
0
  6
DASHED
 62
     7
100
AcDbLine
 10
-383.970977
 20
-112.170411
 30
0.0
 11
-384.470978
 21
-112.670409
 31
0.0
  0
LINE
  5
CE
100
AcDbEntity
  8
LY_3
390
0
  6
DASHED
 62
     7
100
AcDbLine
 10
-383.970977
 20
28.829406
 30
0.0
 11
-384.470978
 21
29.329407
 31
0.0
  0
LINE
  5
CF
100
AcDbEntity
  8
LY_3
390
0
  6
PHANTOM
 62
     7
100
AcDbLine
 10
-461.270888
 20
-55.105503
 30
0.0
 11
-461.270888
 21
-28.235502
 31
0.0
  0
LINE
  5
D0
100
AcDbEntity
  8
LY_3
390
0
  6
PHANTOM
 62
     7
100
AcDbLine
 10
-459.269597
 20
-48.170463
 30
0.0
 11
-461.270885
 21
-48.170466
 31
0.0
  0
LINE
  5
D1
100
AcDbEntity
  8
LY_3
390
0
  6
PHANTOM
 62
     7
100
AcDbLine
 10
-459.326834
 20
-47.170464
 30
0.0
 11
-461.270885
 21
-47.170467
 31
0.0
  0
LINE
  5
D2
100
AcDbEntity
  8
LY_3
390
0
  6
PHANTOM
 62
     7
100
AcDbLine
 10
-471.27089
 20
-63.670503
 30
0.0
 11
-471.27089
 21
-19.670502
 31
0.0
  0
LINE
  5
D3
100
AcDbEntity
  8
LY_3
390
0
  6
PHANTOM
 62
     7
100
AcDbLine
 10
-497.270891
 20
-63.670503
 30
0.0
 11
-497.270891
 21
-19.670502
 31
0.0
  0
LINE
  5
D4
100
AcDbEntity
  8
LY_3
390
0
  6
PHANTOM
 62
     7
100
AcDbLine
 10
-471.270887
 20
-55.105503
 30
0.0
 11
-461.270885
 21
-41.670501
 31
0.0
  0
LINE
  5
D5
100
AcDbEntity
  8
LY_3
390
0
  6
PHANTOM
 62
     7
100
AcDbLine
 10
-461.270888
 20
-55.105503
 30
0.0
 11
-471.270884
 21
-41.670501
 31
0.0
  0
LINE
  5
D6
100
AcDbEntity
  8
LY_3
390
0
  6
PHANTOM
 62
     7
100
AcDbLine
 10
-471.270887
 20
-55.105503
 30
0.0
 11
-461.270888
 21
-55.105503
 31
0.0
  0
LINE
  5
D7
100
AcDbEntity
  8
LY_3
390
0
  6
PHANTOM
 62
     7
100
AcDbLine
 10
-497.270891
 20
-63.670503
 30
0.0
 11
-471.27089
 21
-63.670503
 31
0.0
  0
LINE
  5
D8
100
AcDbEntity
  8
LY_3
390
0
  6
PHANTOM
 62
     7
100
AcDbLine
 10
-459.269615
 20
-35.170464
 30
0.0
 11
-461.270903
 21
-35.170467
 31
0.0
  0
LINE
  5
D9
100
AcDbEntity
  8
LY_3
390
0
  6
PHANTOM
 62
     7
100
AcDbLine
 10
-459.326849
 20
-36.170466
 30
0.0
 11
-461.2709
 21
-36.170469
 31
0.0
  0
LINE
  5
DA
100
AcDbEntity
  8
LY_3
390
0
  6
PHANTOM
 62
     7
100
AcDbLine
 10
-471.270887
 20
-28.235502
 30
0.0
 11
-461.270885
 21
-41.670501
 31
0.0
  0
LINE
  5
DB
100
AcDbEntity
  8
LY_3
390
0
  6
PHANTOM
 62
     7
100
AcDbLine
 10
-461.270888
 20
-28.235502
 30
0.0
 11
-471.270884
 21
-41.670501
 31
0.0
  0
LINE
  5
DC
100
AcDbEntity
  8
LY_3
390
0
  6
PHANTOM
 62
     7
100
AcDbLine
 10
-471.270884
 20
-41.670501
 30
0.0
 11
-461.270885
 21
-41.670501
 31
0.0
  0
LINE
  5
DD
100
AcDbEntity
  8
LY_3
390
0
  6
PHANTOM
 62
     7
100
AcDbLine
 10
-471.270887
 20
-28.235502
 30
0.0
 11
-461.270888
 21
-28.235502
 31
0.0
  0
LINE
  5
DE
100
AcDbEntity
  8
LY_3
390
0
  6
PHANTOM
 62
     7
100
AcDbLine
 10
-497.270891
 20
-19.670502
 30
0.0
 11
-471.27089
 21
-19.670502
 31
0.0
  0
LINE
  5
DF
100
AcDbEntity
  8
LY_3
390
0
  6
CONTINUOUS
 62
   151
100
AcDbLine
 10
-417.522908
 20
400.609254
 30
0.0
 11
-398.522948
 21
419.609211
 31
0.0
  0
LINE
  5
E0
100
AcDbEntity
  8
LY_3
390
0
  6
CONTINUOUS
 62
   151
100
AcDbLine
 10
-411.263354
 20
404.157324
 30
0.0
 11
-412.619096
 21
405.513063
 31
0.0
  0
LINE
  5
E1
100
AcDbEntity
  8
LY_3
390
0
  6
CONTINUOUS
 62
     7
100
AcDbLine
 10
-410.579828
 20
404.888013
 30
0.0
 11
-411.911987
 21
406.220169
 31
0.0
  0
LINE
  5
E2
100
AcDbEntity
  8
LY_3
390
0
  6
CONTINUOUS
 62
   151
100
AcDbLine
 10
-430.650347
 20
401.623953
 30
0.0
 11
-399.537647
 21
432.73665
 31
0.0
  0
LINE
  5
E3
100
AcDbEntity
  8
LY_3
390
0
  6
CONTINUOUS
 62
   151
100
AcDbLine
 10
-449.035124
 20
420.00873
 30
0.0
 11
-417.922424
 21
451.121427
 31
0.0
  0
LINE
  5
E4
100
AcDbEntity
  8
LY_3
390
0
  6
CONTINUOUS
 62
     7
100
AcDbLine
 10
-424.593974
 20
407.68032
 30
0.0
 11
-408.022925
 21
410.109231
 31
0.0
  0
LINE
  5
E5
100
AcDbEntity
  8
LY_3
390
0
  6
CONTINUOUS
 62
     7
100
AcDbLine
 10
-417.522908
 20
400.609254
 30
0.0
 11
-415.093991
 21
417.180297
 31
0.0
  0
LINE
  5
E6
100
AcDbEntity
  8
LY_3
390
0
  6
CONTINUOUS
 62
   151
100
AcDbLine
 10
-424.593974
 20
407.68032
 30
0.0
 11
-417.522908
 21
400.609254
 31
0.0
  0
LINE
  5
E7
100
AcDbEntity
  8
LY_3
390
0
  6
CONTINUOUS
 62
   151
100
AcDbLine
 10
-449.035124
 20
420.00873
 30
0.0
 11
-430.650347
 21
401.623953
 31
0.0
  0
LINE
  5
E8
100
AcDbEntity
  8
LY_3
390
0
  6
CONTINUOUS
 62
   151
100
AcDbLine
 10
-402.15398
 20
413.432724
 30
0.0
 11
-403.426721
 21
414.705462
 31
0.0
  0
LINE
  5
E9
100
AcDbEntity
  8
LY_3
390
0
  6
CONTINUOUS
 62
     7
100
AcDbLine
 10
-402.861086
 20
412.725615
 30
0.0
 11
-404.133824
 21
413.998353
 31
0.0
  0
LINE
  5
EA
100
AcDbEntity
  8
LY_3
390
0
  6
CONTINUOUS
 62
     7
100
AcDbLine
 10
-405.594017
 20
426.68028
 30
0.0
 11
-408.022925
 21
410.109231
 31
0.0
  0
LINE
  5
EB
100
AcDbEntity
  8
LY_3
390
0
  6
CONTINUOUS
 62
     7
100
AcDbLine
 10
-398.522948
 20
419.609211
 30
0.0
 11
-415.093991
 21
417.180297
 31
0.0
  0
LINE
  5
EC
100
AcDbEntity
  8
LY_3
390
0
  6
CONTINUOUS
 62
   151
100
AcDbLine
 10
-415.093991
 20
417.180297
 30
0.0
 11
-408.022925
 21
410.109231
 31
0.0
  0
LINE
  5
ED
100
AcDbEntity
  8
LY_3
390
0
  6
CONTINUOUS
 62
   151
100
AcDbLine
 10
-405.594017
 20
426.68028
 30
0.0
 11
-398.522948
 21
419.609211
 31
0.0
  0
LINE
  5
EE
100
AcDbEntity
  8
LY_3
390
0
  6
CONTINUOUS
 62
   151
100
AcDbLine
 10
-417.922424
 20
451.121427
 30
0.0
 11
-399.537647
 21
432.73665
 31
0.0
  0
CIRCLE
  5
EF
100
AcDbEntity
  8
LY_3
390
0
  6
CONTINUOUS
 62
   151
100
AcDbCircle
 10
-440.970977
 20
281.557281
 30
0.0
 40
7.099998
  0
CIRCLE
  5
F0
100
AcDbEntity
  8
LY_3
390
0
  6
CONTINUOUS
 62
     7
100
AcDbCircle
 10
-440.970977
 20
281.557281
 30
0.0
 40
8.000001
  0
CIRCLE
  5
F1
100
AcDbEntity
  8
LY_3
390
0
  6
CONTINUOUS
 62
   151
100
AcDbCircle
 10
-117.970976
 20
281.557281
 30
0.0
 40
7.099998
  0
CIRCLE
  5
F2
100
AcDbEntity
  8
LY_3
390
0
  6
CONTINUOUS
 62
     7
100
AcDbCircle
 10
-117.970976
 20
281.557281
 30
0.0
 40
8.000001
  0
ARC
  5
F3
100
AcDbEntity
  8
LY_3
390
0
  6
CONTINUOUS
 62
   151
100
AcDbCircle
 10
-279.470978
 20
281.557281
 30
0.0
 40
180.0
100
AcDbArc
 50
90.0
 51
270.0
  0
LINE
  5
F4
100
AcDbEntity
  8
LY_3
390
0
  6
CONTINUOUS
 62
   151
100
AcDbLine
 10
-57.470975
 20
-112.91676
 30
0.0
 11
-61.290215
 21
-127.170348
 31
0.0
  0
LINE
  5
F5
100
AcDbEntity
  8
LY_3
390
0
  6
CONTINUOUS
 62
   151
100
AcDbLine
 10
-96.470975
 20
-112.91676
 30
0.0
 11
-92.651738
 21
-127.170348
 31
0.0
  0
LINE
  5
F6
100
AcDbEntity
  8
LY_3
390
0
  6
CONTINUOUS
 62
   151
100
AcDbLine
 10
-96.470975
 20
29.575557
 30
0.0
 11
-92.651738
 21
43.829148
 31
0.0
  0
LINE
  5
F7
100
AcDbEntity
  8
LY_3
390
0
  6
CONTINUOUS
 62
   151
100
AcDbLine
 10
-57.470975
 20
29.575557
 30
0.0
 11
-61.290215
 21
43.829148
 31
0.0
  0
LINE
  5
F8
100
AcDbEntity
  8
LY_3
390
0
  6
CONTINUOUS
 62
   151
100
AcDbLine
 10
135.529024
 20
377.557281
 30
0.0
 11
-9.963248
 21
461.557284
 31
0.0
  0
LINE
  5
F9
100
AcDbEntity
  8
LY_3
390
0
  6
CONTINUOUS
 62
   151
100
AcDbLine
 10
135.529024
 20
185.557281
 30
0.0
 11
-9.963248
 21
101.557281
 31
0.0
  0
LINE
  5
FA
100
AcDbEntity
  8
LY_3
390
0
  6
CONTINUOUS
 62
   151
100
AcDbLine
 10
135.529024
 20
205.557282
 30
0.0
 11
135.529024
 21
185.557281
 31
0.0
  0
LINE
  5
FB
100
AcDbEntity
  8
LY_3
390
0
  6
CONTINUOUS
 62
   151
100
AcDbLine
 10
-76.970975
 20
101.557281
 30
0.0
 11
-67.27922
 21
101.557281
 31
0.0
  0
LINE
  5
FC
100
AcDbEntity
  8
LY_3
390
0
  6
CONTINUOUS
 62
   151
100
AcDbLine
 10
-36.970976
 20
357.757281
 30
0.0
 11
1396.529023
 21
357.757281
 31
0.0
  0
LINE
  5
FD
100
AcDbEntity
  8
LY_3
390
0
  6
CONTINUOUS
 62
   151
100
AcDbLine
 10
-36.970976
 20
205.357281
 30
0.0
 11
1396.529023
 21
205.357281
 31
0.0
  0
LINE
  5
FE
100
AcDbEntity
  8
LY_3
390
0
  6
CONTINUOUS
 62
   151
100
AcDbLine
 10
-36.970976
 20
348.638682
 30
0.0
 11
1396.529023
 21
348.638682
 31
0.0
  0
LINE
  5
FF
100
AcDbEntity
  8
LY_3
390
0
  6
CONTINUOUS
 62
   151
100
AcDbLine
 10
-36.970976
 20
214.475883
 30
0.0
 11
1396.529023
 21
214.475883
 31
0.0
  0
LINE
  5
100
100
AcDbEntity
  8
LY_3
390
0
  6
CONTINUOUS
 62
   151
100
AcDbLine
 10
-36.970976
 20
3.60453
 30
0.0
 11
1396.529023
 21
3.60453
 31
0.0
  0
LINE
  5
101
100
AcDbEntity
  8
LY_3
390
0
  6
CONTINUOUS
 62
   151
100
AcDbLine
 10
-36.970976
 20
-86.945472
 30
0.0
 11
1396.529023
 21
-86.945472
 31
0.0
  0
LINE
  5
102
100
AcDbEntity
  8
LY_3
390
0
  6
CONTINUOUS
 62
   151
100
AcDbLine
 10
-116.970977
 20
-11.670471
 30
0.0
 11
135.529024
 21
-11.670471
 31
0.0
  0
LINE
  5
103
100
AcDbEntity
  8
LY_3
390
0
  6
CONTINUOUS
 62
   151
100
AcDbLine
 10
-204.470978
 20
-8.170593
 30
0.0
 11
-36.970976
 21
-8.170593
 31
0.0
  0
LINE
  5
104
100
AcDbEntity
  8
LY_3
390
0
  6
CONTINUOUS
 62
   151
100
AcDbLine
 10
-204.470978
 20
-75.170349
 30
0.0
 11
-36.970976
 21
-75.170349
 31
0.0
  0
LINE
  5
105
100
AcDbEntity
  8
LY_3
390
0
  6
CONTINUOUS
 62
   151
100
AcDbLine
 10
-36.970976
 20
-112.170348
 30
0.0
 11
-36.970976
 21
-75.170349
 31
0.0
  0
CIRCLE
  5
106
100
AcDbEntity
  8
LY_3
390
0
  6
CONTINUOUS
 62
   151
100
AcDbCircle
 10
-76.970975
 20
421.557282
 30
0.0
 40
19.5
  0
CIRCLE
  5
107
100
AcDbEntity
  8
LY_3
390
0
  6
CONTINUOUS
 62
   151
100
AcDbCircle
 10
-76.970975
 20
141.557283
 30
0.0
 40
19.5
  0
LINE
  5
108
100
AcDbEntity
  8
LY_3
390
0
  6
CONTINUOUS
 62
   151
100
AcDbLine
 10
-72.970976
 20
399.951591
 30
0.0
 11
-72.970976
 21
402.471948
 31
0.0
  0
LINE
  5
109
100
AcDbEntity
  8
LY_3
390
0
  6
CONTINUOUS
 62
   151
100
AcDbLine
 10
-80.970977
 20
399.951591
 30
0.0
 11
-80.970977
 21
402.471948
 31
0.0
  0
LINE
  5
10A
100
AcDbEntity
  8
LY_3
390
0
  6
CONTINUOUS
 62
   151
100
AcDbLine
 10
-76.970975
 20
402.057282
 30
0.0
 11
-76.970975
 21
399.128673
 31
0.0
  0
ARC
  5
10B
100
AcDbEntity
  8
LY_3
390
0
  6
CONTINUOUS
 62
   151
100
AcDbCircle
 10
-76.970975
 20
173.557281
 30
0.0
 40
7.5
100
AcDbArc
 50
314.07921
 51
225.92079
  0
ARC
  5
10C
100
AcDbEntity
  8
LY_3
390
0
  6
CONTINUOUS
 62
   151
100
AcDbCircle
 10
-76.970975
 20
173.557281
 30
0.0
 40
3.500001
100
AcDbArc
 50
282.839588
 51
257.160412
  0
LINE
  5
10D
100
AcDbEntity
  8
LY_3
390
0
  6
CONTINUOUS
 62
   151
100
AcDbLine
 10
-80.970977
 20
160.642617
 30
0.0
 11
-80.970977
 21
165.295926
 31
0.0
  0
LINE
  5
10E
100
AcDbEntity
  8
LY_3
390
0
  6
CONTINUOUS
 62
   151
100
AcDbLine
 10
-72.970976
 20
160.642617
 30
0.0
 11
-72.970976
 21
165.295926
 31
0.0
  0
LINE
  5
10F
100
AcDbEntity
  8
LY_3
390
0
  6
CONTINUOUS
 62
   151
100
AcDbLine
 10
-76.970975
 20
161.057283
 30
0.0
 11
-76.970975
 21
169.169799
 31
0.0
  0
ARC
  5
110
100
AcDbEntity
  8
LY_3
390
0
  6
CONTINUOUS
 62
   151
100
AcDbCircle
 10
-75.970976
 20
169.169799
 30
0.0
 40
0.999999
100
AcDbArc
 50
102.839588
 51
180.0
  0
ARC
  5
111
100
AcDbEntity
  8
LY_3
390
0
  6
CONTINUOUS
 62
   151
100
AcDbCircle
 10
-84.970976
 20
165.295926
 30
0.0
 40
3.999999
100
AcDbArc
 50
0.0
 51
45.92079
  0
ARC
  5
112
100
AcDbEntity
  8
LY_3
390
0
  6
CONTINUOUS
 62
   151
100
AcDbCircle
 10
-77.970977
 20
169.169799
 30
0.0
 40
0.999999
100
AcDbArc
 50
0.0
 51
77.160412
  0
ARC
  5
113
100
AcDbEntity
  8
LY_3
390
0
  6
CONTINUOUS
 62
   151
100
AcDbCircle
 10
-68.970977
 20
165.295926
 30
0.0
 40
3.999999
100
AcDbArc
 50
134.07921
 51
180.0
  0
LINE
  5
114
100
AcDbEntity
  8
LY_3
390
0
  6
CONTINUOUS
 62
   151
100
AcDbLine
 10
-72.703028
 20
118.95159
 30
0.0
 11
-57.675698
 21
92.923491
 31
0.0
  0
LINE
  5
115
100
AcDbEntity
  8
LY_3
390
0
  6
CONTINUOUS
 62
   151
100
AcDbLine
 10
-76.435079
 20
117.415692
 30
0.0
 11
-61.139798
 21
90.923493
 31
0.0
  0
ARC
  5
116
100
AcDbEntity
  8
LY_3
390
0
  6
CONTINUOUS
 62
   151
100
AcDbCircle
 10
-70.970975
 20
119.951589
 30
0.0
 40
2.000001
100
AcDbArc
 50
180.0
 51
210.0
  0
LINE
  5
117
100
AcDbEntity
  8
LY_3
390
0
  6
CONTINUOUS
 62
   151
100
AcDbLine
 10
-77.506874
 20
117.415692
 30
0.0
 11
-92.802152
 21
90.923493
 31
0.0
  0
LINE
  5
118
100
AcDbEntity
  8
LY_3
390
0
  6
CONTINUOUS
 62
   151
100
AcDbLine
 10
-81.238925
 20
118.95159
 30
0.0
 11
-96.266255
 21
92.923491
 31
0.0
  0
ARC
  5
119
100
AcDbEntity
  8
LY_3
390
0
  6
CONTINUOUS
 62
   151
100
AcDbCircle
 10
-82.970975
 20
119.951589
 30
0.0
 40
2.000001
100
AcDbArc
 50
330.0
 51
0.0
  0
LINE
  5
11A
100
AcDbEntity
  8
LY_3
390
0
  6
CONTINUOUS
 62
   151
100
AcDbLine
 10
-76.970975
 20
122.057283
 30
0.0
 11
-76.970975
 21
119.128671
 31
0.0
  0
ARC
  5
11B
100
AcDbEntity
  8
LY_3
390
0
  6
CONTINUOUS
 62
   151
100
AcDbCircle
 10
-80.970977
 20
119.415693
 30
0.0
 40
3.999999
100
AcDbArc
 50
330.0
 51
0.0
  0
ARC
  5
11C
100
AcDbEntity
  8
LY_3
390
0
  6
CONTINUOUS
 62
   151
100
AcDbCircle
 10
-72.970976
 20
119.415693
 30
0.0
 40
3.999999
100
AcDbArc
 50
180.0
 51
210.0
  0
LINE
  5
11D
100
AcDbEntity
  8
LY_3
390
0
  6
CONTINUOUS
 62
   151
100
AcDbLine
 10
-72.970976
 20
119.951589
 30
0.0
 11
-72.970976
 21
122.471946
 31
0.0
  0
LINE
  5
11E
100
AcDbEntity
  8
LY_3
390
0
  6
CONTINUOUS
 62
   151
100
AcDbLine
 10
-80.970977
 20
119.951589
 30
0.0
 11
-80.970977
 21
122.471946
 31
0.0
  0
LINE
  5
11F
100
AcDbEntity
  8
LY_3
390
0
  6
CONTINUOUS
 62
   151
100
AcDbLine
 10
-62.660417
 20
101.557281
 30
0.0
 11
-9.963248
 21
101.557281
 31
0.0
  0
LINE
  5
120
100
AcDbEntity
  8
LY_3
390
0
  6
CONTINUOUS
 62
   151
100
AcDbLine
 10
-459.470978
 20
12.329406
 30
0.0
 11
-204.470978
 21
12.329406
 31
0.0
  0
LINE
  5
121
100
AcDbEntity
  8
LY_3
390
0
  6
CONTINUOUS
 62
   151
100
AcDbLine
 10
-459.470978
 20
-95.670411
 30
0.0
 11
-204.470978
 21
-95.670411
 31
0.0
  0
CIRCLE
  5
122
100
AcDbEntity
  8
LY_3
390
0
  6
CONTINUOUS
 62
   151
100
AcDbCircle
 10
-371.39486
 20
373.481163
 30
0.0
 40
2.150001
  0
CIRCLE
  5
123
100
AcDbEntity
  8
LY_3
390
0
  6
CONTINUOUS
 62
     7
100
AcDbCircle
 10
-371.39486
 20
373.481163
 30
0.0
 40
2.499999
  0
LINE
  5
124
100
AcDbEntity
  8
LY_3
390
0
  6
CENTER
 62
     7
100
AcDbLine
 10
-175.172726
 20
177.259032
 30
0.0
 11
-199.921463
 21
202.007769
 31
0.0
  0
CIRCLE
  5
125
100
AcDbEntity
  8
LY_3
390
0
  6
CONTINUOUS
 62
   151
100
AcDbCircle
 10
-187.547096
 20
189.633402
 30
0.0
 40
2.150001
  0
CIRCLE
  5
126
100
AcDbEntity
  8
LY_3
390
0
  6
CONTINUOUS
 62
     7
100
AcDbCircle
 10
-187.547096
 20
189.633402
 30
0.0
 40
2.499999
  0
LINE
  5
127
100
AcDbEntity
  8
LY_3
390
0
  6
CENTER
 62
     7
100
AcDbLine
 10
-444.085376
 20
446.171679
 30
0.0
 11
-359.02049
 21
361.106796
 31
0.0
  0
ARC
  5
128
100
AcDbEntity
  8
LY_3
390
0
  6
CENTER
 62
     7
100
AcDbCircle
 10
-279.470978
 20
281.557281
 30
0.0
 40
93.999999
100
AcDbArc
 50
19.428707
 51
40.571197
  0
ARC
  5
129
100
AcDbEntity
  8
LY_3
390
0
  6
CENTER
 62
     7
100
AcDbCircle
 10
-279.470978
 20
281.557281
 30
0.0
 40
93.999999
100
AcDbArc
 50
139.428707
 51
161.469013
  0
ARC
  5
12A
100
AcDbEntity
  8
LY_3
390
0
  6
CONTINUOUS
 62
   151
100
AcDbCircle
 10
-171.08111
 20
-111.67041
 30
0.0
 40
0.999999
100
AcDbArc
 50
270.0
 51
330.0
  0
ARC
  5
12B
100
AcDbEntity
  8
LY_3
390
0
  6
CONTINUOUS
 62
   151
100
AcDbCircle
 10
-171.08111
 20
28.329408
 30
0.0
 40
0.999999
100
AcDbArc
 50
30.0
 51
90.0
  0
ARC
  5
12C
100
AcDbEntity
  8
LY_3
390
0
  6
CONTINUOUS
 62
   151
100
AcDbCircle
 10
-387.860843
 20
28.329408
 30
0.0
 40
0.999999
100
AcDbArc
 50
90.0
 51
150.0
  0
MTEXT
  5
12D
100
AcDbEntity
  8
LY_3
390
0
  6
CONTINUOUS
 62
     7
100
AcDbMText
 10
164.322811
 20
477.655347
 30
0.0
 40
12.0
 41
0.0
 71
     1
 72
     1
  1
\W0.781;\A1;ＢＳ１６５Ｆ
 73
     1
 44
0.9
  0
LINE
  5
12E
100
AcDbEntity
  8
LY_3
390
0
  6
DASHED
 62
     7
100
AcDbLine
 10
-196.970978
 20
-105.670398
 30
0.0
 11
-361.970975
 21
-105.670398
 31
0.0
  0
LINE
  5
12F
100
AcDbEntity
  8
LY_3
390
0
  6
DASHED
 62
     7
100
AcDbLine
 10
-175.770977
 20
25.329408
 30
0.0
 11
-383.170979
 21
25.329408
 31
0.0
  0
LINE
  5
130
100
AcDbEntity
  8
LY_3
390
0
  6
CENTER
 62
     7
100
AcDbLine
 10
-279.470978
 20
91.329408
 30
0.0
 11
-279.470978
 21
481.557282
 31
0.0
  0
LINE
  5
131
100
AcDbEntity
  8
LY_3
390
0
  6
CENTER
 62
     7
100
AcDbLine
 10
-469.470977
 20
281.557281
 30
0.0
 11
1416.529024
 21
281.557281
 31
0.0
  0
LINE
  5
132
100
AcDbEntity
  8
LY_3
390
0
  6
CONTINUOUS
 62
   151
100
AcDbLine
 10
-413.201201
 20
33.079395
 30
0.0
 11
-405.74051
 21
33.079395
 31
0.0
  0
LINE
  5
133
100
AcDbEntity
  8
LY_3
390
0
  6
CONTINUOUS
 62
   151
100
AcDbLine
 10
-413.720978
 20
28.829406
 30
0.0
 11
-413.720978
 21
32.779395
 31
0.0
  0
LINE
  5
134
100
AcDbEntity
  8
LY_3
390
0
  6
CONTINUOUS
 62
   151
100
AcDbLine
 10
-405.220976
 20
32.779395
 30
0.0
 11
-405.220976
 21
28.829406
 31
0.0
  0
LINE
  5
135
100
AcDbEntity
  8
LY_3
390
0
  6
CONTINUOUS
 62
   151
100
AcDbLine
 10
-413.720978
 20
32.779392
 30
0.0
 11
-405.220976
 21
32.779392
 31
0.0
  0
LINE
  5
136
100
AcDbEntity
  8
LY_3
390
0
  6
CONTINUOUS
 62
   151
100
AcDbLine
 10
-413.72078
 20
32.779497
 30
0.0
 11
-413.201291
 21
33.079425
 31
0.0
  0
LINE
  5
137
100
AcDbEntity
  8
LY_3
390
0
  6
CONTINUOUS
 62
   151
100
AcDbLine
 10
-405.220958
 20
32.779395
 30
0.0
 11
-405.740579
 21
33.079398
 31
0.0
  0
LINE
  5
138
100
AcDbEntity
  8
LY_3
390
0
  6
CONTINUOUS
 62
     7
100
AcDbLine
 10
-410.431562
 20
30.003825
 30
0.0
 11
-412.002827
 21
32.725338
 31
0.0
  0
LINE
  5
139
100
AcDbEntity
  8
LY_3
390
0
  6
CONTINUOUS
 62
     7
100
AcDbLine
 10
-412.170029
 20
29.014635
 30
0.0
 11
-410.386682
 21
32.103483
 31
0.0
  0
LINE
  5
13A
100
AcDbEntity
  8
LY_3
390
0
  6
CONTINUOUS
 62
     7
100
AcDbLine
 10
-411.552161
 20
28.944765
 30
0.0
 11
-413.168213
 21
31.743849
 31
0.0
  0
LINE
  5
13B
100
AcDbEntity
  8
LY_3
390
0
  6
CONTINUOUS
 62
     7
100
AcDbLine
 10
-413.182682
 20
30.260664
 30
0.0
 11
-411.750065
 21
32.74203
 31
0.0
  0
LINE
  5
13C
100
AcDbEntity
  8
LY_3
390
0
  6
CENTER
 62
     7
100
AcDbLine
 10
-149.470976
 20
21.779409
 30
0.0
 11
-149.470976
 21
38.079396
 31
0.0
  0
LINE
  5
13D
100
AcDbEntity
  8
LY_3
390
0
  6
CONTINUOUS
 62
   151
100
AcDbLine
 10
-145.220978
 20
28.829406
 30
0.0
 11
-145.220978
 21
32.779395
 31
0.0
  0
LINE
  5
13E
100
AcDbEntity
  8
LY_3
390
0
  6
CONTINUOUS
 62
   151
100
AcDbLine
 10
-153.720977
 20
32.779395
 30
0.0
 11
-153.720977
 21
28.829406
 31
0.0
  0
LINE
  5
13F
100
AcDbEntity
  8
LY_3
390
0
  6
CONTINUOUS
 62
     7
100
AcDbLine
 10
-152.170028
 20
29.014635
 30
0.0
 11
-150.386681
 21
32.103483
 31
0.0
  0
LINE
  5
140
100
AcDbEntity
  8
LY_3
390
0
  6
CONTINUOUS
 62
     7
100
AcDbLine
 10
-151.552163
 20
28.944765
 30
0.0
 11
-153.168212
 21
31.743849
 31
0.0
  0
LINE
  5
141
100
AcDbEntity
  8
LY_3
390
0
  6
CONTINUOUS
 62
     7
100
AcDbLine
 10
-153.182684
 20
30.260664
 30
0.0
 11
-151.750067
 21
32.74203
 31
0.0
  0
LINE
  5
142
100
AcDbEntity
  8
LY_3
390
0
  6
CONTINUOUS
 62
     7
100
AcDbLine
 10
-150.431561
 20
30.003825
 30
0.0
 11
-152.002826
 21
32.725338
 31
0.0
  0
LINE
  5
143
100
AcDbEntity
  8
LY_3
390
0
  6
CONTINUOUS
 62
   151
100
AcDbLine
 10
-153.720995
 20
32.779395
 30
0.0
 11
-153.201374
 21
33.079398
 31
0.0
  0
LINE
  5
144
100
AcDbEntity
  8
LY_3
390
0
  6
CONTINUOUS
 62
   151
100
AcDbLine
 10
-145.221176
 20
32.779497
 30
0.0
 11
-145.740665
 21
33.079425
 31
0.0
  0
LINE
  5
145
100
AcDbEntity
  8
LY_3
390
0
  6
CONTINUOUS
 62
   151
100
AcDbLine
 10
-145.220978
 20
32.779392
 30
0.0
 11
-153.720977
 21
32.779392
 31
0.0
  0
LINE
  5
146
100
AcDbEntity
  8
LY_3
390
0
  6
CONTINUOUS
 62
   151
100
AcDbLine
 10
-145.740752
 20
33.079395
 30
0.0
 11
-153.201446
 21
33.079395
 31
0.0
  0
LINE
  5
147
100
AcDbEntity
  8
LY_3
390
0
  6
CENTER
 62
     7
100
AcDbLine
 10
-149.470976
 20
-105.120411
 30
0.0
 11
-149.470976
 21
-121.420398
 31
0.0
  0
LINE
  5
148
100
AcDbEntity
  8
LY_3
390
0
  6
CONTINUOUS
 62
   151
100
AcDbLine
 10
-145.220978
 20
-112.170411
 30
0.0
 11
-145.220978
 21
-116.1204
 31
0.0
  0
LINE
  5
149
100
AcDbEntity
  8
LY_3
390
0
  6
CONTINUOUS
 62
   151
100
AcDbLine
 10
-153.720977
 20
-116.1204
 30
0.0
 11
-153.720977
 21
-112.170411
 31
0.0
  0
LINE
  5
14A
100
AcDbEntity
  8
LY_3
390
0
  6
CONTINUOUS
 62
     7
100
AcDbLine
 10
-146.771927
 20
-112.355637
 30
0.0
 11
-148.555274
 21
-115.444485
 31
0.0
  0
LINE
  5
14B
100
AcDbEntity
  8
LY_3
390
0
  6
CONTINUOUS
 62
     7
100
AcDbLine
 10
-147.389792
 20
-112.28577
 30
0.0
 11
-145.773743
 21
-115.084851
 31
0.0
  0
LINE
  5
14C
100
AcDbEntity
  8
LY_3
390
0
  6
CONTINUOUS
 62
     7
100
AcDbLine
 10
-145.759271
 20
-113.601669
 30
0.0
 11
-147.191888
 21
-116.083035
 31
0.0
  0
LINE
  5
14D
100
AcDbEntity
  8
LY_3
390
0
  6
CONTINUOUS
 62
     7
100
AcDbLine
 10
-148.510394
 20
-113.34483
 30
0.0
 11
-146.939129
 21
-116.066343
 31
0.0
  0
LINE
  5
14E
100
AcDbEntity
  8
LY_3
390
0
  6
CONTINUOUS
 62
   151
100
AcDbLine
 10
-153.720995
 20
-116.1204
 30
0.0
 11
-153.201374
 21
-116.420403
 31
0.0
  0
LINE
  5
14F
100
AcDbEntity
  8
LY_3
390
0
  6
CONTINUOUS
 62
   151
100
AcDbLine
 10
-145.221176
 20
-116.120502
 30
0.0
 11
-145.740665
 21
-116.420427
 31
0.0
  0
LINE
  5
150
100
AcDbEntity
  8
LY_3
390
0
  6
CONTINUOUS
 62
   151
100
AcDbLine
 10
-145.220978
 20
-116.120394
 30
0.0
 11
-153.720977
 21
-116.120394
 31
0.0
  0
LINE
  5
151
100
AcDbEntity
  8
LY_3
390
0
  6
CONTINUOUS
 62
   151
100
AcDbLine
 10
-145.740752
 20
-116.4204
 30
0.0
 11
-153.201446
 21
-116.4204
 31
0.0
  0
LINE
  5
152
100
AcDbEntity
  8
LY_3
390
0
  6
CENTER
 62
     7
100
AcDbLine
 10
-409.470977
 20
-105.120411
 30
0.0
 11
-409.470977
 21
-121.420398
 31
0.0
  0
LINE
  5
153
100
AcDbEntity
  8
LY_3
390
0
  6
CONTINUOUS
 62
   151
100
AcDbLine
 10
-413.720978
 20
-112.170411
 30
0.0
 11
-413.720978
 21
-116.1204
 31
0.0
  0
LINE
  5
154
100
AcDbEntity
  8
LY_3
390
0
  6
CONTINUOUS
 62
   151
100
AcDbLine
 10
-405.220976
 20
-116.1204
 30
0.0
 11
-405.220976
 21
-112.170411
 31
0.0
  0
LINE
  5
155
100
AcDbEntity
  8
LY_3
390
0
  6
CONTINUOUS
 62
     7
100
AcDbLine
 10
-406.771925
 20
-112.355637
 30
0.0
 11
-408.555275
 21
-115.444485
 31
0.0
  0
LINE
  5
156
100
AcDbEntity
  8
LY_3
390
0
  6
CONTINUOUS
 62
     7
100
AcDbLine
 10
-407.389793
 20
-112.28577
 30
0.0
 11
-405.773741
 21
-115.084851
 31
0.0
  0
LINE
  5
157
100
AcDbEntity
  8
LY_3
390
0
  6
CONTINUOUS
 62
     7
100
AcDbLine
 10
-405.759272
 20
-113.601669
 30
0.0
 11
-407.191889
 21
-116.083035
 31
0.0
  0
LINE
  5
158
100
AcDbEntity
  8
LY_3
390
0
  6
CONTINUOUS
 62
     7
100
AcDbLine
 10
-408.510395
 20
-113.34483
 30
0.0
 11
-406.939127
 21
-116.066343
 31
0.0
  0
LINE
  5
159
100
AcDbEntity
  8
LY_3
390
0
  6
CONTINUOUS
 62
   151
100
AcDbLine
 10
-405.220958
 20
-116.1204
 30
0.0
 11
-405.740579
 21
-116.420403
 31
0.0
  0
LINE
  5
15A
100
AcDbEntity
  8
LY_3
390
0
  6
CONTINUOUS
 62
   151
100
AcDbLine
 10
-413.72078
 20
-116.120502
 30
0.0
 11
-413.201291
 21
-116.420427
 31
0.0
  0
LINE
  5
15B
100
AcDbEntity
  8
LY_3
390
0
  6
CONTINUOUS
 62
   151
100
AcDbLine
 10
-413.720978
 20
-116.120394
 30
0.0
 11
-405.220976
 21
-116.120394
 31
0.0
  0
LINE
  5
15C
100
AcDbEntity
  8
LY_3
390
0
  6
CONTINUOUS
 62
   151
100
AcDbLine
 10
-413.201201
 20
-116.4204
 30
0.0
 11
-405.74051
 21
-116.4204
 31
0.0
  0
LINE
  5
15D
100
AcDbEntity
  8
LY_3
390
0
  6
CENTER
 62
     7
100
AcDbLine
 10
-117.970976
 20
47.829408
 30
0.0
 11
-117.970976
 21
23.829408
 31
0.0
  0
LINE
  5
15E
100
AcDbEntity
  8
LY_3
390
0
  6
CENTER
 62
     7
100
AcDbLine
 10
-117.970976
 20
-131.17041
 30
0.0
 11
-117.970976
 21
-107.17041
 31
0.0
  0
LINE
  5
15F
100
AcDbEntity
  8
LY_3
390
0
  6
CONTINUOUS
 62
   151
100
AcDbLine
 10
-204.470978
 20
12.329406
 30
0.0
 11
-204.470978
 21
-8.170593
 31
0.0
  0
LINE
  5
160
100
AcDbEntity
  8
LY_3
390
0
  6
CONTINUOUS
 62
   151
100
AcDbLine
 10
-204.470978
 20
-75.170349
 30
0.0
 11
-204.470978
 21
-95.670411
 31
0.0
  0
LINE
  5
161
100
AcDbEntity
  8
LY_3
390
0
  6
CONTINUOUS
 62
   151
100
AcDbLine
 10
1396.529023
 20
3.60453
 30
0.0
 11
1396.529023
 21
-86.945472
 31
0.0
  0
LINE
  5
162
100
AcDbEntity
  8
LY_3
390
0
  6
CONTINUOUS
 62
   151
100
AcDbLine
 10
-96.470975
 20
-112.170411
 30
0.0
 11
-96.470975
 21
-112.91676
 31
0.0
  0
LINE
  5
163
100
AcDbEntity
  8
LY_3
390
0
  6
CONTINUOUS
 62
   151
100
AcDbLine
 10
-57.470975
 20
-112.170411
 30
0.0
 11
-57.470975
 21
-112.91676
 31
0.0
  0
LINE
  5
164
100
AcDbEntity
  8
LY_3
390
0
  6
CONTINUOUS
 62
   151
100
AcDbLine
 10
-96.470975
 20
-8.170593
 30
0.0
 11
-96.470975
 21
-11.670471
 31
0.0
  0
LINE
  5
165
100
AcDbEntity
  8
LY_3
390
0
  6
CONTINUOUS
 62
   151
100
AcDbLine
 10
-57.470975
 20
-8.170593
 30
0.0
 11
-57.470975
 21
-11.670471
 31
0.0
  0
LINE
  5
166
100
AcDbEntity
  8
LY_3
390
0
  6
CONTINUOUS
 62
   151
100
AcDbLine
 10
-57.470975
 20
-71.670471
 30
0.0
 11
-57.470975
 21
-75.170349
 31
0.0
  0
LINE
  5
167
100
AcDbEntity
  8
LY_3
390
0
  6
CONTINUOUS
 62
   151
100
AcDbLine
 10
-96.470975
 20
-71.670471
 30
0.0
 11
-96.470975
 21
-75.170349
 31
0.0
  0
LINE
  5
168
100
AcDbEntity
  8
LY_3
390
0
  6
CONTINUOUS
 62
   151
100
AcDbLine
 10
-99.470978
 20
-8.170593
 30
0.0
 11
-99.470978
 21
-11.670471
 31
0.0
  0
LINE
  5
169
100
AcDbEntity
  8
LY_3
390
0
  6
CONTINUOUS
 62
   151
100
AcDbLine
 10
-99.470978
 20
-71.670471
 30
0.0
 11
-99.470978
 21
-75.170349
 31
0.0
  0
LINE
  5
16A
100
AcDbEntity
  8
LY_3
390
0
  6
CONTINUOUS
 62
   151
100
AcDbLine
 10
-9.963248
 20
-11.670471
 30
0.0
 11
-9.963248
 21
-71.670471
 31
0.0
  0
ENDSEC
  0
SECTION
  2
OBJECTS
  0
DICTIONARY
  5
19
100
AcDbDictionary
280
     0
281
     1
  3
ACAD_GROUP
350
1A
  3
ACAD_MLINESTYLE
350
1B
  3
ACAD_LAYOUT
350
1E
  3
ACAD_PLOTSETTINGS
350
22
  3
ACAD_PLOTSTYLENAME
350
1F
  0
DICTIONARY
  5
1A
102
{ACAD_REACTORS
330
19
102
}
100
AcDbDictionary
280
     0
281
     1
  0
DICTIONARY
  5
1B
102
{ACAD_REACTORS
330
19
102
}
100
AcDbDictionary
280
     0
281
     1
  3
Standard
350
1C
  0
MLINESTYLE
  5
1C
102
{ACAD_REACTORS
330
1B
102
}
100
AcDbMlineStyle
  2
Standard
 70
     0
  3

 62
     0
 51
90.0
 52
90.0
 71
     2
 49
0.5
 62
   256
  6
ByLayer
 49
-0.5
 62
   256
  6
ByLayer
  0
ACDBDICTIONARYWDFLT
  5
1F
102
{ACAD_REACTORS
330
19
102
}
100
AcDbDictionary
281
     1
  3
Normal
350
1D
100
AcDbDictionaryWithDefault
340
1D
  0
ACDBPLACEHOLDER
  5
1D
102
{ACAD_REACTORS
330
1F
102
}
  0
LAYOUT
  5
20
102
{ACAD_REACTORS
330
1E
102
}
100
AcDbPlotSettings
  1

  2

  4

  6

 40
0.0
 41
0.0
 42
0.0
 43
0.0
 44
0.0
 45
0.0
 46
0.0
 47
0.0
 48
0.0
 49
0.0
140
0.0
141
0.0
142
1.0
143
1.0
 70
  1024
 72
     0
 73
     0
 74
     0
  7

 75
     0
147
1.0
148
0.0
149
0.0
100
AcDbLayout
  1
Model
 70
     0
 71
     0
 10
0.0
 20
0.0
 11
0.0
 21
0.0
 12
0.0
 22
0.0
 32
0.0
 14
0.0
 24
0.0
 34
0.0
 15
0.0
 25
0.0
 35
0.0
146
0.0
 13
0.0
 23
0.0
 33
0.0
 16
0.0
 26
0.0
 36
0.0
 17
0.0
 27
0.0
 37
0.0
 76
     0
330
A
331
0
345
0
346
0
  0
LAYOUT
  5
21
102
{ACAD_REACTORS
330
1E
102
}
100
AcDbPlotSettings
  1

  2

  4

  6

 40
0.0
 41
0.0
 42
0.0
 43
0.0
 44
0.0
 45
0.0
 46
0.0
 47
0.0
 48
0.0
 49
0.0
140
0.0
141
0.0
142
1.0
143
1.0
 70
     0
 72
     0
 73
     0
 74
     0
  7

 75
     0
147
1.0
148
0.0
149
0.0
100
AcDbLayout
  1
Layout1
 70
     0
 71
     0
 10
0.0
 20
0.0
 11
0.0
 21
0.0
 12
0.0
 22
0.0
 32
0.0
 14
0.0
 24
0.0
 34
0.0
 15
0.0
 25
0.0
 35
0.0
146
0.0
 13
0.0
 23
0.0
 33
0.0
 16
0.0
 26
0.0
 36
0.0
 17
0.0
 27
0.0
 37
0.0
 76
     0
330
B
331
0
345
0
346
0
  0
DICTIONARY
  5
1E
102
{ACAD_REACTORS
330
19
102
}
100
AcDbDictionary
280
     0
281
     1
  3
Layout1
350
21
  3
Model
350
20
  0
DICTIONARY
  5
22
102
{ACAD_REACTORS
330
19
102
}
100
AcDbDictionary
280
     0
281
     1
  0
ENDSEC
  0
EOF
