  0
SECTION
  2
HEADER
  9
$ACADVER
  1
AC1014
  9
$ACADMAINTVER
 70
         0
  9
$DWGCODEPAGE
  3
ANSI_932
  9
$INSBASE
 10
0.0
 20
0.0
 30
0.0
  9
$EXTMIN
 10
-166.4456764221
 20
-146.8196769714
 30
0.0
  9
$EXTMAX
 10
149.8732322693
 20
122.1256914138
 30
0.0
  9
$LIMMIN
 10
-166.4456764221
 20
-146.8196769714
  9
$LIMMAX
 10
149.8732322693
 20
122.1256914138
  9
$ORTHOMODE
 70
         0
  9
$REGENMODE
 70
         1
  9
$FILLMODE
 70
         1
  9
$QTEXTMODE
 70
         0
  9
$MIRRTEXT
 70
         1
  9
$DRAGMODE
 70
         2
  9
$LTSCALE
 40
1.0
  9
$OSMODE
 70
         0
  9
$ATTMODE
 70
         1
  9
$TEXTSIZE
 40
3.2000000477
  9
$TRACEWID
 40
0.05
  9
$TEXTSTYLE
  7
MX_NOTE_STANDARD
  9
$CLAYER
  8
0
  9
$CELTYPE
  6
CONTINUOUS
  9
$CECOLOR
 62
       256
  9
$CELTSCALE
 40
1.0
  9
$DELOBJ
 70
         1
  9
$DISPSILH
 70
         0
  9
$DIMSCALE
 40
1.0
  9
$DIMASZ
 40
2.5
  9
$DIMEXO
 40
0.0
  9
$DIMDLI
 40
3.75
  9
$DIMRND
 40
0.0
  9
$DIMDLE
 40
0.0
  9
$DIMEXE
 40
2.5
  9
$DIMTP
 40
0.0
  9
$DIMTM
 40
0.0
  9
$DIMTXT
 40
3.2000000477
  9
$DIMCEN
 40
2.5
  9
$DIMTSZ
 40
0.0
  9
$DIMTOL
 70
         0
  9
$DIMLIM
 70
         0
  9
$DIMTIH
 70
         0
  9
$DIMTOH
 70
         0
  9
$DIMSE1
 70
         0
  9
$DIMSE2
 70
         0
  9
$DIMTAD
 70
         1
  9
$DIMZIN
 70
         8
  9
$DIMBLK
  1

  9
$DIMASO
 70
         1
  9
$DIMSHO
 70
         1
  9
$DIMPOST
  1

  9
$DIMAPOST
  1

  9
$DIMALT
 70
         0
  9
$DIMALTD
 70
         4
  9
$DIMALTF
 40
0.0393700787
  9
$DIMLFAC
 40
1.0
  9
$DIMTOFL
 70
         1
  9
$DIMTVP
 40
0.0
  9
$DIMTIX
 70
         0
  9
$DIMSOXD
 70
         0
  9
$DIMSAH
 70
         1
  9
$DIMBLK1
  1
_OPEN30
  9
$DIMBLK2
  1
_OPEN30
  9
$DIMSTYLE
  2
MXDIMSTYLE
  9
$DIMCLRD
 70
         0
  9
$DIMCLRE
 70
         0
  9
$DIMCLRT
 70
         0
  9
$DIMTFAC
 40
1.0
  9
$DIMGAP
 40
1.0
  9
$DIMJUST
 70
         0
  9
$DIMSD1
 70
         0
  9
$DIMSD2
 70
         0
  9
$DIMTOLJ
 70
         0
  9
$DIMTZIN
 70
         0
  9
$DIMALTZ
 70
         0
  9
$DIMALTTZ
 70
         0
  9
$DIMFIT
 70
         3
  9
$DIMUPT
 70
         0
  9
$DIMUNIT
 70
         2
  9
$DIMDEC
 70
         2
  9
$DIMTDEC
 70
         2
  9
$DIMALTU
 70
         2
  9
$DIMALTTD
 70
         4
  9
$DIMTXSTY
  7
MX_NOTE_STANDARD
  9
$DIMAUNIT
 70
         0
  9
$LUNITS
 70
         2
  9
$LUPREC
 70
         4
  9
$SKETCHINC
 40
0.1
  9
$FILLETRAD
 40
0.0
  9
$AUNITS
 70
         0
  9
$AUPREC
 70
         0
  9
$MENU
  1
acad
  9
$ELEVATION
 40
0.0
  9
$PELEVATION
 40
0.0
  9
$THICKNESS
 40
0.0
  9
$LIMCHECK
 70
         0
  9
$BLIPMODE
 70
         1
  9
$CHAMFERA
 40
0.0
  9
$CHAMFERB
 40
0.0
  9
$CHAMFERC
 40
0.0
  9
$CHAMFERD
 40
0.0
  9
$SKPOLY
 70
         0
  9
$TDCREATE
 40
2456603.419490741
  9
$TDUPDATE
 40
2456603.419490741
  9
$TDINDWG
 40
0.0000000000
  9
$TDUSRTIMER
 40
0.0000000000
  9
$USRTIMER
 70
         1
  9
$ANGBASE
 50
0.0
  9
$ANGDIR
 70
         0
  9
$PDMODE
 70
         0
  9
$PDSIZE
 40
0.0
  9
$PLINEWID
 40
0.0
  9
$COORDS
 70
         1
  9
$SPLFRAME
 70
         0
  9
$SPLINETYPE
 70
         6
  9
$SPLINESEGS
 70
         8
  9
$ATTDIA
 70
         0
  9
$ATTREQ
 70
         1
  9
$HANDLING
 70
         1
  9
$HANDSEED
  5
EE
  9
$SURFTAB1
 70
         6
  9
$SURFTAB2
 70
         6
  9
$SURFTYPE
 70
         6
  9
$SURFU
 70
         6
  9
$SURFV
 70
         6
  9
$UCSNAME
  2

  9
$UCSORG
 10
0.0
 20
0.0
 30
0.0
  9
$UCSXDIR
 10
1.0
 20
0.0
 30
0.0
  9
$UCSYDIR
 10
0.0
 20
1.0
 30
0.0
  9
$PUCSNAME
  2

  9
$PUCSORG
 10
0.0
 20
0.0
 30
0.0
  9
$PUCSXDIR
 10
1.0
 20
0.0
 30
0.0
  9
$PUCSYDIR
 10
0.0
 20
1.0
 30
0.0
  9
$USERI1
 70
         0
  9
$USERI2
 70
         0
  9
$USERI3
 70
         0
  9
$USERI4
 70
         0
  9
$USERI5
 70
         0
  9
$USERR1
 40
0.0
  9
$USERR2
 40
0.0
  9
$USERR3
 40
0.0
  9
$USERR4
 40
0.0
  9
$USERR5
 40
0.0
  9
$WORLDVIEW
 70
         1
  9
$SHADEDGE
 70
         3
  9
$SHADEDIF
 70
        70
  9
$TILEMODE
 70
         1
  9
$MAXACTVP
 70
        16
  9
$PINSBASE
 10
0.0
 20
0.0
 30
0.0
  9
$PLIMCHECK
 70
         0
  9
$PEXTMIN
 10
1.0000000000E+20
 20
1.0000000000E+20
 30
1.0000000000E+20
  9
$PEXTMAX
 10
-1.0000000000E+20
 20
-1.0000000000E+20
 30
-1.0000000000E+20
  9
$PLIMMIN
 10
0.0
 20
0.0
  9
$PLIMMAX
 10
12.0
 20
9.0
  9
$UNITMODE
 70
         0
  9
$VISRETAIN
 70
         0
  9
$PLINEGEN
 70
         1
  9
$PSLTSCALE
 70
         0
  9
$TREEDEPTH
 70
      3020
  9
$PICKSTYLE
 70
         1
  9
$CMLSTYLE
  2
Standard
  9
$CMLJUST
 70
         0
  9
$CMLSCALE
 40
1.0
  9
$PROXYGRAPHICS
 70
         0
  9
$MEASUREMENT
 70
         1
  0
ENDSEC
  0
SECTION
  2
CLASSES
  0
CLASS
  1
LWPOLYLINE
  2
AcDbPolyline
  3
"AutoCAD"
 90
        0
280
         0
281
         1
  0
CLASS
  1
IMAGE
  2
AcDbRasterImage
  3
ISM
 90
      127
280
         0
281
         1
  0
CLASS
  1
OLE2FRAME
  2
AcDbOle2Frame
  3
""
 90
        0
280
         0
281
         1
  0
CLASS
  1
HATCH
  2
AcDbHatch
  3
"ACAD_SEDONA"
 90
        0
280
         0
281
         1
  0
CLASS
  1
DICTIONARYVAR
  2
AcDbDictionaryVar
  3
"AutoCAD"
 90
        0
280
         0
281
         0
  0
CLASS
  1
RASTERVARIABLES
  2
AcDbRasterVariables
  3
ISM
 90
        0
280
         0
281
         0
  0
CLASS
  1
IMAGEDEF
  2
AcDbRasterImageDef
  3
ISM
 90
        0
280
         0
281
         0
  0
CLASS
  1
IMAGEDEF_REACTOR
  2
AcDbRasterImageDefReactor
  3
ISM
 90
        1
280
         0
281
         0
  0
CLASS
  1
IDBUFFER
  2
AcDbIdBuffer
  3
"Acad"
 90
        0
280
         0
281
         0
  0
CLASS
  1
SPATIAL_FILTER
  2
AcDbSpatialFilter
  3
"Acad"
 90
        0
280
         0
281
         0
  0
CLASS
  1
XRECORD
  2
AcDbXrecord
  3
"<Built In>"
 90
        0
280
         0
281
         0
  0
CLASS
  1
SORTENTSTABLE
  2
AcDbSortentsTable
  3
"AutoCAD"
 90
        0
280
         0
281
         0
  0
CLASS
  1
LAYER_INDEX
  2
AcDbLayerIndex
  3
"Acad"
 90
        0
280
         0
281
         0
  0
CLASS
  1
SPATIAL_INDEX
  2
AcDbSpatialIndex
  3
"Acad"
 90
        0
280
         0
281
         0
  0
CLASS
  1
OBJECT_PTR
  2
CAseDLPNTableRecord
  3
"ASE-LPNTableRecord"
 90
        1
280
         0
281
         0
  0
CLASS
  1
LAYOUT
  2
AcDbLayout
  3
"AutoCAD 2000"
 90
        0
280
         0
281
         0
  0
CLASS
  1
PLOTSETTINGS
  2
AcDbPlotSettings
  3
"AutoCAD 2000"
 90
        0
280
         0
281
         0
  0
CLASS
  1
ACDBDICTIONARYWDFLT
  2
AcDbDictionaryWithDefault
  3
"AutoCAD 2000"
 90
        0
280
         0
281
         0
  0
CLASS
  1
ACDBPLACEHOLDER
  2
AcDbPlaceHolder
  3
"AutoCAD 2000"
 90
        0
280
         0
281
         0
  0
ENDSEC
  0
SECTION
  2
TABLES
  0
TABLE
  2
VPORT
  5
7
100
AcDbSymbolTable
 70
         1
  0
VPORT
  5
15
100
AcDbSymbolTableRecord
100
AcDbViewportTableRecord
  2
*ACTIVE
 70
         0
 10
0.0
 20
0.0
 11
1.0
 21
1.0
 12
-8.2862220764
 22
-12.3469927788
 13
0.0
 23
0.0
 14
1.0
 24
1.0
 15
0.0
 25
0.0
 16
0.0
 26
0.0
 36
1.0
 17
0.0
 27
0.0
 37
0.0
 40
271.6348220691
 41
1.7320508076
 42
50.0
 43
0.0
 44
0.0
 50
0.0
 51
0.0
 71
         0
 72
       100
 73
         1
 74
         1
 75
         0
 76
         0
 77
         0
 78
         0
  0
ENDTAB
  0
TABLE
  2
LTYPE
  5
4
100
AcDbSymbolTable
 70
         5
  0
LTYPE
  5
11
100
AcDbSymbolTableRecord
100
AcDbLinetypeTableRecord
  2
BYBLOCK
 70
        64
  3

 72
        65
 73
         0
 40
0.0
  0
LTYPE
  5
12
100
AcDbSymbolTableRecord
100
AcDbLinetypeTableRecord
  2
BYLAYER
 70
        64
  3

 72
        65
 73
         0
 40
0.0
  0
LTYPE
  5
13
100
AcDbSymbolTableRecord
100
AcDbLinetypeTableRecord
  2
CONTINUOUS
 70
        64
  3
Solid line
 72
        65
 73
         0
 40
0.0
  0
LTYPE
  5
2A
100
AcDbSymbolTableRecord
100
AcDbLinetypeTableRecord
  2
CENTER
 70
        64
  3
Center ____ _ ____ _ ____ _ ____ _ ____ _ ____
 72
        65
 73
         4
 40
50.8
 49
31.75
 74
         0
 49
-6.35
 74
         0
 49
6.35
 74
         0
 49
-6.35
 74
         0
  0
LTYPE
  5
8E
100
AcDbSymbolTableRecord
100
AcDbLinetypeTableRecord
  2
DASHED
 70
        64
  3
Dashed __ __ __ __ __ __ __ __ __ __ __ __ __ _
 72
        65
 73
         2
 40
19.05
 49
12.7
 74
         0
 49
-6.35
 74
         0
  0
ENDTAB
  0
TABLE
  2
LAYER
  5
2
100
AcDbSymbolTable
 70
         3
  0
LAYER
  5
14
100
AcDbSymbolTableRecord
100
AcDbLayerTableRecord
  2
0
 70
         0
 62
         7
  6
CONTINUOUS
  0
LAYER
  5
1D
100
AcDbSymbolTableRecord
100
AcDbLayerTableRecord
  2
DEFPOINTS
 70
         0
 62
         7
  6
CONTINUOUS
  0
LAYER
  5
1E
100
AcDbSymbolTableRecord
100
AcDbLayerTableRecord
  2
LY_3
 70
         0
 62
         7
  6
CONTINUOUS
  0
ENDTAB
  0
TABLE
  2
STYLE
  5
3
100
AcDbSymbolTable
 70
         1
  0
STYLE
  5
17
100
AcDbSymbolTableRecord
100
AcDbTextStyleTableRecord
  2
MX_NOTE_STANDARD
 70
         0
 40
0.0
 41
1.0
 50
0.0
 71
         0
 42
3.2000000477
  3
txt.shx
  4
extfont.shx
  0
ENDTAB
  0
TABLE
  2
VIEW
  5
5
100
AcDbSymbolTable
 70
         0
  0
ENDTAB
  0
TABLE
  2
UCS
  5
6
100
AcDbSymbolTable
 70
         0
  0
ENDTAB
  0
TABLE
  2
APPID
  5
8
100
AcDbSymbolTable
 70
         1
  0
APPID
  5
16
100
AcDbSymbolTableRecord
100
AcDbRegAppTableRecord
  2
ACAD
 70
         0
  0
ENDTAB
  0
TABLE
  2
DIMSTYLE
  5
9
100
AcDbSymbolTable
 70
         1
  0
DIMSTYLE
105
18
100
AcDbSymbolTableRecord
100
AcDbDimStyleTableRecord
  2
MXDIMSTYLE
 70
         0
  3

  4

  5

  6
_OPEN30
  7
_OPEN30
 40
1.0
 41
2.5
 42
0.0
 43
3.75
 44
2.5
 45
0.0
 46
0.0
 47
0.0
 48
0.0
 71
         0
 72
         0
 73
         0
 74
         0
 75
         0
 76
         0
 77
         1
 78
         8
140
3.2000000477
141
2.5
142
0.0
143
0.0393700787
144
1.0
145
0.0
146
1.0
147
1.0
170
         0
171
         4
172
         1
173
         1
174
         0
175
         0
176
         0
177
         0
178
         0
270
         2
271
         2
272
         2
273
         2
274
         4
275
         0
280
         0
281
         0
282
         0
283
         0
284
         0
285
         0
286
         0
287
         3
288
         0
340
17
  0
ENDTAB
  0
TABLE
  2
BLOCK_RECORD
  5
1
100
AcDbSymbolTable
 70
         1
  0
BLOCK_RECORD
  5
A
100
AcDbSymbolTableRecord
100
AcDbBlockTableRecord
  2
*MODEL_SPACE
  0
BLOCK_RECORD
  5
B
100
AcDbSymbolTableRecord
100
AcDbBlockTableRecord
  2
*PAPER_SPACE
  0
BLOCK_RECORD
  5
1F
100
AcDbSymbolTableRecord
100
AcDbBlockTableRecord
  2
_OPEN30
  0
ENDTAB
  0
ENDSEC
  0
SECTION
  2
BLOCKS
  0
BLOCK
  5
D
100
AcDbEntity
  8
0
100
AcDbBlockBegin
  2
*MODEL_SPACE
 70
         0
 10
0.0
 20
0.0
 30
0.0
  3
*MODEL_SPACE
  1

  0
ENDBLK
  5
E
100
AcDbEntity
  8
0
100
AcDbBlockEnd
  0
BLOCK
  5
F
100
AcDbEntity
 67
         1
  8
0
100
AcDbBlockBegin
  2
*PAPER_SPACE
 70
         0
 10
0.0
 20
0.0
 30
0.0
  3
*PAPER_SPACE
  1

  0
ENDBLK
  5
10
100
AcDbEntity
 67
         1
  8
0
100
AcDbBlockEnd
  0
BLOCK
  5
20
100
AcDbEntity
  8
0
  6
ByBlock
 62
         0
100
AcDbBlockBegin
  2
_OPEN30
 70
         2
 10
0.0
 20
0.0
 30
0.0
  3
_OPEN30
  1

  0
LINE
  5
21
100
AcDbEntity
  8
0
  6
ByBlock
 62
         0
100
AcDbLine
 10
-1.0
 20
0.267949
 30
0.0
 11
0.0
 21
0.0
 31
0.0
  0
LINE
  5
22
100
AcDbEntity
  8
0
  6
ByBlock
 62
         0
100
AcDbLine
 10
0.0
 20
0.0
 30
0.0
 11
-1.0
 21
-0.267949
 31
0.0
  0
LINE
  5
23
100
AcDbEntity
  8
0
  6
ByBlock
 62
         0
100
AcDbLine
 10
0.0
 20
0.0
 30
0.0
 11
-1.0
 21
0.0
 31
0.0
  0
ENDBLK
  5
24
100
AcDbEntity
  8
0
  6
ByBlock
 62
         0
100
AcDbBlockEnd
  0
ENDSEC
  0
SECTION
  2
ENTITIES
  0
MTEXT
  5
25
100
AcDbEntity
  8
0
  6
CONTINUOUS
 62
       110
100
AcDbMText
 10
-147.4464030812
 20
117.7423582077
 30
0.0
 40
13.1499996185
 41
0.0
 71
         1
 72
         1
  1
\W1.050;\A1;TSUBAKI
  0
POINT
  5
26
100
AcDbEntity
  8
LY_3
  6
CONTINUOUS
 62
       172
100
AcDbPoint
 10
-166.4456764221
 20
-51.8196769714
 30
0.0
  0
POINT
  5
27
100
AcDbEntity
  8
LY_3
  6
CONTINUOUS
 62
       172
100
AcDbPoint
 10
54.8732322693
 20
-51.8196769714
 30
0.0
  0
POINT
  5
28
100
AcDbEntity
  8
LY_3
  6
CONTINUOUS
 62
       172
100
AcDbPoint
 10
-106.4456764221
 20
-51.8196769714
 30
0.0
  0
POINT
  5
29
100
AcDbEntity
  8
LY_3
  6
CONTINUOUS
 62
       172
100
AcDbPoint
 10
-166.4456764221
 20
-51.8196769714
 30
0.0
  0
LINE
  5
2B
100
AcDbEntity
  8
LY_3
  6
CENTER
 62
        80
100
AcDbLine
 10
54.8732322693
 20
41.1803264954
 30
0.0
 11
54.8732322693
 21
20.1803195617
 31
0.0
  0
LINE
  5
2C
100
AcDbEntity
  8
LY_3
  6
CENTER
 62
        80
100
AcDbLine
 10
-38.1267711976
 20
-51.8196769714
 30
0.0
 11
-17.1267642639
 21
-51.8196769714
 31
0.0
  0
LINE
  5
2D
100
AcDbEntity
  8
LY_3
  6
CONTINUOUS
 62
         3
100
AcDbLine
 10
-161.4456764221
 20
18.1803230286
 30
0.0
 11
-111.4456764221
 21
18.1803230286
 31
0.0
  0
LINE
  5
2E
100
AcDbEntity
  8
LY_3
  6
CONTINUOUS
 62
         3
100
AcDbLine
 10
-154.4456459045
 20
1.4163154602
 30
0.0
 11
-118.4456764221
 21
1.4163154602
 31
0.0
  0
LINE
  5
2F
100
AcDbEntity
  8
LY_3
  6
CONTINUOUS
 62
         3
100
AcDbLine
 10
-162.4456764221
 20
1.4163154602
 30
0.0
 11
-158.4456764221
 21
1.4163154602
 31
0.0
  0
LINE
  5
30
100
AcDbEntity
  8
LY_3
  6
CONTINUOUS
 62
         3
100
AcDbLine
 10
-114.4456764221
 20
1.4163154602
 30
0.0
 11
-110.4456764221
 21
1.4163154602
 31
0.0
  0
LINE
  5
31
100
AcDbEntity
  8
LY_3
  6
CONTINUOUS
 62
         3
100
AcDbLine
 10
-161.4456764221
 20
43.1803230286
 30
0.0
 11
-161.4456764221
 21
8.4803108215
 31
0.0
  0
LINE
  5
32
100
AcDbEntity
  8
LY_3
  6
CONTINUOUS
 62
         3
100
AcDbLine
 10
-111.4456764221
 20
43.1803230286
 30
0.0
 11
-111.4456764221
 21
8.4803108215
 31
0.0
  0
LINE
  5
33
100
AcDbEntity
  8
LY_3
  6
CONTINUOUS
 62
         3
100
AcDbLine
 10
-158.4456764221
 20
8.4803108215
 30
0.0
 11
-158.4456764221
 21
-1.3196769714
 31
0.0
  0
LINE
  5
34
100
AcDbEntity
  8
LY_3
  6
CONTINUOUS
 62
         3
100
AcDbLine
 10
-114.4456764221
 20
8.4803108215
 30
0.0
 11
-114.4456764221
 21
-1.3196769714
 31
0.0
  0
LINE
  5
35
100
AcDbEntity
  8
LY_3
  6
CONTINUOUS
 62
         3
100
AcDbLine
 10
-158.4456764221
 20
-1.3196769714
 30
0.0
 11
-154.4456459045
 21
-1.3196769714
 31
0.0
  0
LINE
  5
36
100
AcDbEntity
  8
LY_3
  6
CONTINUOUS
 62
         3
100
AcDbLine
 10
-118.4456764221
 20
-1.3196769714
 30
0.0
 11
-114.4456764221
 21
-1.3196769714
 31
0.0
  0
LINE
  5
37
100
AcDbEntity
  8
LY_3
  6
CONTINUOUS
 62
         3
100
AcDbLine
 10
-158.4456764221
 20
8.4803108215
 30
0.0
 11
-154.4456764221
 21
8.4803108215
 31
0.0
  0
LINE
  5
38
100
AcDbEntity
  8
LY_3
  6
CONTINUOUS
 62
         3
100
AcDbLine
 10
-118.4456764221
 20
8.4803108215
 30
0.0
 11
-114.4456764221
 21
8.4803108215
 31
0.0
  0
LINE
  5
39
100
AcDbEntity
  8
LY_3
  6
CONTINUOUS
 62
         3
100
AcDbLine
 10
-166.4456764221
 20
-4.3196769714
 30
0.0
 11
-162.4456764221
 21
-4.3196769714
 31
0.0
  0
LINE
  5
3A
100
AcDbEntity
  8
LY_3
  6
CONTINUOUS
 62
         3
100
AcDbLine
 10
-110.4456764221
 20
-4.3196769714
 30
0.0
 11
-106.4456764221
 21
-4.3196769714
 31
0.0
  0
LINE
  5
3B
100
AcDbEntity
  8
LY_3
  6
CONTINUOUS
 62
         3
100
AcDbLine
 10
-166.4456764221
 20
-4.3196769714
 30
0.0
 11
-166.4456764221
 21
-99.3196769714
 31
0.0
  0
LINE
  5
3C
100
AcDbEntity
  8
LY_3
  6
CONTINUOUS
 62
         3
100
AcDbLine
 10
-106.4456764221
 20
-4.3196769714
 30
0.0
 11
-106.4456764221
 21
-99.3196769714
 31
0.0
  0
LINE
  5
3D
100
AcDbEntity
  8
LY_3
  6
CONTINUOUS
 62
         3
100
AcDbLine
 10
-110.4456764221
 20
1.4163154602
 30
0.0
 11
-110.4456764221
 21
-4.3196769714
 31
0.0
  0
LINE
  5
3E
100
AcDbEntity
  8
LY_3
  6
CONTINUOUS
 62
         3
100
AcDbLine
 10
-162.4456764221
 20
1.4163154602
 30
0.0
 11
-162.4456764221
 21
-4.3196769714
 31
0.0
  0
LINE
  5
3F
100
AcDbEntity
  8
LY_3
  6
CONTINUOUS
 62
         3
100
AcDbLine
 10
-161.4456764221
 20
43.1803230286
 30
0.0
 11
-111.4456764221
 21
43.1803230286
 31
0.0
  0
LINE
  5
40
100
AcDbEntity
  8
LY_3
  6
CONTINUOUS
 62
         3
100
AcDbLine
 10
-166.4456764221
 20
-16.8196769714
 30
0.0
 11
-106.4456764221
 21
-16.8196769714
 31
0.0
  0
LINE
  5
41
100
AcDbEntity
  8
LY_3
  6
CONTINUOUS
 62
         3
100
AcDbLine
 10
-161.4456764221
 20
25.1803230286
 30
0.0
 11
-111.4456764221
 21
25.1803230286
 31
0.0
  0
LINE
  5
42
100
AcDbEntity
  8
LY_3
  6
CONTINUOUS
 62
         3
100
AcDbLine
 10
-161.4456764221
 20
-121.8196769714
 30
0.0
 11
-111.4456764221
 21
-121.8196769714
 31
0.0
  0
LINE
  5
43
100
AcDbEntity
  8
LY_3
  6
CONTINUOUS
 62
         3
100
AcDbLine
 10
-154.4456764221
 20
-105.0556770325
 30
0.0
 11
-118.4456764221
 21
-105.0556770325
 31
0.0
  0
LINE
  5
44
100
AcDbEntity
  8
LY_3
  6
CONTINUOUS
 62
         3
100
AcDbLine
 10
-162.4456764221
 20
-105.0556770325
 30
0.0
 11
-158.4456764221
 21
-105.0556770325
 31
0.0
  0
LINE
  5
45
100
AcDbEntity
  8
LY_3
  6
CONTINUOUS
 62
         3
100
AcDbLine
 10
-114.4456764221
 20
-105.0556770325
 30
0.0
 11
-110.4456764221
 21
-105.0556770325
 31
0.0
  0
LINE
  5
46
100
AcDbEntity
  8
LY_3
  6
CONTINUOUS
 62
         3
100
AcDbLine
 10
-161.4456764221
 20
-146.8196769714
 30
0.0
 11
-161.4456764221
 21
-112.1196762085
 31
0.0
  0
LINE
  5
47
100
AcDbEntity
  8
LY_3
  6
CONTINUOUS
 62
         3
100
AcDbLine
 10
-111.4456764221
 20
-146.8196769714
 30
0.0
 11
-111.4456764221
 21
-112.1196762085
 31
0.0
  0
LINE
  5
48
100
AcDbEntity
  8
LY_3
  6
CONTINUOUS
 62
         3
100
AcDbLine
 10
-158.4456764221
 20
-112.1196762085
 30
0.0
 11
-158.4456764221
 21
-102.3196769714
 31
0.0
  0
LINE
  5
49
100
AcDbEntity
  8
LY_3
  6
CONTINUOUS
 62
         3
100
AcDbLine
 10
-114.4456764221
 20
-112.1196762085
 30
0.0
 11
-114.4456764221
 21
-102.3196769714
 31
0.0
  0
LINE
  5
4A
100
AcDbEntity
  8
LY_3
  6
CONTINUOUS
 62
         3
100
AcDbLine
 10
-158.4456764221
 20
-102.3196769714
 30
0.0
 11
-154.4456764221
 21
-102.3196769714
 31
0.0
  0
LINE
  5
4B
100
AcDbEntity
  8
LY_3
  6
CONTINUOUS
 62
         3
100
AcDbLine
 10
-118.4456764221
 20
-102.3196769714
 30
0.0
 11
-114.4456764221
 21
-102.3196769714
 31
0.0
  0
LINE
  5
4C
100
AcDbEntity
  8
LY_3
  6
CONTINUOUS
 62
         3
100
AcDbLine
 10
-158.4456764221
 20
-112.1196762085
 30
0.0
 11
-154.4456764221
 21
-112.1196762085
 31
0.0
  0
LINE
  5
4D
100
AcDbEntity
  8
LY_3
  6
CONTINUOUS
 62
         3
100
AcDbLine
 10
-118.4456764221
 20
-112.1196762085
 30
0.0
 11
-114.4456764221
 21
-112.1196762085
 31
0.0
  0
LINE
  5
4E
100
AcDbEntity
  8
LY_3
  6
CONTINUOUS
 62
         3
100
AcDbLine
 10
-166.4456764221
 20
-99.3196769714
 30
0.0
 11
-162.4456764221
 21
-99.3196769714
 31
0.0
  0
LINE
  5
4F
100
AcDbEntity
  8
LY_3
  6
CONTINUOUS
 62
         3
100
AcDbLine
 10
-110.4456764221
 20
-99.3196769714
 30
0.0
 11
-106.4456764221
 21
-99.3196769714
 31
0.0
  0
LINE
  5
50
100
AcDbEntity
  8
LY_3
  6
CONTINUOUS
 62
         3
100
AcDbLine
 10
-151.4456764221
 20
-128.8196769714
 30
0.0
 11
-111.4456764221
 21
-128.8196769714
 31
0.0
  0
LINE
  5
51
100
AcDbEntity
  8
LY_3
  6
CONTINUOUS
 62
         3
100
AcDbLine
 10
-151.4456764221
 20
-139.8196769714
 30
0.0
 11
-111.4456764221
 21
-139.8196769714
 31
0.0
  0
LINE
  5
52
100
AcDbEntity
  8
LY_3
  6
CONTINUOUS
 62
         3
100
AcDbLine
 10
-110.4456764221
 20
-105.0556770325
 30
0.0
 11
-110.4456764221
 21
-99.3196769714
 31
0.0
  0
LINE
  5
53
100
AcDbEntity
  8
LY_3
  6
CONTINUOUS
 62
         3
100
AcDbLine
 10
-162.4456764221
 20
-105.0556770325
 30
0.0
 11
-162.4456764221
 21
-99.3196769714
 31
0.0
  0
LINE
  5
54
100
AcDbEntity
  8
LY_3
  6
CONTINUOUS
 62
         3
100
AcDbLine
 10
-161.4456764221
 20
-146.8196769714
 30
0.0
 11
-111.4456764221
 21
-146.8196769714
 31
0.0
  0
LINE
  5
55
100
AcDbEntity
  8
LY_3
  6
CONTINUOUS
 62
         3
100
AcDbLine
 10
-166.4456764221
 20
-86.8196769714
 30
0.0
 11
-106.4456764221
 21
-86.8196769714
 31
0.0
  0
LINE
  5
56
100
AcDbEntity
  8
LY_3
  6
CONTINUOUS
 62
         3
100
AcDbLine
 10
-166.4456764221
 20
-11.919683075
 30
0.0
 11
-106.4456764221
 21
-11.919683075
 31
0.0
  0
LINE
  5
57
100
AcDbEntity
  8
LY_3
  6
CENTER
 62
        80
100
AcDbLine
 10
117.2270631172
 20
-15.8196731128
 30
0.0
 11
135.413596515
 21
-5.3196729715
 31
0.0
  0
LINE
  5
58
100
AcDbEntity
  8
LY_3
  6
CENTER
 62
        80
100
AcDbLine
 10
90.8732326633
 20
10.5341431153
 30
0.0
 11
101.3732328046
 21
28.7206765132
 31
0.0
  0
LINE
  5
59
100
AcDbEntity
  8
LY_3
  6
CENTER
 62
        80
100
AcDbLine
 10
90.873223365
 20
-114.1734825684
 30
0.0
 11
101.3732235063
 21
-132.3600159662
 31
0.0
  0
LINE
  5
5A
100
AcDbEntity
  8
LY_3
  6
CENTER
 62
        80
100
AcDbLine
 10
117.2270609714
 20
-87.819686162
 30
0.0
 11
135.4135943693
 21
-98.3196863033
 31
0.0
  0
LINE
  5
5B
100
AcDbEntity
  8
LY_3
  6
CENTER
 62
        80
100
AcDbLine
 10
18.8732376546
 20
10.534148588
 30
0.0
 11
8.3732375132
 21
28.7206819859
 31
0.0
  0
LINE
  5
5C
100
AcDbEntity
  8
LY_3
  6
CENTER
 62
        80
100
AcDbLine
 10
-7.4805999176
 20
-15.8196832854
 30
0.0
 11
-25.6671316637
 21
-5.3196840978
 31
0.0
  0
LINE
  5
5D
100
AcDbEntity
  8
LY_3
  6
CENTER
 62
        80
100
AcDbLine
 10
18.8732316941
 20
-114.1735144701
 30
0.0
 11
8.3732353675
 21
-132.3600412607
 31
0.0
  0
LINE
  5
5E
100
AcDbEntity
  8
LY_3
  6
CENTER
 62
        80
100
AcDbLine
 10
-7.4805944682
 20
-87.819674082
 30
0.0
 11
-25.6671542951
 21
-98.3196894821
 31
0.0
  0
LINE
  5
5F
100
AcDbEntity
  8
LY_3
  6
CONTINUOUS
 62
         3
100
AcDbLine
 10
44.8732322693
 20
-11.919683075
 30
0.0
 11
64.8732322693
 21
-11.919683075
 31
0.0
  0
LINE
  5
60
100
AcDbEntity
  8
LY_3
  6
CONTINUOUS
 62
         3
100
AcDbLine
 10
44.8732322693
 20
-11.919683075
 30
0.0
 11
44.8732322693
 21
-18.2786613464
 31
0.0
  0
LINE
  5
61
100
AcDbEntity
  8
LY_3
  6
CONTINUOUS
 62
         3
100
AcDbLine
 10
64.8732322693
 20
-11.919683075
 30
0.0
 11
64.8732322693
 21
-18.2786613464
 31
0.0
  0
LINE
  5
62
100
AcDbEntity
  8
LY_3
  6
CONTINUOUS
 62
        80
100
AcDbLine
 10
-161.4456764221
 20
-129.3196769714
 30
0.0
 11
-151.4456764221
 21
-129.3196769714
 31
0.0
  0
LINE
  5
63
100
AcDbEntity
  8
LY_3
  6
CONTINUOUS
 62
        80
100
AcDbLine
 10
-161.4456764221
 20
-139.3196769714
 30
0.0
 11
-151.4456764221
 21
-139.3196769714
 31
0.0
  0
LINE
  5
64
100
AcDbEntity
  8
LY_3
  6
CONTINUOUS
 62
         3
100
AcDbLine
 10
-161.4456764221
 20
-129.8696762085
 30
0.0
 11
-151.4456764221
 21
-129.8696762085
 31
0.0
  0
LINE
  5
65
100
AcDbEntity
  8
LY_3
  6
CONTINUOUS
 62
         3
100
AcDbLine
 10
-161.4456764221
 20
-138.7696777344
 30
0.0
 11
-151.4456764221
 21
-138.7696777344
 31
0.0
  0
LINE
  5
66
100
AcDbEntity
  8
LY_3
  6
CONTINUOUS
 62
         3
100
AcDbLine
 10
-150.4456459045
 20
16.6803230286
 30
0.0
 11
-150.4456459045
 21
1.4163154602
 31
0.0
  0
LINE
  5
67
100
AcDbEntity
  8
LY_3
  6
CONTINUOUS
 62
         3
100
AcDbLine
 10
-154.4456459045
 20
6.9033149719
 30
0.0
 11
-150.4456459045
 21
6.9033149719
 31
0.0
  0
LINE
  5
68
100
AcDbEntity
  8
LY_3
  6
CONTINUOUS
 62
         3
100
AcDbLine
 10
-154.4456459045
 20
16.6803230286
 30
0.0
 11
-154.4456459045
 21
-1.3196769714
 31
0.0
  0
LINE
  5
69
100
AcDbEntity
  8
LY_3
  6
CONTINUOUS
 62
         3
100
AcDbLine
 10
-154.4456459045
 20
16.6803230286
 30
0.0
 11
-150.4456459045
 21
16.6803230286
 31
0.0
  0
LINE
  5
6A
100
AcDbEntity
  8
LY_3
  6
CONTINUOUS
 62
         3
100
AcDbLine
 10
-154.4456459045
 20
14.3033088684
 30
0.0
 11
-150.4456459045
 21
14.3033088684
 31
0.0
  0
LINE
  5
6B
100
AcDbEntity
  8
LY_3
  6
CONTINUOUS
 62
         3
100
AcDbLine
 10
-148.4456764221
 20
11.9333137512
 30
0.0
 11
-124.4456764221
 21
11.9333137512
 31
0.0
  0
LINE
  5
6C
100
AcDbEntity
  8
LY_3
  6
CONTINUOUS
 62
         3
100
AcDbLine
 10
-148.8956581116
 20
15.2100471497
 30
0.0
 11
-123.9956642151
 21
15.2100471497
 31
0.0
  0
LINE
  5
6D
100
AcDbEntity
  8
LY_3
  6
CONTINUOUS
 62
         3
100
AcDbLine
 10
-122.4456764221
 20
16.6803230286
 30
0.0
 11
-118.4456764221
 21
16.6803230286
 31
0.0
  0
LINE
  5
6E
100
AcDbEntity
  8
LY_3
  6
CONTINUOUS
 62
         3
100
AcDbLine
 10
-118.4456764221
 20
16.6803230286
 30
0.0
 11
-118.4456764221
 21
-1.3196769714
 31
0.0
  0
LINE
  5
6F
100
AcDbEntity
  8
LY_3
  6
CONTINUOUS
 62
         3
100
AcDbLine
 10
-118.4456764221
 20
6.9033149719
 30
0.0
 11
-122.4456764221
 21
6.9033149719
 31
0.0
  0
LINE
  5
70
100
AcDbEntity
  8
LY_3
  6
CONTINUOUS
 62
         3
100
AcDbLine
 10
-122.4456764221
 20
16.6803230286
 30
0.0
 11
-122.4456764221
 21
1.4163154602
 31
0.0
  0
LINE
  5
71
100
AcDbEntity
  8
LY_3
  6
CONTINUOUS
 62
         3
100
AcDbLine
 10
-118.4456764221
 20
14.3033088684
 30
0.0
 11
-122.4456764221
 21
14.3033088684
 31
0.0
  0
LINE
  5
72
100
AcDbEntity
  8
LY_3
  6
CONTINUOUS
 62
         3
100
AcDbLine
 10
-148.4456764221
 20
18.1803230286
 30
0.0
 11
-148.4456764221
 21
1.4163154602
 31
0.0
  0
LINE
  5
73
100
AcDbEntity
  8
LY_3
  6
CONTINUOUS
 62
         3
100
AcDbLine
 10
-124.4456764221
 20
18.1803230286
 30
0.0
 11
-124.4456764221
 21
1.4163154602
 31
0.0
  0
LINE
  5
74
100
AcDbEntity
  8
LY_3
  6
CONTINUOUS
 62
         3
100
AcDbLine
 10
-150.4456459045
 20
5.103327179
 30
0.0
 11
-148.4456764221
 21
5.103327179
 31
0.0
  0
LINE
  5
75
100
AcDbEntity
  8
LY_3
  6
CONTINUOUS
 62
         3
100
AcDbLine
 10
-150.4456459045
 20
16.103327179
 30
0.0
 11
-148.4456764221
 21
16.103327179
 31
0.0
  0
LINE
  5
76
100
AcDbEntity
  8
LY_3
  6
CONTINUOUS
 62
         3
100
AcDbLine
 10
-124.4456764221
 20
5.103327179
 30
0.0
 11
-122.4456764221
 21
5.103327179
 31
0.0
  0
LINE
  5
77
100
AcDbEntity
  8
LY_3
  6
CONTINUOUS
 62
         3
100
AcDbLine
 10
-124.4456764221
 20
16.103327179
 30
0.0
 11
-122.4456764221
 21
16.103327179
 31
0.0
  0
LINE
  5
78
100
AcDbEntity
  8
LY_3
  6
CONTINUOUS
 62
         3
100
AcDbLine
 10
-148.8956581116
 20
15.2100471497
 30
0.0
 11
-148.8956581116
 21
4.603327179
 31
0.0
  0
LINE
  5
79
100
AcDbEntity
  8
LY_3
  6
CONTINUOUS
 62
         3
100
AcDbLine
 10
-123.9956642151
 20
15.2100471497
 30
0.0
 11
-123.9956642151
 21
4.603327179
 31
0.0
  0
LINE
  5
7A
100
AcDbEntity
  8
LY_3
  6
CONTINUOUS
 62
         3
100
AcDbLine
 10
-148.4456764221
 20
-106.705676651
 30
0.0
 11
-124.4456764221
 21
-106.705676651
 31
0.0
  0
LINE
  5
7B
100
AcDbEntity
  8
LY_3
  6
CONTINUOUS
 62
         3
100
AcDbLine
 10
-148.4456764221
 20
-121.4336772919
 30
0.0
 11
-124.4456764221
 21
-121.4336772919
 31
0.0
  0
LINE
  5
7C
100
AcDbEntity
  8
LY_3
  6
CONTINUOUS
 62
         3
100
AcDbLine
 10
-150.4456459045
 20
-120.3196846008
 30
0.0
 11
-150.4456459045
 21
-105.0556770325
 31
0.0
  0
LINE
  5
7D
100
AcDbEntity
  8
LY_3
  6
CONTINUOUS
 62
         3
100
AcDbLine
 10
-154.4456459045
 20
-120.3196846008
 30
0.0
 11
-154.4456459045
 21
-102.3196769714
 31
0.0
  0
LINE
  5
7E
100
AcDbEntity
  8
LY_3
  6
CONTINUOUS
 62
         3
100
AcDbLine
 10
-154.4456459045
 20
-110.5426765442
 30
0.0
 11
-150.4456459045
 21
-110.5426765442
 31
0.0
  0
LINE
  5
7F
100
AcDbEntity
  8
LY_3
  6
CONTINUOUS
 62
         3
100
AcDbLine
 10
-154.4456459045
 20
-117.9426704407
 30
0.0
 11
-150.4456459045
 21
-117.9426704407
 31
0.0
  0
LINE
  5
80
100
AcDbEntity
  8
LY_3
  6
CONTINUOUS
 62
         3
100
AcDbLine
 10
-154.4456459045
 20
-120.3196846008
 30
0.0
 11
-150.4456459045
 21
-120.3196846008
 31
0.0
  0
LINE
  5
81
100
AcDbEntity
  8
LY_3
  6
CONTINUOUS
 62
         3
100
AcDbLine
 10
-150.4456459045
 20
-119.7426887512
 30
0.0
 11
-148.4456764221
 21
-119.7426887512
 31
0.0
  0
LINE
  5
82
100
AcDbEntity
  8
LY_3
  6
CONTINUOUS
 62
         3
100
AcDbLine
 10
-148.4456764221
 20
-121.8196769714
 30
0.0
 11
-148.4456764221
 21
-105.0556770325
 31
0.0
  0
LINE
  5
83
100
AcDbEntity
  8
LY_3
  6
CONTINUOUS
 62
         3
100
AcDbLine
 10
-150.4456459045
 20
-108.7426887512
 30
0.0
 11
-148.4456764221
 21
-108.7426887512
 31
0.0
  0
LINE
  5
84
100
AcDbEntity
  8
LY_3
  6
CONTINUOUS
 62
         3
100
AcDbLine
 10
-124.4456764221
 20
-119.7426887512
 30
0.0
 11
-122.4456764221
 21
-119.7426887512
 31
0.0
  0
LINE
  5
85
100
AcDbEntity
  8
LY_3
  6
CONTINUOUS
 62
         3
100
AcDbLine
 10
-118.4456764221
 20
-117.9426704407
 30
0.0
 11
-122.4456764221
 21
-117.9426704407
 31
0.0
  0
LINE
  5
86
100
AcDbEntity
  8
LY_3
  6
CONTINUOUS
 62
         3
100
AcDbLine
 10
-122.4456764221
 20
-120.3196846008
 30
0.0
 11
-122.4456764221
 21
-105.0556770325
 31
0.0
  0
LINE
  5
87
100
AcDbEntity
  8
LY_3
  6
CONTINUOUS
 62
         3
100
AcDbLine
 10
-122.4456764221
 20
-120.3196846008
 30
0.0
 11
-118.4456764221
 21
-120.3196846008
 31
0.0
  0
LINE
  5
88
100
AcDbEntity
  8
LY_3
  6
CONTINUOUS
 62
         3
100
AcDbLine
 10
-118.4456764221
 20
-120.3196846008
 30
0.0
 11
-118.4456764221
 21
-102.3196769714
 31
0.0
  0
LINE
  5
89
100
AcDbEntity
  8
LY_3
  6
CONTINUOUS
 62
         3
100
AcDbLine
 10
-118.4456764221
 20
-110.5426765442
 30
0.0
 11
-122.4456764221
 21
-110.5426765442
 31
0.0
  0
LINE
  5
8A
100
AcDbEntity
  8
LY_3
  6
CONTINUOUS
 62
         3
100
AcDbLine
 10
-124.4456764221
 20
-108.7426887512
 30
0.0
 11
-122.4456764221
 21
-108.7426887512
 31
0.0
  0
LINE
  5
8B
100
AcDbEntity
  8
LY_3
  6
CONTINUOUS
 62
         3
100
AcDbLine
 10
-124.4456764221
 20
-121.8196769714
 30
0.0
 11
-124.4456764221
 21
-105.0556770325
 31
0.0
  0
LINE
  5
8C
100
AcDbEntity
  8
LY_3
  6
CONTINUOUS
 62
         3
100
AcDbLine
 10
-161.4456764221
 20
36.1796821594
 30
0.0
 11
-111.4456764221
 21
36.1796821594
 31
0.0
  0
LINE
  5
8D
100
AcDbEntity
  8
LY_3
  6
CENTER
 62
        80
100
AcDbLine
 10
124.1988531695
 20
-121.1446908067
 30
0.0
 11
103.4306557166
 21
-100.3764933538
 31
0.0
  0
LINE
  5
8F
100
AcDbEntity
  8
LY_3
  6
DASHED
 62
        80
100
AcDbLine
 10
117.1714832101
 20
-120.1984219022
 30
0.0
 11
112.644105158
 21
-115.6710438501
 31
0.0
  0
LINE
  5
90
100
AcDbEntity
  8
LY_3
  6
DASHED
 62
        80
100
AcDbLine
 10
116.6522448261
 20
-120.6691502752
 30
0.0
 11
112.644105158
 21
-116.6610106071
 31
0.0
  0
LINE
  5
91
100
AcDbEntity
  8
LY_3
  6
DASHED
 62
        80
100
AcDbLine
 10
119.7144392775
 20
-109.5898133201
 30
0.0
 11
112.6433714656
 21
-116.660881132
 31
0.0
  0
LINE
  5
92
100
AcDbEntity
  8
LY_3
  6
DASHED
 62
        80
100
AcDbLine
 10
118.0173873185
 20
-109.5897917409
 30
0.0
 11
112.6433714656
 21
-114.9638075938
 31
0.0
  0
LINE
  5
93
100
AcDbEntity
  8
LY_3
  6
DASHED
 62
        80
100
AcDbLine
 10
112.6444114685
 20
-114.9642978668
 30
0.0
 11
112.6444114685
 21
-116.6613498688
 31
0.0
  0
LINE
  5
94
100
AcDbEntity
  8
LY_3
  6
DASHED
 62
        80
100
AcDbLine
 10
109.1131891979
 20
-113.130094647
 30
0.0
 11
112.644105158
 21
-116.6610106071
 31
0.0
  0
LINE
  5
95
100
AcDbEntity
  8
LY_3
  6
DASHED
 62
        80
100
AcDbLine
 10
101.2369803609
 20
-104.263919053
 30
0.0
 11
112.6441267371
 21
-115.6710654293
 31
0.0
  0
LINE
  5
96
100
AcDbEntity
  8
LY_3
  6
DASHED
 62
        80
100
AcDbLine
 10
116.1839549012
 20
-106.0593289438
 30
0.0
 11
109.1128870893
 21
-113.1303967557
 31
0.0
  0
LINE
  5
97
100
AcDbEntity
  8
LY_3
  6
DASHED
 62
        80
100
AcDbLine
 10
107.3180814157
 20
-98.1827748398
 30
0.0
 11
118.7252493712
 21
-109.5899427952
 31
0.0
  0
LINE
  5
98
100
AcDbEntity
  8
LY_3
  6
DASHED
 62
        80
100
AcDbLine
 10
116.184278589
 20
-106.0590484144
 30
0.0
 11
119.715194549
 21
-109.5899643744
 31
0.0
  0
LINE
  5
99
100
AcDbEntity
  8
LY_3
  6
DASHED
 62
        80
100
AcDbLine
 10
119.714907074
 20
-109.5902763367
 30
0.0
 11
118.0178855896
 21
-109.5902763367
 31
0.0
  0
LINE
  5
9A
100
AcDbEntity
  8
LY_3
  6
DASHED
 62
        80
100
AcDbLine
 10
123.252584265
 20
-114.117277689
 30
0.0
 11
118.7252493712
 21
-109.5899427952
 31
0.0
  0
LINE
  5
9B
100
AcDbEntity
  8
LY_3
  6
DASHED
 62
        80
100
AcDbLine
 10
123.7232694796
 20
-113.5980393049
 30
0.0
 11
119.715194549
 21
-109.5899643744
 31
0.0
  0
LINE
  5
9C
100
AcDbEntity
  8
LY_3
  6
CONTINUOUS
 62
         3
100
AcDbLine
 10
-151.4456764221
 20
-139.8196769714
 30
0.0
 11
-151.4456764221
 21
-128.8196769714
 31
0.0
  0
LINE
  5
9D
100
AcDbEntity
  8
LY_3
  6
CONTINUOUS
 62
         3
100
AcDbLine
 10
-158.4456764221
 20
18.1803230286
 30
0.0
 11
-158.4456764221
 21
10.603327179
 31
0.0
  0
LINE
  5
9E
100
AcDbEntity
  8
LY_3
  6
CONTINUOUS
 62
         3
100
AcDbLine
 10
-114.4456764221
 20
18.1803230286
 30
0.0
 11
-114.4456764221
 21
10.603327179
 31
0.0
  0
LINE
  5
9F
100
AcDbEntity
  8
LY_3
  6
CONTINUOUS
 62
         3
100
AcDbLine
 10
-158.4456764221
 20
-114.2426811218
 30
0.0
 11
-158.4456764221
 21
-121.8196769714
 31
0.0
  0
LINE
  5
A0
100
AcDbEntity
  8
LY_3
  6
CONTINUOUS
 62
         3
100
AcDbLine
 10
-114.4456764221
 20
-114.2426811218
 30
0.0
 11
-114.4456764221
 21
-121.8196769714
 31
0.0
  0
LINE
  5
A1
100
AcDbEntity
  8
LY_3
  6
DASHED
 62
        80
100
AcDbLine
 10
124.5235336086
 20
-112.9840898716
 30
0.0
 11
116.0382522344
 21
-121.4693712458
 31
0.0
  0
LINE
  5
A2
100
AcDbEntity
  8
LY_3
  6
DASHED
 62
        80
100
AcDbLine
 10
126.1571643387
 20
-114.6177206017
 30
0.0
 11
124.5235120294
 21
-112.9840682924
 31
0.0
  0
LINE
  5
A3
100
AcDbEntity
  8
LY_3
  6
DASHED
 62
        80
100
AcDbLine
 10
117.6719261228
 20
-123.1030451343
 30
0.0
 11
116.0382306552
 21
-121.4693496667
 31
0.0
  0
LINE
  5
A4
100
AcDbEntity
  8
LY_3
  6
CENTER
 62
        80
100
AcDbLine
 10
124.198227373
 20
17.5059626296
 30
0.0
 11
103.4300299202
 21
-3.2622348233
 31
0.0
  0
LINE
  5
A5
100
AcDbEntity
  8
LY_3
  6
DASHED
 62
        80
100
AcDbLine
 10
123.2519584686
 20
10.4785926702
 30
0.0
 11
118.7245804164
 21
5.9512146181
 31
0.0
  0
LINE
  5
A6
100
AcDbEntity
  8
LY_3
  6
DASHED
 62
        80
100
AcDbLine
 10
123.7226868415
 20
9.9593542862
 30
0.0
 11
119.7145471734
 21
5.9512146181
 31
0.0
  0
LINE
  5
A7
100
AcDbEntity
  8
LY_3
  6
DASHED
 62
        80
100
AcDbLine
 10
112.6433498864
 20
13.0215487376
 30
0.0
 11
119.7144176983
 21
5.9504809257
 31
0.0
  0
LINE
  5
A8
100
AcDbEntity
  8
LY_3
  6
DASHED
 62
        80
100
AcDbLine
 10
112.6433283072
 20
11.3244967786
 30
0.0
 11
118.0173441601
 21
5.9504809257
 31
0.0
  0
LINE
  5
A9
100
AcDbEntity
  8
LY_3
  6
DASHED
 62
        80
100
AcDbLine
 10
118.0178245544
 20
5.9514717102
 30
0.0
 11
119.7148765564
 21
5.9514717102
 31
0.0
  0
LINE
  5
AA
100
AcDbEntity
  8
LY_3
  6
DASHED
 62
        80
100
AcDbLine
 10
116.1836312134
 20
2.4202986581
 30
0.0
 11
119.7145471734
 21
5.9512146181
 31
0.0
  0
LINE
  5
AB
100
AcDbEntity
  8
LY_3
  6
DASHED
 62
        80
100
AcDbLine
 10
107.3174556193
 20
-5.455910179
 30
0.0
 11
118.7246019956
 21
5.9512361973
 31
0.0
  0
LINE
  5
AC
100
AcDbEntity
  8
LY_3
  6
DASHED
 62
        80
100
AcDbLine
 10
109.1128655101
 20
9.4910643613
 30
0.0
 11
116.183933322
 21
2.4199965494
 31
0.0
  0
LINE
  5
AD
100
AcDbEntity
  8
LY_3
  6
DASHED
 62
        80
100
AcDbLine
 10
101.2363114061
 20
0.6251908759
 30
0.0
 11
112.6434793616
 21
12.0323588313
 31
0.0
  0
LINE
  5
AE
100
AcDbEntity
  8
LY_3
  6
DASHED
 62
        80
100
AcDbLine
 10
109.1125849807
 20
9.4913880491
 30
0.0
 11
112.6435009407
 21
13.0223040091
 31
0.0
  0
LINE
  5
AF
100
AcDbEntity
  8
LY_3
  6
DASHED
 62
        80
100
AcDbLine
 10
112.6438011169
 20
13.0219978333
 30
0.0
 11
112.6438011169
 21
11.3249763489
 31
0.0
  0
LINE
  5
B0
100
AcDbEntity
  8
LY_3
  6
DASHED
 62
        80
100
AcDbLine
 10
117.1708142553
 20
16.5596937251
 30
0.0
 11
112.6434793616
 21
12.0323588313
 31
0.0
  0
LINE
  5
B1
100
AcDbEntity
  8
LY_3
  6
DASHED
 62
        80
100
AcDbLine
 10
116.6515758713
 20
17.0303789397
 30
0.0
 11
112.6435009407
 21
13.0223040091
 31
0.0
  0
LINE
  5
B2
100
AcDbEntity
  8
LY_3
  6
DASHED
 62
        80
100
AcDbLine
 10
116.0376264379
 20
17.8306430687
 30
0.0
 11
124.5229078122
 21
9.3453616945
 31
0.0
  0
LINE
  5
B3
100
AcDbEntity
  8
LY_3
  6
DASHED
 62
        80
100
AcDbLine
 10
117.671257168
 20
19.4642737988
 30
0.0
 11
116.0376048588
 21
17.8306214895
 31
0.0
  0
LINE
  5
B4
100
AcDbEntity
  8
LY_3
  6
DASHED
 62
        80
100
AcDbLine
 10
126.1565817006
 20
10.9790355829
 30
0.0
 11
124.522886233
 21
9.3453401153
 31
0.0
  0
LINE
  5
B5
100
AcDbEntity
  8
LY_3
  6
CENTER
 62
        80
100
AcDbLine
 10
-14.4524260632
 20
17.5052936748
 30
0.0
 11
6.3157673435
 21
-3.262899732
 31
0.0
  0
LINE
  5
B6
100
AcDbEntity
  8
LY_3
  6
DASHED
 62
        80
100
AcDbLine
 10
-7.4250561039
 20
16.5590247703
 30
0.0
 11
-2.8976820978
 21
12.0316507643
 31
0.0
  0
LINE
  5
B7
100
AcDbEntity
  8
LY_3
  6
DASHED
 62
        80
100
AcDbLine
 10
-6.9058177198
 20
17.0297531433
 30
0.0
 11
-2.8976820978
 21
13.0216175213
 31
0.0
  0
LINE
  5
B8
100
AcDbEntity
  8
LY_3
  6
DASHED
 62
        80
100
AcDbLine
 10
-9.9680162174
 20
5.9504202343
 30
0.0
 11
-2.8969484055
 21
13.0214880462
 31
0.0
  0
LINE
  5
B9
100
AcDbEntity
  8
LY_3
  6
DASHED
 62
        80
100
AcDbLine
 10
-8.2709642584
 20
5.9503986551
 30
0.0
 11
-2.8969484055
 21
11.324414508
 31
0.0
  0
LINE
  5
BA
100
AcDbEntity
  8
LY_3
  6
DASHED
 62
        80
100
AcDbLine
 10
-2.8979469299
 20
11.3249153137
 30
0.0
 11
-2.8979469299
 21
13.0219673157
 31
0.0
  0
LINE
  5
BB
100
AcDbEntity
  8
LY_3
  6
DASHED
 62
        80
100
AcDbLine
 10
0.6332338622
 20
9.4907015612
 30
0.0
 11
-2.8976820978
 21
13.0216175213
 31
0.0
  0
LINE
  5
BC
100
AcDbEntity
  8
LY_3
  6
DASHED
 62
        80
100
AcDbLine
 10
8.5094426992
 20
0.6245259672
 30
0.0
 11
-2.897703677
 21
12.0316723434
 31
0.0
  0
LINE
  5
BD
100
AcDbEntity
  8
LY_3
  6
DASHED
 62
        80
100
AcDbLine
 10
-6.4375318411
 20
2.419935858
 30
0.0
 11
0.6335359708
 21
9.4910036698
 31
0.0
  0
LINE
  5
BE
100
AcDbEntity
  8
LY_3
  6
DASHED
 62
        80
100
AcDbLine
 10
2.4283416444
 20
-5.456618246
 30
0.0
 11
-8.9788263111
 21
5.9505497094
 31
0.0
  0
LINE
  5
BF
100
AcDbEntity
  8
LY_3
  6
DASHED
 62
        80
100
AcDbLine
 10
-6.4378555289
 20
2.4196553286
 30
0.0
 11
-9.9687714889
 21
5.9505712886
 31
0.0
  0
LINE
  5
C0
100
AcDbEntity
  8
LY_3
  6
DASHED
 62
        80
100
AcDbLine
 10
-9.968473053
 20
5.9508918762
 30
0.0
 11
-8.2714515686
 21
5.9508918762
 31
0.0
  0
LINE
  5
C1
100
AcDbEntity
  8
LY_3
  6
DASHED
 62
        80
100
AcDbLine
 10
-13.5061571588
 20
10.4778805571
 30
0.0
 11
-8.9788263111
 21
5.9505497094
 31
0.0
  0
LINE
  5
C2
100
AcDbEntity
  8
LY_3
  6
DASHED
 62
        80
100
AcDbLine
 10
-13.9768423733
 20
9.958642173
 30
0.0
 11
-9.9687714889
 21
5.9505712886
 31
0.0
  0
LINE
  5
C3
100
AcDbEntity
  8
LY_3
  6
DASHED
 62
        80
100
AcDbLine
 10
-14.7771065024
 20
9.3446927397
 30
0.0
 11
-6.2918251281
 21
17.8299741139
 31
0.0
  0
LINE
  5
C4
100
AcDbEntity
  8
LY_3
  6
DASHED
 62
        80
100
AcDbLine
 10
-16.4107372324
 20
10.9783234698
 30
0.0
 11
-14.7770849232
 21
9.3446711605
 31
0.0
  0
LINE
  5
C5
100
AcDbEntity
  8
LY_3
  6
DASHED
 62
        80
100
AcDbLine
 10
-7.9254990166
 20
19.4636480024
 30
0.0
 11
-6.291803549
 21
17.8299525348
 31
0.0
  0
LINE
  5
C6
100
AcDbEntity
  8
LY_3
  6
CENTER
 62
        80
100
AcDbLine
 10
-14.4517786876
 20
-121.1453381823
 30
0.0
 11
6.3164187652
 21
-100.3771407294
 31
0.0
  0
LINE
  5
C7
100
AcDbEntity
  8
LY_3
  6
DASHED
 62
        80
100
AcDbLine
 10
-13.5055097832
 20
-114.117968223
 30
0.0
 11
-8.978131731
 21
-109.5905901708
 31
0.0
  0
LINE
  5
C8
100
AcDbEntity
  8
LY_3
  6
DASHED
 62
        80
100
AcDbLine
 10
-13.9762381561
 20
-113.5987298389
 30
0.0
 11
-9.968098488
 21
-109.5905901708
 31
0.0
  0
LINE
  5
C9
100
AcDbEntity
  8
LY_3
  6
DASHED
 62
        80
100
AcDbLine
 10
-2.896901201
 20
-116.6609242903
 30
0.0
 11
-9.9679690129
 21
-109.5898564785
 31
0.0
  0
LINE
  5
CA
100
AcDbEntity
  8
LY_3
  6
DASHED
 62
        80
100
AcDbLine
 10
-2.8968796218
 20
-114.9638723313
 30
0.0
 11
-8.2708954747
 21
-109.5898564785
 31
0.0
  0
LINE
  5
CB
100
AcDbEntity
  8
LY_3
  6
DASHED
 62
        80
100
AcDbLine
 10
-8.2713905334
 20
-109.5908561707
 30
0.0
 11
-9.9684425354
 21
-109.5908561707
 31
0.0
  0
LINE
  5
CC
100
AcDbEntity
  8
LY_3
  6
DASHED
 62
        80
100
AcDbLine
 10
-6.437182528
 20
-106.0596742108
 30
0.0
 11
-9.968098488
 21
-109.5905901708
 31
0.0
  0
LINE
  5
CD
100
AcDbEntity
  8
LY_3
  6
DASHED
 62
        80
100
AcDbLine
 10
2.4289930661
 20
-98.1834653737
 30
0.0
 11
-8.9781533102
 21
-109.59061175
 31
0.0
  0
LINE
  5
CE
100
AcDbEntity
  8
LY_3
  6
DASHED
 62
        80
100
AcDbLine
 10
0.6335831753
 20
-113.130439914
 30
0.0
 11
-6.4374846366
 21
-106.0593721022
 31
0.0
  0
LINE
  5
CF
100
AcDbEntity
  8
LY_3
  6
DASHED
 62
        80
100
AcDbLine
 10
8.5101372793
 20
-104.2645664286
 30
0.0
 11
-2.8970306762
 21
-115.671734384
 31
0.0
  0
LINE
  5
D0
100
AcDbEntity
  8
LY_3
  6
DASHED
 62
        80
100
AcDbLine
 10
0.6338637047
 20
-113.1307636018
 30
0.0
 11
-2.8970522553
 21
-116.6616795619
 31
0.0
  0
LINE
  5
D1
100
AcDbEntity
  8
LY_3
  6
DASHED
 62
        80
100
AcDbLine
 10
-2.8973670959
 20
-116.6613803864
 30
0.0
 11
-2.8973670959
 21
-114.964358902
 31
0.0
  0
LINE
  5
D2
100
AcDbEntity
  8
LY_3
  6
DASHED
 62
        80
100
AcDbLine
 10
-7.4243655699
 20
-120.1990692778
 30
0.0
 11
-2.8970306762
 21
-115.671734384
 31
0.0
  0
LINE
  5
D3
100
AcDbEntity
  8
LY_3
  6
DASHED
 62
        80
100
AcDbLine
 10
-6.9051271859
 20
-120.6697544924
 30
0.0
 11
-2.8970522553
 21
-116.6616795619
 31
0.0
  0
LINE
  5
D4
100
AcDbEntity
  8
LY_3
  6
DASHED
 62
        80
100
AcDbLine
 10
-6.2911777525
 20
-121.4700186214
 30
0.0
 11
-14.7764591268
 21
-112.9847372472
 31
0.0
  0
LINE
  5
D5
100
AcDbEntity
  8
LY_3
  6
DASHED
 62
        80
100
AcDbLine
 10
-7.9248084826
 20
-123.1036493515
 30
0.0
 11
-6.2911561734
 21
-121.4699970423
 31
0.0
  0
LINE
  5
D6
100
AcDbEntity
  8
LY_3
  6
DASHED
 62
        80
100
AcDbLine
 10
-16.4101330152
 20
-114.6184111356
 30
0.0
 11
-14.7764375476
 21
-112.984715668
 31
0.0
  0
LINE
  5
D7
100
AcDbEntity
  8
LY_3
  6
CENTER
 62
        80
100
AcDbLine
 10
54.8732322693
 20
-123.8196735046
 30
0.0
 11
54.8732322693
 21
-144.8196804383
 31
0.0
  0
LINE
  5
D8
100
AcDbEntity
  8
LY_3
  6
CENTER
 62
        80
100
AcDbLine
 10
126.8732288024
 20
-51.8196769714
 30
0.0
 11
147.8732357361
 21
-51.8196769714
 31
0.0
  0
ARC
  5
D9
100
AcDbEntity
  8
LY_3
  6
CONTINUOUS
 62
         3
100
AcDbCircle
 10
54.8732322693
 20
-51.8196769714
 30
0.0
 40
35.0
100
AcDbArc
 50
106.6015490936
 51
73.3984522729
  0
CIRCLE
  5
DA
100
AcDbEntity
  8
LY_3
  6
CONTINUOUS
 62
         3
100
AcDbCircle
 10
54.8732322693
 20
-51.8196769714
 30
0.0
 40
47.5
  0
CIRCLE
  5
DB
100
AcDbEntity
  8
LY_3
  6
CONTINUOUS
 62
         3
100
AcDbCircle
 10
54.8732322693
 20
-51.8196769714
 30
0.0
 40
53.2359924316
  0
CIRCLE
  5
DC
100
AcDbEntity
  8
LY_3
  6
CONTINUOUS
 62
         3
100
AcDbCircle
 10
54.8732322693
 20
-51.8196769714
 30
0.0
 40
70.0
  0
CIRCLE
  5
DD
100
AcDbEntity
  8
LY_3
  6
CONTINUOUS
 62
         3
100
AcDbCircle
 10
54.8732322693
 20
-51.8196769714
 30
0.0
 40
95.0
  0
ARC
  5
DE
100
AcDbEntity
  8
LY_3
  6
CENTER
 62
        80
100
AcDbCircle
 10
54.8732322693
 20
-51.8196769714
 30
0.0
 40
82.5
100
AcDbArc
 50
52.7028802774
 51
67.2970889109
  0
ARC
  5
DF
100
AcDbEntity
  8
LY_3
  6
CENTER
 62
        80
100
AcDbCircle
 10
54.8732322693
 20
-51.8196769714
 30
0.0
 40
82.5
100
AcDbArc
 50
142.7028691215
 51
157.2971255664
  0
ARC
  5
E0
100
AcDbEntity
  8
LY_3
  6
CENTER
 62
        80
100
AcDbCircle
 10
54.8732322693
 20
-51.8196769714
 30
0.0
 40
82.5
100
AcDbArc
 50
172.7028631261
 51
187.297119571
  0
ARC
  5
E1
100
AcDbEntity
  8
LY_3
  6
CENTER
 62
        80
100
AcDbCircle
 10
54.8732322693
 20
-51.8196769714
 30
0.0
 40
82.5
100
AcDbArc
 50
202.7028744336
 51
217.2971308785
  0
ARC
  5
E2
100
AcDbEntity
  8
LY_3
  6
CENTER
 62
        80
100
AcDbCircle
 10
54.8732322693
 20
-51.8196769714
 30
0.0
 40
82.5
100
AcDbArc
 50
232.7029230798
 51
247.2971248831
  0
ARC
  5
E3
100
AcDbEntity
  8
LY_3
  6
CENTER
 62
        80
100
AcDbCircle
 10
54.8732322693
 20
-51.8196769714
 30
0.0
 40
82.5
100
AcDbArc
 50
82.7028811122
 51
97.2971248616
  0
ARC
  5
E4
100
AcDbEntity
  8
LY_3
  6
CENTER
 62
        80
100
AcDbCircle
 10
54.8732322693
 20
-51.8196769714
 30
0.0
 40
82.5
100
AcDbArc
 50
322.7028777729
 51
337.2971205574
  0
ARC
  5
E5
100
AcDbEntity
  8
LY_3
  6
CENTER
 62
        80
100
AcDbCircle
 10
54.8732322693
 20
-51.8196769714
 30
0.0
 40
82.5
100
AcDbArc
 50
352.7028820229
 51
7.2971179771
  0
ARC
  5
E6
100
AcDbEntity
  8
LY_3
  6
CENTER
 62
        80
100
AcDbCircle
 10
54.8732322693
 20
-51.8196769714
 30
0.0
 40
82.5
100
AcDbArc
 50
22.7028794426
 51
37.2971222271
  0
CIRCLE
  5
E7
100
AcDbEntity
  8
LY_3
  6
CONTINUOUS
 62
         3
100
AcDbCircle
 10
33.5206626892
 20
27.8691963196
 30
0.0
 40
5.5
  0
CIRCLE
  5
E8
100
AcDbEntity
  8
LY_3
  6
CONTINUOUS
 62
         3
100
AcDbCircle
 10
76.2258018494
 20
-131.5085578918
 30
0.0
 40
5.5
  0
ARC
  5
E9
100
AcDbEntity
  8
LY_3
  6
CENTER
 62
        80
100
AcDbCircle
 10
54.8732322693
 20
-51.8196769714
 30
0.0
 40
82.5
100
AcDbArc
 50
262.7029170844
 51
277.2971248616
  0
ARC
  5
EA
100
AcDbEntity
  8
LY_3
  6
CENTER
 62
        80
100
AcDbCircle
 10
54.8732322693
 20
-51.8196769714
 30
0.0
 40
82.5
100
AcDbArc
 50
112.7028783632
 51
127.2970769202
  0
ARC
  5
EB
100
AcDbEntity
  8
LY_3
  6
CENTER
 62
        80
100
AcDbCircle
 10
54.8732322693
 20
-51.8196769714
 30
0.0
 40
82.5
100
AcDbArc
 50
292.7028783632
 51
307.2971197226
  0
MTEXT
  5
EC
100
AcDbEntity
  8
LY_3
  6
CONTINUOUS
 62
       110
100
AcDbMText
 10
-34.8712336621
 20
69.1865802765
 30
0.0
 40
15.0
 41
0.0
 71
         1
 72
         1
  1
\W1.128;\A1;BR 70
  0
MTEXT
  5
ED
100
AcDbEntity
  8
LY_3
  6
CONTINUOUS
 62
       110
100
AcDbMText
 10
-68.2430553901
 20
92.6673583984
 30
0.0
 40
13.0
 41
0.0
 71
         1
 72
         1
  1
\W1.042;\A1;CAM CLUTCH
  0
ENDSEC
  0
SECTION
  2
OBJECTS
  0
DICTIONARY
  5
19
100
AcDbDictionary
  3
ACAD_GROUP
350
1A
  3
ACAD_MLINESTYLE
350
1B
  0
DICTIONARY
  5
1A
102
{ACAD_REACTORS
330
19
102
}
100
AcDbDictionary
  0
DICTIONARY
  5
1B
102
{ACAD_REACTORS
330
19
102
}
100
AcDbDictionary
  3
STANDARD
350
1C
  0
MLINESTYLE
  5
1C
102
{ACAD_REACTORS
330
1B
102
}
100
AcDbMlineStyle
  2
Standard
 70
         0
  3

 62
         0
 51
90.0
 52
90.0
 71
         2
 49
0.5
 62
       256
  6
ByLayer
 49
-0.5
 62
       256
  6
ByLayer
  0
ENDSEC
  0
EOF
