  0
SECTION
  2
HEADER
  9
$ACADVER
  1
AC1014
  9
$ACADMAINTVER
 70
         0
  9
$DWGCODEPAGE
  3
ANSI_932
  9
$INSBASE
 10
0.0
 20
0.0
 30
0.0
  9
$EXTMIN
 10
-149.7476530076
 20
-93.7763088246
 30
0.0
  9
$EXTMAX
 10
117.7445849484
 20
122.1256914138
 30
0.0
  9
$LIMMIN
 10
-149.7476530076
 20
-93.7763088246
  9
$LIMMAX
 10
117.7445849484
 20
122.1256914138
  9
$ORTHOMODE
 70
         0
  9
$REGENMODE
 70
         1
  9
$FILLMODE
 70
         1
  9
$QTEXTMODE
 70
         0
  9
$MIRRTEXT
 70
         1
  9
$DRAGMODE
 70
         2
  9
$LTSCALE
 40
1.0
  9
$OSMODE
 70
         0
  9
$ATTMODE
 70
         1
  9
$TEXTSIZE
 40
3.2000000477
  9
$TRACEWID
 40
0.05
  9
$TEXTSTYLE
  7
MX_NOTE_STANDARD
  9
$CLAYER
  8
0
  9
$CELTYPE
  6
CONTINUOUS
  9
$CECOLOR
 62
       256
  9
$CELTSCALE
 40
1.0
  9
$DELOBJ
 70
         1
  9
$DISPSILH
 70
         0
  9
$DIMSCALE
 40
1.0
  9
$DIMASZ
 40
2.5
  9
$DIMEXO
 40
0.0
  9
$DIMDLI
 40
3.75
  9
$DIMRND
 40
0.0
  9
$DIMDLE
 40
0.0
  9
$DIMEXE
 40
2.5
  9
$DIMTP
 40
0.0
  9
$DIMTM
 40
0.0
  9
$DIMTXT
 40
3.2000000477
  9
$DIMCEN
 40
2.5
  9
$DIMTSZ
 40
0.0
  9
$DIMTOL
 70
         0
  9
$DIMLIM
 70
         0
  9
$DIMTIH
 70
         0
  9
$DIMTOH
 70
         0
  9
$DIMSE1
 70
         0
  9
$DIMSE2
 70
         0
  9
$DIMTAD
 70
         1
  9
$DIMZIN
 70
         8
  9
$DIMBLK
  1

  9
$DIMASO
 70
         1
  9
$DIMSHO
 70
         1
  9
$DIMPOST
  1

  9
$DIMAPOST
  1

  9
$DIMALT
 70
         0
  9
$DIMALTD
 70
         4
  9
$DIMALTF
 40
0.0393700787
  9
$DIMLFAC
 40
1.0
  9
$DIMTOFL
 70
         1
  9
$DIMTVP
 40
0.0
  9
$DIMTIX
 70
         0
  9
$DIMSOXD
 70
         0
  9
$DIMSAH
 70
         1
  9
$DIMBLK1
  1
_OPEN30
  9
$DIMBLK2
  1
_OPEN30
  9
$DIMSTYLE
  2
MXDIMSTYLE
  9
$DIMCLRD
 70
         0
  9
$DIMCLRE
 70
         0
  9
$DIMCLRT
 70
         0
  9
$DIMTFAC
 40
1.0
  9
$DIMGAP
 40
1.0
  9
$DIMJUST
 70
         0
  9
$DIMSD1
 70
         0
  9
$DIMSD2
 70
         0
  9
$DIMTOLJ
 70
         0
  9
$DIMTZIN
 70
         0
  9
$DIMALTZ
 70
         0
  9
$DIMALTTZ
 70
         0
  9
$DIMFIT
 70
         3
  9
$DIMUPT
 70
         0
  9
$DIMUNIT
 70
         2
  9
$DIMDEC
 70
         2
  9
$DIMTDEC
 70
         2
  9
$DIMALTU
 70
         2
  9
$DIMALTTD
 70
         4
  9
$DIMTXSTY
  7
MX_NOTE_STANDARD
  9
$DIMAUNIT
 70
         0
  9
$LUNITS
 70
         2
  9
$LUPREC
 70
         4
  9
$SKETCHINC
 40
0.1
  9
$FILLETRAD
 40
0.0
  9
$AUNITS
 70
         0
  9
$AUPREC
 70
         0
  9
$MENU
  1
acad
  9
$ELEVATION
 40
0.0
  9
$PELEVATION
 40
0.0
  9
$THICKNESS
 40
0.0
  9
$LIMCHECK
 70
         0
  9
$BLIPMODE
 70
         1
  9
$CHAMFERA
 40
0.0
  9
$CHAMFERB
 40
0.0
  9
$CHAMFERC
 40
0.0
  9
$CHAMFERD
 40
0.0
  9
$SKPOLY
 70
         0
  9
$TDCREATE
 40
2456603.419490741
  9
$TDUPDATE
 40
2456603.419490741
  9
$TDINDWG
 40
0.0000000000
  9
$TDUSRTIMER
 40
0.0000000000
  9
$USRTIMER
 70
         1
  9
$ANGBASE
 50
0.0
  9
$ANGDIR
 70
         0
  9
$PDMODE
 70
         0
  9
$PDSIZE
 40
0.0
  9
$PLINEWID
 40
0.0
  9
$COORDS
 70
         1
  9
$SPLFRAME
 70
         0
  9
$SPLINETYPE
 70
         6
  9
$SPLINESEGS
 70
         8
  9
$ATTDIA
 70
         0
  9
$ATTREQ
 70
         1
  9
$HANDLING
 70
         1
  9
$HANDSEED
  5
DA
  9
$SURFTAB1
 70
         6
  9
$SURFTAB2
 70
         6
  9
$SURFTYPE
 70
         6
  9
$SURFU
 70
         6
  9
$SURFV
 70
         6
  9
$UCSNAME
  2

  9
$UCSORG
 10
0.0
 20
0.0
 30
0.0
  9
$UCSXDIR
 10
1.0
 20
0.0
 30
0.0
  9
$UCSYDIR
 10
0.0
 20
1.0
 30
0.0
  9
$PUCSNAME
  2

  9
$PUCSORG
 10
0.0
 20
0.0
 30
0.0
  9
$PUCSXDIR
 10
1.0
 20
0.0
 30
0.0
  9
$PUCSYDIR
 10
0.0
 20
1.0
 30
0.0
  9
$USERI1
 70
         0
  9
$USERI2
 70
         0
  9
$USERI3
 70
         0
  9
$USERI4
 70
         0
  9
$USERI5
 70
         0
  9
$USERR1
 40
0.0
  9
$USERR2
 40
0.0
  9
$USERR3
 40
0.0
  9
$USERR4
 40
0.0
  9
$USERR5
 40
0.0
  9
$WORLDVIEW
 70
         1
  9
$SHADEDGE
 70
         3
  9
$SHADEDIF
 70
        70
  9
$TILEMODE
 70
         1
  9
$MAXACTVP
 70
        16
  9
$PINSBASE
 10
0.0
 20
0.0
 30
0.0
  9
$PLIMCHECK
 70
         0
  9
$PEXTMIN
 10
1.0000000000E+20
 20
1.0000000000E+20
 30
1.0000000000E+20
  9
$PEXTMAX
 10
-1.0000000000E+20
 20
-1.0000000000E+20
 30
-1.0000000000E+20
  9
$PLIMMIN
 10
0.0
 20
0.0
  9
$PLIMMAX
 10
12.0
 20
9.0
  9
$UNITMODE
 70
         0
  9
$VISRETAIN
 70
         0
  9
$PLINEGEN
 70
         1
  9
$PSLTSCALE
 70
         0
  9
$TREEDEPTH
 70
      3020
  9
$PICKSTYLE
 70
         1
  9
$CMLSTYLE
  2
Standard
  9
$CMLJUST
 70
         0
  9
$CMLSCALE
 40
1.0
  9
$PROXYGRAPHICS
 70
         0
  9
$MEASUREMENT
 70
         1
  0
ENDSEC
  0
SECTION
  2
CLASSES
  0
CLASS
  1
LWPOLYLINE
  2
AcDbPolyline
  3
"AutoCAD"
 90
        0
280
         0
281
         1
  0
CLASS
  1
IMAGE
  2
AcDbRasterImage
  3
ISM
 90
      127
280
         0
281
         1
  0
CLASS
  1
OLE2FRAME
  2
AcDbOle2Frame
  3
""
 90
        0
280
         0
281
         1
  0
CLASS
  1
HATCH
  2
AcDbHatch
  3
"ACAD_SEDONA"
 90
        0
280
         0
281
         1
  0
CLASS
  1
DICTIONARYVAR
  2
AcDbDictionaryVar
  3
"AutoCAD"
 90
        0
280
         0
281
         0
  0
CLASS
  1
RASTERVARIABLES
  2
AcDbRasterVariables
  3
ISM
 90
        0
280
         0
281
         0
  0
CLASS
  1
IMAGEDEF
  2
AcDbRasterImageDef
  3
ISM
 90
        0
280
         0
281
         0
  0
CLASS
  1
IMAGEDEF_REACTOR
  2
AcDbRasterImageDefReactor
  3
ISM
 90
        1
280
         0
281
         0
  0
CLASS
  1
IDBUFFER
  2
AcDbIdBuffer
  3
"Acad"
 90
        0
280
         0
281
         0
  0
CLASS
  1
SPATIAL_FILTER
  2
AcDbSpatialFilter
  3
"Acad"
 90
        0
280
         0
281
         0
  0
CLASS
  1
XRECORD
  2
AcDbXrecord
  3
"<Built In>"
 90
        0
280
         0
281
         0
  0
CLASS
  1
SORTENTSTABLE
  2
AcDbSortentsTable
  3
"AutoCAD"
 90
        0
280
         0
281
         0
  0
CLASS
  1
LAYER_INDEX
  2
AcDbLayerIndex
  3
"Acad"
 90
        0
280
         0
281
         0
  0
CLASS
  1
SPATIAL_INDEX
  2
AcDbSpatialIndex
  3
"Acad"
 90
        0
280
         0
281
         0
  0
CLASS
  1
OBJECT_PTR
  2
CAseDLPNTableRecord
  3
"ASE-LPNTableRecord"
 90
        1
280
         0
281
         0
  0
CLASS
  1
LAYOUT
  2
AcDbLayout
  3
"AutoCAD 2000"
 90
        0
280
         0
281
         0
  0
CLASS
  1
PLOTSETTINGS
  2
AcDbPlotSettings
  3
"AutoCAD 2000"
 90
        0
280
         0
281
         0
  0
CLASS
  1
ACDBDICTIONARYWDFLT
  2
AcDbDictionaryWithDefault
  3
"AutoCAD 2000"
 90
        0
280
         0
281
         0
  0
CLASS
  1
ACDBPLACEHOLDER
  2
AcDbPlaceHolder
  3
"AutoCAD 2000"
 90
        0
280
         0
281
         0
  0
ENDSEC
  0
SECTION
  2
TABLES
  0
TABLE
  2
VPORT
  5
7
100
AcDbSymbolTable
 70
         1
  0
VPORT
  5
15
100
AcDbSymbolTableRecord
100
AcDbViewportTableRecord
  2
*ACTIVE
 70
         0
 10
0.0
 20
0.0
 11
1.0
 21
1.0
 12
-16.0015340296
 22
14.1746912946
 13
0.0
 23
0.0
 14
1.0
 24
1.0
 15
0.0
 25
0.0
 16
0.0
 26
0.0
 36
1.0
 17
0.0
 27
0.0
 37
0.0
 40
218.0610202408
 41
1.7320508076
 42
50.0
 43
0.0
 44
0.0
 50
0.0
 51
0.0
 71
         0
 72
       100
 73
         1
 74
         1
 75
         0
 76
         0
 77
         0
 78
         0
  0
ENDTAB
  0
TABLE
  2
LTYPE
  5
4
100
AcDbSymbolTable
 70
         5
  0
LTYPE
  5
11
100
AcDbSymbolTableRecord
100
AcDbLinetypeTableRecord
  2
BYBLOCK
 70
        64
  3

 72
        65
 73
         0
 40
0.0
  0
LTYPE
  5
12
100
AcDbSymbolTableRecord
100
AcDbLinetypeTableRecord
  2
BYLAYER
 70
        64
  3

 72
        65
 73
         0
 40
0.0
  0
LTYPE
  5
13
100
AcDbSymbolTableRecord
100
AcDbLinetypeTableRecord
  2
CONTINUOUS
 70
        64
  3
Solid line
 72
        65
 73
         0
 40
0.0
  0
LTYPE
  5
29
100
AcDbSymbolTableRecord
100
AcDbLinetypeTableRecord
  2
CENTER
 70
        64
  3
Center ____ _ ____ _ ____ _ ____ _ ____ _ ____
 72
        65
 73
         4
 40
50.8
 49
31.75
 74
         0
 49
-6.35
 74
         0
 49
6.35
 74
         0
 49
-6.35
 74
         0
  0
LTYPE
  5
82
100
AcDbSymbolTableRecord
100
AcDbLinetypeTableRecord
  2
DASHED
 70
        64
  3
Dashed __ __ __ __ __ __ __ __ __ __ __ __ __ _
 72
        65
 73
         2
 40
19.05
 49
12.7
 74
         0
 49
-6.35
 74
         0
  0
ENDTAB
  0
TABLE
  2
LAYER
  5
2
100
AcDbSymbolTable
 70
         3
  0
LAYER
  5
14
100
AcDbSymbolTableRecord
100
AcDbLayerTableRecord
  2
0
 70
         0
 62
         7
  6
CONTINUOUS
  0
LAYER
  5
1D
100
AcDbSymbolTableRecord
100
AcDbLayerTableRecord
  2
DEFPOINTS
 70
         0
 62
         7
  6
CONTINUOUS
  0
LAYER
  5
1E
100
AcDbSymbolTableRecord
100
AcDbLayerTableRecord
  2
LY_3
 70
         0
 62
         7
  6
CONTINUOUS
  0
ENDTAB
  0
TABLE
  2
STYLE
  5
3
100
AcDbSymbolTable
 70
         1
  0
STYLE
  5
17
100
AcDbSymbolTableRecord
100
AcDbTextStyleTableRecord
  2
MX_NOTE_STANDARD
 70
         0
 40
0.0
 41
1.0
 50
0.0
 71
         0
 42
3.2000000477
  3
txt.shx
  4
extfont.shx
  0
ENDTAB
  0
TABLE
  2
VIEW
  5
5
100
AcDbSymbolTable
 70
         0
  0
ENDTAB
  0
TABLE
  2
UCS
  5
6
100
AcDbSymbolTable
 70
         0
  0
ENDTAB
  0
TABLE
  2
APPID
  5
8
100
AcDbSymbolTable
 70
         1
  0
APPID
  5
16
100
AcDbSymbolTableRecord
100
AcDbRegAppTableRecord
  2
ACAD
 70
         0
  0
ENDTAB
  0
TABLE
  2
DIMSTYLE
  5
9
100
AcDbSymbolTable
 70
         1
  0
DIMSTYLE
105
18
100
AcDbSymbolTableRecord
100
AcDbDimStyleTableRecord
  2
MXDIMSTYLE
 70
         0
  3

  4

  5

  6
_OPEN30
  7
_OPEN30
 40
1.0
 41
2.5
 42
0.0
 43
3.75
 44
2.5
 45
0.0
 46
0.0
 47
0.0
 48
0.0
 71
         0
 72
         0
 73
         0
 74
         0
 75
         0
 76
         0
 77
         1
 78
         8
140
3.2000000477
141
2.5
142
0.0
143
0.0393700787
144
1.0
145
0.0
146
1.0
147
1.0
170
         0
171
         4
172
         1
173
         1
174
         0
175
         0
176
         0
177
         0
178
         0
270
         2
271
         2
272
         2
273
         2
274
         4
275
         0
280
         0
281
         0
282
         0
283
         0
284
         0
285
         0
286
         0
287
         3
288
         0
340
17
  0
ENDTAB
  0
TABLE
  2
BLOCK_RECORD
  5
1
100
AcDbSymbolTable
 70
         1
  0
BLOCK_RECORD
  5
A
100
AcDbSymbolTableRecord
100
AcDbBlockTableRecord
  2
*MODEL_SPACE
  0
BLOCK_RECORD
  5
B
100
AcDbSymbolTableRecord
100
AcDbBlockTableRecord
  2
*PAPER_SPACE
  0
BLOCK_RECORD
  5
1F
100
AcDbSymbolTableRecord
100
AcDbBlockTableRecord
  2
_OPEN30
  0
ENDTAB
  0
ENDSEC
  0
SECTION
  2
BLOCKS
  0
BLOCK
  5
D
100
AcDbEntity
  8
0
100
AcDbBlockBegin
  2
*MODEL_SPACE
 70
         0
 10
0.0
 20
0.0
 30
0.0
  3
*MODEL_SPACE
  1

  0
ENDBLK
  5
E
100
AcDbEntity
  8
0
100
AcDbBlockEnd
  0
BLOCK
  5
F
100
AcDbEntity
 67
         1
  8
0
100
AcDbBlockBegin
  2
*PAPER_SPACE
 70
         0
 10
0.0
 20
0.0
 30
0.0
  3
*PAPER_SPACE
  1

  0
ENDBLK
  5
10
100
AcDbEntity
 67
         1
  8
0
100
AcDbBlockEnd
  0
BLOCK
  5
20
100
AcDbEntity
  8
0
  6
ByBlock
 62
         0
100
AcDbBlockBegin
  2
_OPEN30
 70
         2
 10
0.0
 20
0.0
 30
0.0
  3
_OPEN30
  1

  0
LINE
  5
21
100
AcDbEntity
  8
0
  6
ByBlock
 62
         0
100
AcDbLine
 10
-1.0
 20
0.267949
 30
0.0
 11
0.0
 21
0.0
 31
0.0
  0
LINE
  5
22
100
AcDbEntity
  8
0
  6
ByBlock
 62
         0
100
AcDbLine
 10
0.0
 20
0.0
 30
0.0
 11
-1.0
 21
-0.267949
 31
0.0
  0
LINE
  5
23
100
AcDbEntity
  8
0
  6
ByBlock
 62
         0
100
AcDbLine
 10
0.0
 20
0.0
 30
0.0
 11
-1.0
 21
0.0
 31
0.0
  0
ENDBLK
  5
24
100
AcDbEntity
  8
0
  6
ByBlock
 62
         0
100
AcDbBlockEnd
  0
ENDSEC
  0
SECTION
  2
ENTITIES
  0
MTEXT
  5
25
100
AcDbEntity
  8
0
  6
CONTINUOUS
 62
       110
100
AcDbMText
 10
-147.4464030812
 20
117.7423582077
 30
0.0
 40
13.1499996185
 41
0.0
 71
         1
 72
         1
  1
\W1.050;\A1;TSUBAKI
  0
POINT
  5
26
100
AcDbEntity
  8
LY_3
  6
CONTINUOUS
 62
       172
100
AcDbPoint
 10
-89.244595729
 20
-30.2763053894
 30
0.0
  0
POINT
  5
27
100
AcDbEntity
  8
LY_3
  6
CONTINUOUS
 62
       172
100
AcDbPoint
 10
-54.2445815133
 20
-30.2763053894
 30
0.0
  0
POINT
  5
28
100
AcDbEntity
  8
LY_3
  6
CONTINUOUS
 62
       172
100
AcDbPoint
 10
54.2445815133
 20
-30.2763053894
 30
0.0
  0
LINE
  5
2A
100
AcDbEntity
  8
LY_3
  6
CENTER
 62
        80
100
AcDbLine
 10
54.2445815133
 20
33.2236980458
 30
0.0
 11
54.2445815133
 21
14.2236879568
 31
0.0
  0
LINE
  5
2B
100
AcDbEntity
  8
LY_3
  6
CENTER
 62
        80
100
AcDbLine
 10
-9.2554219219
 20
-30.2763053894
 30
0.0
 11
9.7445881671
 21
-30.2763053894
 31
0.0
  0
LINE
  5
2C
100
AcDbEntity
  8
LY_3
  6
CONTINUOUS
 62
         3
100
AcDbLine
 10
-89.244595729
 20
2.0516736887
 30
0.0
 11
-86.7445881741
 21
2.0516736887
 31
0.0
  0
LINE
  5
2D
100
AcDbEntity
  8
LY_3
  6
CONTINUOUS
 62
         3
100
AcDbLine
 10
-89.244595729
 20
14.7236932695
 30
0.0
 11
-54.2445815133
 21
14.7236932695
 31
0.0
  0
LINE
  5
2E
100
AcDbEntity
  8
LY_3
  6
CONTINUOUS
 62
         3
100
AcDbLine
 10
-86.7445881741
 20
0.7236784279
 30
0.0
 11
-84.2445806192
 21
0.7236784279
 31
0.0
  0
LINE
  5
2F
100
AcDbEntity
  8
LY_3
  6
CONTINUOUS
 62
         3
100
AcDbLine
 10
-86.7445881741
 20
8.1236797333
 30
0.0
 11
-86.7445881741
 21
0.7236784279
 31
0.0
  0
LINE
  5
30
100
AcDbEntity
  8
LY_3
  6
CONTINUOUS
 62
         3
100
AcDbLine
 10
-56.7445890682
 20
8.1236797333
 30
0.0
 11
-56.7445890682
 21
0.7236784279
 31
0.0
  0
LINE
  5
31
100
AcDbEntity
  8
LY_3
  6
CONTINUOUS
 62
         3
100
AcDbLine
 10
-59.244596623
 20
0.7236784279
 30
0.0
 11
-56.7445890682
 21
0.7236784279
 31
0.0
  0
LINE
  5
32
100
AcDbEntity
  8
LY_3
  6
CONTINUOUS
 62
         3
100
AcDbLine
 10
-84.2445806192
 20
2.0516736887
 30
0.0
 11
-59.244596623
 21
2.0516736887
 31
0.0
  0
LINE
  5
33
100
AcDbEntity
  8
LY_3
  6
CONTINUOUS
 62
         3
100
AcDbLine
 10
-56.7445890682
 20
2.0516736887
 30
0.0
 11
-54.2445815133
 21
2.0516736887
 31
0.0
  0
LINE
  5
34
100
AcDbEntity
  8
LY_3
  6
CONTINUOUS
 62
         3
100
AcDbLine
 10
-54.2445815133
 20
2.0516736887
 30
0.0
 11
-54.2445815133
 21
-62.6043030641
 31
0.0
  0
LINE
  5
35
100
AcDbEntity
  8
LY_3
  6
CONTINUOUS
 62
         3
100
AcDbLine
 10
-89.244595729
 20
2.0516736887
 30
0.0
 11
-89.244595729
 21
-62.6043030641
 31
0.0
  0
LINE
  5
36
100
AcDbEntity
  8
LY_3
  6
CONTINUOUS
 62
         3
100
AcDbLine
 10
-89.244595729
 20
32.2236774892
 30
0.0
 11
-54.2445815133
 21
32.2236774892
 31
0.0
  0
LINE
  5
37
100
AcDbEntity
  8
LY_3
  6
CONTINUOUS
 62
         3
100
AcDbLine
 10
-89.244595729
 20
28.2236928672
 30
0.0
 11
-54.2445815133
 21
28.2236928672
 31
0.0
  0
LINE
  5
38
100
AcDbEntity
  8
LY_3
  6
CONTINUOUS
 62
         3
100
AcDbLine
 10
-89.244595729
 20
19.2236931354
 30
0.0
 11
-54.2445815133
 21
19.2236931354
 31
0.0
  0
LINE
  5
39
100
AcDbEntity
  8
LY_3
  6
CONTINUOUS
 62
         3
100
AcDbLine
 10
-89.244595729
 20
-10.2763136148
 30
0.0
 11
-54.2445815133
 21
-10.2763136148
 31
0.0
  0
LINE
  5
3A
100
AcDbEntity
  8
LY_3
  6
CONTINUOUS
 62
         3
100
AcDbLine
 10
-89.244595729
 20
32.2236774892
 30
0.0
 11
-89.244595729
 21
8.1236797333
 31
0.0
  0
LINE
  5
3B
100
AcDbEntity
  8
LY_3
  6
CONTINUOUS
 62
         3
100
AcDbLine
 10
-54.2445815133
 20
32.2236774892
 30
0.0
 11
-54.2445815133
 21
8.1236797333
 31
0.0
  0
LINE
  5
3C
100
AcDbEntity
  8
LY_3
  6
CONTINUOUS
 62
         3
100
AcDbLine
 10
-86.7445881741
 20
8.1236797333
 30
0.0
 11
-84.2445806192
 21
8.1236797333
 31
0.0
  0
LINE
  5
3D
100
AcDbEntity
  8
LY_3
  6
CONTINUOUS
 62
         3
100
AcDbLine
 10
-59.244596623
 20
8.1236797333
 30
0.0
 11
-56.7445890682
 21
8.1236797333
 31
0.0
  0
LINE
  5
3E
100
AcDbEntity
  8
LY_3
  6
CONTINUOUS
 62
         3
100
AcDbLine
 10
-89.244595729
 20
-62.6043030641
 30
0.0
 11
-86.7445881741
 21
-62.6043030641
 31
0.0
  0
LINE
  5
3F
100
AcDbEntity
  8
LY_3
  6
CONTINUOUS
 62
         3
100
AcDbLine
 10
-89.244595729
 20
-75.2763040483
 30
0.0
 11
-54.2445815133
 21
-75.2763040483
 31
0.0
  0
LINE
  5
40
100
AcDbEntity
  8
LY_3
  6
CONTINUOUS
 62
         3
100
AcDbLine
 10
-86.7445881741
 20
-61.2763049424
 30
0.0
 11
-84.2445806192
 21
-61.2763049424
 31
0.0
  0
LINE
  5
41
100
AcDbEntity
  8
LY_3
  6
CONTINUOUS
 62
         3
100
AcDbLine
 10
-86.7445881741
 20
-68.6763062477
 30
0.0
 11
-86.7445881741
 21
-61.2763049424
 31
0.0
  0
LINE
  5
42
100
AcDbEntity
  8
LY_3
  6
CONTINUOUS
 62
         3
100
AcDbLine
 10
-56.7445890682
 20
-68.6763062477
 30
0.0
 11
-56.7445890682
 21
-61.2763049424
 31
0.0
  0
LINE
  5
43
100
AcDbEntity
  8
LY_3
  6
CONTINUOUS
 62
         3
100
AcDbLine
 10
-59.244596623
 20
-61.2763049424
 30
0.0
 11
-56.7445890682
 21
-61.2763049424
 31
0.0
  0
LINE
  5
44
100
AcDbEntity
  8
LY_3
  6
CONTINUOUS
 62
         3
100
AcDbLine
 10
-84.2445806192
 20
-62.6043030641
 30
0.0
 11
-59.244596623
 21
-62.6043030641
 31
0.0
  0
LINE
  5
45
100
AcDbEntity
  8
LY_3
  6
CONTINUOUS
 62
         3
100
AcDbLine
 10
-56.7445890682
 20
-62.6043030641
 30
0.0
 11
-54.2445815133
 21
-62.6043030641
 31
0.0
  0
LINE
  5
46
100
AcDbEntity
  8
LY_3
  6
CONTINUOUS
 62
         3
100
AcDbLine
 10
-86.7445881741
 20
-68.6763062477
 30
0.0
 11
-84.2445806192
 21
-68.6763062477
 31
0.0
  0
LINE
  5
47
100
AcDbEntity
  8
LY_3
  6
CONTINUOUS
 62
         3
100
AcDbLine
 10
-59.244596623
 20
-68.6763062477
 30
0.0
 11
-56.7445890682
 21
-68.6763062477
 31
0.0
  0
LINE
  5
48
100
AcDbEntity
  8
LY_3
  6
CONTINUOUS
 62
         3
100
AcDbLine
 10
-89.244595729
 20
-92.7763040036
 30
0.0
 11
-54.2445815133
 21
-92.7763040036
 31
0.0
  0
LINE
  5
49
100
AcDbEntity
  8
LY_3
  6
CONTINUOUS
 62
         3
100
AcDbLine
 10
-81.2445807086
 20
-88.776303646
 30
0.0
 11
-54.2445815133
 21
-88.776303646
 31
0.0
  0
LINE
  5
4A
100
AcDbEntity
  8
LY_3
  6
CONTINUOUS
 62
         3
100
AcDbLine
 10
-81.2445807086
 20
-79.7763039142
 30
0.0
 11
-54.2445815133
 21
-79.7763039142
 31
0.0
  0
LINE
  5
4B
100
AcDbEntity
  8
LY_3
  6
CONTINUOUS
 62
         3
100
AcDbLine
 10
-89.244595729
 20
-50.2763200521
 30
0.0
 11
-54.2445815133
 21
-50.2763200521
 31
0.0
  0
LINE
  5
4C
100
AcDbEntity
  8
LY_3
  6
CONTINUOUS
 62
         3
100
AcDbLine
 10
-89.244595729
 20
-92.7763040036
 30
0.0
 11
-89.244595729
 21
-68.6763062477
 31
0.0
  0
LINE
  5
4D
100
AcDbEntity
  8
LY_3
  6
CONTINUOUS
 62
         3
100
AcDbLine
 10
-54.2445815133
 20
-92.7763040036
 30
0.0
 11
-54.2445815133
 21
-68.6763062477
 31
0.0
  0
LINE
  5
4E
100
AcDbEntity
  8
LY_3
  6
CONTINUOUS
 62
         3
100
AcDbLine
 10
-89.244595729
 20
-6.9763182908
 30
0.0
 11
-54.2445815133
 21
-6.9763182908
 31
0.0
  0
LINE
  5
4F
100
AcDbEntity
  8
LY_3
  6
CONTINUOUS
 62
         3
100
AcDbLine
 10
48.2445816921
 20
-6.9763182908
 30
0.0
 11
60.2445813345
 21
-6.9763182908
 31
0.0
  0
LINE
  5
50
100
AcDbEntity
  8
LY_3
  6
CONTINUOUS
 62
         3
100
AcDbLine
 10
48.2445816921
 20
-6.9763182908
 30
0.0
 11
48.2445816921
 21
-11.1975400889
 31
0.0
  0
LINE
  5
51
100
AcDbEntity
  8
LY_3
  6
CONTINUOUS
 62
         3
100
AcDbLine
 10
60.2445813345
 20
-6.9763182908
 30
0.0
 11
60.2445813345
 21
-11.1975400889
 31
0.0
  0
LINE
  5
52
100
AcDbEntity
  8
LY_3
  6
CENTER
 62
        80
100
AcDbLine
 10
85.7108236998
 20
1.1899508189
 30
0.0
 11
99.1458575367
 21
14.6249846559
 31
0.0
  0
LINE
  5
53
100
AcDbEntity
  8
LY_3
  6
CENTER
 62
        80
100
AcDbLine
 10
85.7108236998
 20
-61.7425616207
 30
0.0
 11
99.1458575367
 21
-75.1775954577
 31
0.0
  0
LINE
  5
54
100
AcDbEntity
  8
LY_3
  6
CENTER
 62
        80
100
AcDbLine
 10
22.7783112601
 20
-61.7425616207
 30
0.0
 11
9.3432936076
 21
-75.1775792733
 31
0.0
  0
LINE
  5
55
100
AcDbEntity
  8
LY_3
  6
CENTER
 62
        80
100
AcDbLine
 10
22.7783233984
 20
1.1899386806
 30
0.0
 11
9.343309792
 21
14.6249522871
 31
0.0
  0
LINE
  5
56
100
AcDbEntity
  8
LY_3
  6
CONTINUOUS
 62
        80
100
AcDbLine
 10
-89.244595729
 20
-80.2763034225
 30
0.0
 11
-81.2445807086
 21
-80.2763034225
 31
0.0
  0
LINE
  5
57
100
AcDbEntity
  8
LY_3
  6
CONTINUOUS
 62
        80
100
AcDbLine
 10
-89.244595729
 20
-88.2763041377
 30
0.0
 11
-81.2445807086
 21
-88.2763041377
 31
0.0
  0
LINE
  5
58
100
AcDbEntity
  8
LY_3
  6
CONTINUOUS
 62
         3
100
AcDbLine
 10
-89.244595729
 20
-80.8263035968
 30
0.0
 11
-81.2445807086
 21
-80.8263035968
 31
0.0
  0
LINE
  5
59
100
AcDbEntity
  8
LY_3
  6
CONTINUOUS
 62
         3
100
AcDbLine
 10
-89.244595729
 20
-87.7263039634
 30
0.0
 11
-81.2445807086
 21
-87.7263039634
 31
0.0
  0
LINE
  5
5A
100
AcDbEntity
  8
LY_3
  6
CONTINUOUS
 62
         3
100
AcDbLine
 10
-79.4445853399
 20
14.7236703813
 30
0.0
 11
-79.4445853399
 21
2.0516736887
 31
0.0
  0
LINE
  5
5B
100
AcDbEntity
  8
LY_3
  6
CONTINUOUS
 62
         3
100
AcDbLine
 10
-84.2445806192
 20
6.0676800387
 30
0.0
 11
-80.7445883529
 21
6.0676800387
 31
0.0
  0
LINE
  5
5C
100
AcDbEntity
  8
LY_3
  6
CONTINUOUS
 62
         3
100
AcDbLine
 10
-80.7445883529
 20
13.6676782863
 30
0.0
 11
-80.7445883529
 21
2.0516736887
 31
0.0
  0
LINE
  5
5D
100
AcDbEntity
  8
LY_3
  6
CONTINUOUS
 62
         3
100
AcDbLine
 10
-84.2445806192
 20
13.6676782863
 30
0.0
 11
-84.2445806192
 21
0.7236784279
 31
0.0
  0
LINE
  5
5E
100
AcDbEntity
  8
LY_3
  6
CONTINUOUS
 62
         3
100
AcDbLine
 10
-84.2445806192
 20
11.6676859753
 30
0.0
 11
-80.7445883529
 21
11.6676859753
 31
0.0
  0
LINE
  5
5F
100
AcDbEntity
  8
LY_3
  6
CONTINUOUS
 62
         3
100
AcDbLine
 10
-84.2445806192
 20
13.6676782863
 30
0.0
 11
-80.7445883529
 21
13.6676782863
 31
0.0
  0
LINE
  5
60
100
AcDbEntity
  8
LY_3
  6
CONTINUOUS
 62
         3
100
AcDbLine
 10
-79.6446051704
 20
12.008628348
 30
0.0
 11
-63.8445720719
 21
12.008628348
 31
0.0
  0
LINE
  5
61
100
AcDbEntity
  8
LY_3
  6
CONTINUOUS
 62
         3
100
AcDbLine
 10
-79.4445853399
 20
10.8879542481
 30
0.0
 11
-64.0445919024
 21
10.8879542481
 31
0.0
  0
LINE
  5
62
100
AcDbEntity
  8
LY_3
  6
CONTINUOUS
 62
         3
100
AcDbLine
 10
-64.0445919024
 20
14.7236703813
 30
0.0
 11
-64.0445919024
 21
2.0516736887
 31
0.0
  0
LINE
  5
63
100
AcDbEntity
  8
LY_3
  6
CONTINUOUS
 62
         3
100
AcDbLine
 10
-62.7445888893
 20
13.6676782863
 30
0.0
 11
-59.244596623
 21
13.6676782863
 31
0.0
  0
LINE
  5
64
100
AcDbEntity
  8
LY_3
  6
CONTINUOUS
 62
         3
100
AcDbLine
 10
-62.7445888893
 20
13.6676782863
 30
0.0
 11
-62.7445888893
 21
2.0516736887
 31
0.0
  0
LINE
  5
65
100
AcDbEntity
  8
LY_3
  6
CONTINUOUS
 62
         3
100
AcDbLine
 10
-59.244596623
 20
13.6676782863
 30
0.0
 11
-59.244596623
 21
0.7236784279
 31
0.0
  0
LINE
  5
66
100
AcDbEntity
  8
LY_3
  6
CONTINUOUS
 62
         3
100
AcDbLine
 10
-62.7445888893
 20
11.6676859753
 30
0.0
 11
-59.244596623
 21
11.6676859753
 31
0.0
  0
LINE
  5
67
100
AcDbEntity
  8
LY_3
  6
CONTINUOUS
 62
         3
100
AcDbLine
 10
-62.7445888893
 20
6.0676800387
 30
0.0
 11
-59.244596623
 21
6.0676800387
 31
0.0
  0
LINE
  5
68
100
AcDbEntity
  8
LY_3
  6
CONTINUOUS
 62
         3
100
AcDbLine
 10
-84.0445836769
 20
11.6676859753
 30
0.0
 11
-84.0445836769
 21
6.0676800387
 31
0.0
  0
LINE
  5
69
100
AcDbEntity
  8
LY_3
  6
CONTINUOUS
 62
         3
100
AcDbLine
 10
-59.4445935653
 20
11.6676859753
 30
0.0
 11
-59.4445935653
 21
6.0676800387
 31
0.0
  0
LINE
  5
6A
100
AcDbEntity
  8
LY_3
  6
CONTINUOUS
 62
         3
100
AcDbLine
 10
-63.8445720719
 20
12.008628348
 30
0.0
 11
-63.8445720719
 21
3.9676892565
 31
0.0
  0
LINE
  5
6B
100
AcDbEntity
  8
LY_3
  6
CONTINUOUS
 62
         3
100
AcDbLine
 10
-62.7445888893
 20
4.4676816123
 30
0.0
 11
-64.0445919024
 21
4.4676816123
 31
0.0
  0
LINE
  5
6C
100
AcDbEntity
  8
LY_3
  6
CONTINUOUS
 62
         3
100
AcDbLine
 10
-62.7445888893
 20
13.2676844018
 30
0.0
 11
-64.0445919024
 21
13.2676844018
 31
0.0
  0
LINE
  5
6D
100
AcDbEntity
  8
LY_3
  6
CONTINUOUS
 62
         3
100
AcDbLine
 10
-79.6446051704
 20
12.008628348
 30
0.0
 11
-79.6446051704
 21
3.9676892565
 31
0.0
  0
LINE
  5
6E
100
AcDbEntity
  8
LY_3
  6
CONTINUOUS
 62
         3
100
AcDbLine
 10
-80.7445883529
 20
4.4676816123
 30
0.0
 11
-79.4445853399
 21
4.4676816123
 31
0.0
  0
LINE
  5
6F
100
AcDbEntity
  8
LY_3
  6
CONTINUOUS
 62
         3
100
AcDbLine
 10
-80.7445883529
 20
13.2676844018
 30
0.0
 11
-79.4445853399
 21
13.2676844018
 31
0.0
  0
LINE
  5
70
100
AcDbEntity
  8
LY_3
  6
CONTINUOUS
 62
         3
100
AcDbLine
 10
-64.0445919024
 20
-63.0106441279
 30
0.0
 11
-79.4446082281
 21
-63.0106441279
 31
0.0
  0
LINE
  5
71
100
AcDbEntity
  8
LY_3
  6
CONTINUOUS
 62
         3
100
AcDbLine
 10
-64.0445919024
 20
-73.6696651878
 30
0.0
 11
-79.4446082281
 21
-73.6696651878
 31
0.0
  0
LINE
  5
72
100
AcDbEntity
  8
LY_3
  6
CONTINUOUS
 62
         3
100
AcDbLine
 10
-62.7445888893
 20
-74.2203004198
 30
0.0
 11
-62.7445888893
 21
-62.6043030641
 31
0.0
  0
LINE
  5
73
100
AcDbEntity
  8
LY_3
  6
CONTINUOUS
 62
         3
100
AcDbLine
 10
-59.244596623
 20
-74.2203004198
 30
0.0
 11
-59.244596623
 21
-61.2763049424
 31
0.0
  0
LINE
  5
74
100
AcDbEntity
  8
LY_3
  6
CONTINUOUS
 62
         3
100
AcDbLine
 10
-59.244596623
 20
-74.2203004198
 30
0.0
 11
-62.7445888893
 21
-74.2203004198
 31
0.0
  0
LINE
  5
75
100
AcDbEntity
  8
LY_3
  6
CONTINUOUS
 62
         3
100
AcDbLine
 10
-59.244596623
 20
-72.2203010457
 30
0.0
 11
-62.7445888893
 21
-72.2203010457
 31
0.0
  0
LINE
  5
76
100
AcDbEntity
  8
LY_3
  6
CONTINUOUS
 62
         3
100
AcDbLine
 10
-59.244596623
 20
-66.6203094141
 30
0.0
 11
-62.7445888893
 21
-66.6203094141
 31
0.0
  0
LINE
  5
77
100
AcDbEntity
  8
LY_3
  6
CONTINUOUS
 62
         3
100
AcDbLine
 10
-80.7446112411
 20
-66.6203094141
 30
0.0
 11
-84.2446035074
 21
-66.6203094141
 31
0.0
  0
LINE
  5
78
100
AcDbEntity
  8
LY_3
  6
CONTINUOUS
 62
         3
100
AcDbLine
 10
-80.7446112411
 20
-74.2203004198
 30
0.0
 11
-80.7446112411
 21
-62.6043030641
 31
0.0
  0
LINE
  5
79
100
AcDbEntity
  8
LY_3
  6
CONTINUOUS
 62
         3
100
AcDbLine
 10
-80.7446112411
 20
-74.2203004198
 30
0.0
 11
-84.2446035074
 21
-74.2203004198
 31
0.0
  0
LINE
  5
7A
100
AcDbEntity
  8
LY_3
  6
CONTINUOUS
 62
         3
100
AcDbLine
 10
-80.7446112411
 20
-72.2203010457
 30
0.0
 11
-84.2446035074
 21
-72.2203010457
 31
0.0
  0
LINE
  5
7B
100
AcDbEntity
  8
LY_3
  6
CONTINUOUS
 62
         3
100
AcDbLine
 10
-84.2446035074
 20
-74.2203004198
 30
0.0
 11
-84.2446035074
 21
-61.2763049424
 31
0.0
  0
LINE
  5
7C
100
AcDbEntity
  8
LY_3
  6
CONTINUOUS
 62
         3
100
AcDbLine
 10
-79.4446082281
 20
-62.6043030641
 30
0.0
 11
-79.4446082281
 21
-75.2763001344
 31
0.0
  0
LINE
  5
7D
100
AcDbEntity
  8
LY_3
  6
CONTINUOUS
 62
         3
100
AcDbLine
 10
-64.0445919024
 20
-62.6043030641
 30
0.0
 11
-64.0445919024
 21
-75.2763001344
 31
0.0
  0
LINE
  5
7E
100
AcDbEntity
  8
LY_3
  6
CONTINUOUS
 62
         3
100
AcDbLine
 10
-80.7446112411
 20
-65.0202995436
 30
0.0
 11
-79.4446082281
 21
-65.0202995436
 31
0.0
  0
LINE
  5
7F
100
AcDbEntity
  8
LY_3
  6
CONTINUOUS
 62
         3
100
AcDbLine
 10
-80.7446112411
 20
-73.8202959852
 30
0.0
 11
-79.4446082281
 21
-73.8202959852
 31
0.0
  0
LINE
  5
80
100
AcDbEntity
  8
LY_3
  6
CONTINUOUS
 62
         3
100
AcDbLine
 10
-62.7445888893
 20
-73.8202959852
 30
0.0
 11
-64.0445919024
 21
-73.8202959852
 31
0.0
  0
LINE
  5
81
100
AcDbEntity
  8
LY_3
  6
CONTINUOUS
 62
         3
100
AcDbLine
 10
-62.7445888893
 20
-65.0202995436
 30
0.0
 11
-64.0445919024
 21
-65.0202995436
 31
0.0
  0
LINE
  5
83
100
AcDbEntity
  8
LY_3
  6
DASHED
 62
        80
100
AcDbLine
 10
78.420650363
 20
18.1588223594
 30
0.0
 11
79.9885166022
 21
18.8082489424
 31
0.0
  0
LINE
  5
84
100
AcDbEntity
  8
LY_3
  6
DASHED
 62
        80
100
AcDbLine
 10
70.7497305067
 20
22.6350906654
 30
0.0
 11
71.3991483307
 21
21.0672455721
 31
0.0
  0
LINE
  5
85
100
AcDbEntity
  8
LY_3
  6
DASHED
 62
        80
100
AcDbLine
 10
72.5085340674
 20
29.4955600401
 30
0.0
 11
72.0449743878
 21
28.3764279748
 31
0.0
  0
LINE
  5
86
100
AcDbEntity
  8
LY_3
  6
DASHED
 62
        80
100
AcDbLine
 10
69.1420295089
 20
18.7549532888
 30
0.0
 11
78.3808104614
 21
14.9281249185
 31
0.0
  0
LINE
  5
87
100
AcDbEntity
  8
LY_3
  6
DASHED
 62
        80
100
AcDbLine
 10
73.6155455809
 20
27.7258760859
 30
0.0
 11
68.8320055675
 21
16.1773889093
 31
0.0
  0
LINE
  5
88
100
AcDbEntity
  8
LY_3
  6
DASHED
 62
        80
100
AcDbLine
 10
72.9688609415
 20
27.9937416342
 30
0.0
 11
69.1420295089
 21
18.7549532888
 31
0.0
  0
LINE
  5
89
100
AcDbEntity
  8
LY_3
  6
DASHED
 62
        80
100
AcDbLine
 10
71.3988566999
 20
21.066636352
 30
0.0
 11
78.4203606739
 21
18.1582341777
 31
0.0
  0
LINE
  5
8A
100
AcDbEntity
  8
LY_3
  6
DASHED
 62
        80
100
AcDbLine
 10
70.7494400676
 20
22.6345090852
 30
0.0
 11
79.988242166
 21
18.8076719559
 31
0.0
  0
LINE
  5
8B
100
AcDbEntity
  8
LY_3
  6
DASHED
 62
        80
100
AcDbLine
 10
72.0449743878
 20
28.3764279748
 30
0.0
 11
83.1315495935
 21
23.7842181643
 31
0.0
  0
LINE
  5
8C
100
AcDbEntity
  8
LY_3
  6
CENTER
 62
        80
100
AcDbLine
 10
79.3259510278
 20
30.2755055935
 30
0.0
 11
69.9232594209
 21
7.5753985517
 31
0.0
  0
LINE
  5
8D
100
AcDbEntity
  8
LY_3
  6
CONTINUOUS
 62
         3
100
AcDbLine
 10
-81.2445807086
 20
-88.776303646
 30
0.0
 11
-81.2445807086
 21
-79.7763039142
 31
0.0
  0
LINE
  5
8E
100
AcDbEntity
  8
LY_3
  6
CENTER
 62
        80
100
AcDbLine
 10
98.7445748595
 20
-30.2763053894
 30
0.0
 11
117.7445849484
 21
-30.2763053894
 31
0.0
  0
LINE
  5
8F
100
AcDbEntity
  8
LY_3
  6
CENTER
 62
        80
100
AcDbLine
 10
54.2445815133
 20
-74.7762987356
 30
0.0
 11
54.2445815133
 21
-93.7763088246
 31
0.0
  0
LINE
  5
90
100
AcDbEntity
  8
LY_3
  6
CONTINUOUS
 62
         3
100
AcDbLine
 10
-87.2445805298
 20
14.7236932695
 30
0.0
 11
-87.2445805298
 21
8.1236797333
 31
0.0
  0
LINE
  5
91
100
AcDbEntity
  8
LY_3
  6
CONTINUOUS
 62
         3
100
AcDbLine
 10
-56.2445738243
 20
14.7236932695
 30
0.0
 11
-56.2445738243
 21
8.1236797333
 31
0.0
  0
LINE
  5
92
100
AcDbEntity
  8
LY_3
  6
CONTINUOUS
 62
         3
100
AcDbLine
 10
-87.2445805298
 20
-68.6762905121
 30
0.0
 11
-87.2445805298
 21
-75.2763040483
 31
0.0
  0
LINE
  5
93
100
AcDbEntity
  8
LY_3
  6
CONTINUOUS
 62
         3
100
AcDbLine
 10
-56.2445738243
 20
-68.6762905121
 30
0.0
 11
-56.2445738243
 21
-75.2763040483
 31
0.0
  0
LINE
  5
94
100
AcDbEntity
  8
LY_3
  6
DASHED
 62
        80
100
AcDbLine
 10
82.207633135
 20
24.1668921179
 30
0.0
 11
78.3808104614
 21
14.9281249185
 31
0.0
  0
LINE
  5
95
100
AcDbEntity
  8
LY_3
  6
DASHED
 62
        80
100
AcDbLine
 10
81.5609062037
 20
24.434775184
 30
0.0
 11
76.7773749492
 21
12.8863091534
 31
0.0
  0
LINE
  5
96
100
AcDbEntity
  8
LY_3
  6
DASHED
 62
        80
100
AcDbLine
 10
107.1559775681
 20
-46.7814543828
 30
0.0
 11
105.5881324748
 21
-47.4308722069
 31
0.0
  0
LINE
  5
97
100
AcDbEntity
  8
LY_3
  6
DASHED
 62
        80
100
AcDbLine
 10
102.6797092621
 20
-54.4523742391
 30
0.0
 11
103.329135845
 21
-56.0202404784
 31
0.0
  0
LINE
  5
98
100
AcDbEntity
  8
LY_3
  6
DASHED
 62
        80
100
AcDbLine
 10
30.0685126635
 20
-78.7114331382
 30
0.0
 11
28.5006464243
 21
-79.3608597212
 31
0.0
  0
LINE
  5
99
100
AcDbEntity
  8
LY_3
  6
DASHED
 62
        80
100
AcDbLine
 10
37.7394325199
 20
-83.1877014442
 30
0.0
 11
37.0900146958
 21
-81.6198563509
 31
0.0
  0
LINE
  5
9A
100
AcDbEntity
  8
LY_3
  6
DASHED
 62
        80
100
AcDbLine
 10
35.9806289592
 20
-90.0481708189
 30
0.0
 11
36.4441886387
 21
-88.9290387536
 31
0.0
  0
LINE
  5
9B
100
AcDbEntity
  8
LY_3
  6
DASHED
 62
        80
100
AcDbLine
 10
39.3471335176
 20
-79.3075640677
 30
0.0
 11
30.1083525651
 21
-75.4807356973
 31
0.0
  0
LINE
  5
9C
100
AcDbEntity
  8
LY_3
  6
DASHED
 62
        80
100
AcDbLine
 10
34.8736174456
 20
-88.2784868647
 30
0.0
 11
39.6571574591
 21
-76.7299996881
 31
0.0
  0
LINE
  5
9D
100
AcDbEntity
  8
LY_3
  6
DASHED
 62
        80
100
AcDbLine
 10
35.5203020851
 20
-88.546352413
 30
0.0
 11
39.3471335176
 21
-79.3075640677
 31
0.0
  0
LINE
  5
9E
100
AcDbEntity
  8
LY_3
  6
DASHED
 62
        80
100
AcDbLine
 10
37.0903063267
 20
-81.6192471308
 30
0.0
 11
30.0688023526
 21
-78.7108449565
 31
0.0
  0
LINE
  5
9F
100
AcDbEntity
  8
LY_3
  6
DASHED
 62
        80
100
AcDbLine
 10
37.739722959
 20
-83.187119864
 30
0.0
 11
28.5009208605
 21
-79.3602827347
 31
0.0
  0
LINE
  5
A0
100
AcDbEntity
  8
LY_3
  6
DASHED
 62
        80
100
AcDbLine
 10
36.4441886387
 20
-88.9290387536
 30
0.0
 11
25.357613433
 21
-84.3368289431
 31
0.0
  0
LINE
  5
A1
100
AcDbEntity
  8
LY_3
  6
CENTER
 62
        80
100
AcDbLine
 10
29.1632119987
 20
-90.8281163723
 30
0.0
 11
38.5659036057
 21
-68.1280093306
 31
0.0
  0
LINE
  5
A2
100
AcDbEntity
  8
LY_3
  6
DASHED
 62
        80
100
AcDbLine
 10
26.2815298915
 20
-84.7195028967
 30
0.0
 11
30.1083525651
 21
-75.4807356973
 31
0.0
  0
LINE
  5
A3
100
AcDbEntity
  8
LY_3
  6
DASHED
 62
        80
100
AcDbLine
 10
26.9282568228
 20
-84.9873859628
 30
0.0
 11
31.7117880773
 21
-73.4389199322
 31
0.0
  0
LINE
  5
A4
100
AcDbEntity
  8
LY_3
  6
DASHED
 62
        80
100
AcDbLine
 10
24.8940537972
 20
-85.4559609031
 30
0.0
 11
25.357613433
 21
-84.3368289431
 31
0.0
  0
LINE
  5
A5
100
AcDbEntity
  8
LY_3
  6
DASHED
 62
        80
100
AcDbLine
 10
38.6870601029
 20
-76.3281722064
 30
0.0
 11
40.0714172515
 21
-72.9860384032
 31
0.0
  0
LINE
  5
A6
100
AcDbEntity
  8
LY_3
  6
DASHED
 62
        80
100
AcDbLine
 10
39.6571574591
 20
-76.7299996881
 30
0.0
 11
31.7117880773
 21
-73.4389199322
 31
0.0
  0
LINE
  5
A7
100
AcDbEntity
  8
LY_3
  6
DASHED
 62
        80
100
AcDbLine
 10
32.6818431416
 20
-73.840729896
 30
0.0
 11
34.0661996887
 21
-70.4985975449
 31
0.0
  0
LINE
  5
A8
100
AcDbEntity
  8
LY_3
  6
DASHED
 62
        80
100
AcDbLine
 10
10.6801570066
 20
-8.7135670177
 30
0.0
 11
14.0222893578
 21
-10.0979235648
 31
0.0
  0
LINE
  5
A9
100
AcDbEntity
  8
LY_3
  6
DASHED
 62
        80
100
AcDbLine
 10
7.7908872145
 20
-15.6888813352
 30
0.0
 11
11.0819669705
 21
-7.7435119535
 31
0.0
  0
LINE
  5
AA
100
AcDbEntity
  8
LY_3
  6
DASHED
 62
        80
100
AcDbLine
 10
8.1927146963
 20
-14.7187839791
 30
0.0
 11
11.5348484995
 21
-16.1031411276
 31
0.0
  0
LINE
  5
AB
100
AcDbEntity
  8
LY_3
  6
DASHED
 62
        80
100
AcDbLine
 10
-0.9350740004
 20
-0.9257776733
 30
0.0
 11
0.1840579596
 21
-1.3893373092
 31
0.0
  0
LINE
  5
AC
100
AcDbEntity
  8
LY_3
  6
DASHED
 62
        80
100
AcDbLine
 10
-0.4664990602
 20
-2.959980699
 30
0.0
 11
11.0819669705
 21
-7.7435119535
 31
0.0
  0
LINE
  5
AD
100
AcDbEntity
  8
LY_3
  6
DASHED
 62
        80
100
AcDbLine
 10
-0.1986159941
 20
-2.3132537677
 30
0.0
 11
9.0401512053
 21
-6.1400764412
 31
0.0
  0
LINE
  5
AE
100
AcDbEntity
  8
LY_3
  6
CENTER
 62
        80
100
AcDbLine
 10
-6.3072294696
 20
-5.1949358749
 30
0.0
 11
16.3928775721
 21
-14.5976274818
 31
0.0
  0
LINE
  5
AF
100
AcDbEntity
  8
LY_3
  6
DASHED
 62
        80
100
AcDbLine
 10
-4.4081518509
 20
-12.4759125148
 30
0.0
 11
0.1840579596
 21
-1.3893373092
 31
0.0
  0
LINE
  5
B0
100
AcDbEntity
  8
LY_3
  6
DASHED
 62
        80
100
AcDbLine
 10
1.3337670387
 20
-13.7714468351
 30
0.0
 11
5.1606041679
 21
-4.5326447367
 31
0.0
  0
LINE
  5
B1
100
AcDbEntity
  8
LY_3
  6
DASHED
 62
        80
100
AcDbLine
 10
2.9016397719
 20
-13.1220302028
 30
0.0
 11
5.8100419462
 21
-6.1005262288
 31
0.0
  0
LINE
  5
B2
100
AcDbEntity
  8
LY_3
  6
DASHED
 62
        80
100
AcDbLine
 10
-4.0254655103
 20
-11.5520259612
 30
0.0
 11
5.213322835
 21
-15.3788573937
 31
0.0
  0
LINE
  5
B3
100
AcDbEntity
  8
LY_3
  6
DASHED
 62
        80
100
AcDbLine
 10
-3.757599962
 20
-10.9053413218
 30
0.0
 11
7.7908872145
 21
-15.6888813352
 31
0.0
  0
LINE
  5
B4
100
AcDbEntity
  8
LY_3
  6
DASHED
 62
        80
100
AcDbLine
 10
5.213322835
 20
-15.3788573937
 30
0.0
 11
9.0401512053
 21
-6.1400764412
 31
0.0
  0
LINE
  5
B5
100
AcDbEntity
  8
LY_3
  6
DASHED
 62
        80
100
AcDbLine
 10
-5.5272839162
 20
-12.0123528353
 30
0.0
 11
-4.4081518509
 21
-12.4759125148
 31
0.0
  0
LINE
  5
B6
100
AcDbEntity
  8
LY_3
  6
DASHED
 62
        80
100
AcDbLine
 10
1.3331854585
 20
-13.771156396
 30
0.0
 11
2.9010305518
 21
-13.1217385719
 31
0.0
  0
LINE
  5
B7
100
AcDbEntity
  8
LY_3
  6
DASHED
 62
        80
100
AcDbLine
 10
5.8094537644
 20
-6.1002365397
 30
0.0
 11
5.1600271815
 21
-4.5323703004
 31
0.0
  0
LINE
  5
B8
100
AcDbEntity
  8
LY_3
  6
DASHED
 62
        80
100
AcDbLine
 10
83.5951092294
 20
24.9033501243
 30
0.0
 11
83.1315495935
 21
23.7842181643
 31
0.0
  0
LINE
  5
B9
100
AcDbEntity
  8
LY_3
  6
DASHED
 62
        80
100
AcDbLine
 10
69.8021029236
 20
15.7755614276
 30
0.0
 11
68.417745775
 21
12.4334276244
 31
0.0
  0
LINE
  5
BA
100
AcDbEntity
  8
LY_3
  6
DASHED
 62
        80
100
AcDbLine
 10
68.8320055675
 20
16.1773889093
 30
0.0
 11
76.7773749492
 21
12.8863091534
 31
0.0
  0
LINE
  5
BB
100
AcDbEntity
  8
LY_3
  6
DASHED
 62
        80
100
AcDbLine
 10
75.8073198849
 20
13.2881191172
 30
0.0
 11
74.4229633378
 21
9.9459867661
 31
0.0
  0
LINE
  5
BC
100
AcDbEntity
  8
LY_3
  6
DASHED
 62
        80
100
AcDbLine
 10
112.2467629886
 20
-49.6472694571
 30
0.0
 11
100.698275812
 21
-44.8637294436
 31
0.0
  0
LINE
  5
BD
100
AcDbEntity
  8
LY_3
  6
DASHED
 62
        80
100
AcDbLine
 10
103.2758401915
 20
-45.1737533851
 30
0.0
 11
99.4490118212
 21
-54.4125343376
 31
0.0
  0
LINE
  5
BE
100
AcDbEntity
  8
LY_3
  6
DASHED
 62
        80
100
AcDbLine
 10
114.0164469428
 20
-48.5402579435
 30
0.0
 11
112.8973148774
 21
-48.076698264
 31
0.0
  0
LINE
  5
BF
100
AcDbEntity
  8
LY_3
  6
DASHED
 62
        80
100
AcDbLine
 10
112.5146285368
 20
-49.0005848176
 30
0.0
 11
103.2758401915
 21
-45.1737533851
 31
0.0
  0
LINE
  5
C0
100
AcDbEntity
  8
LY_3
  6
DASHED
 62
        80
100
AcDbLine
 10
105.5875232547
 20
-47.430580576
 30
0.0
 11
102.6791210804
 21
-54.45208455
 31
0.0
  0
LINE
  5
C1
100
AcDbEntity
  8
LY_3
  6
DASHED
 62
        80
100
AcDbLine
 10
107.1553959878
 20
-46.7811639437
 30
0.0
 11
103.3285588586
 21
-56.0199660421
 31
0.0
  0
LINE
  5
C2
100
AcDbEntity
  8
LY_3
  6
DASHED
 62
        80
100
AcDbLine
 10
112.8973148774
 20
-48.076698264
 30
0.0
 11
108.305105067
 21
-59.1632734696
 31
0.0
  0
LINE
  5
C3
100
AcDbEntity
  8
LY_3
  6
CENTER
 62
        80
100
AcDbLine
 10
114.7963924961
 20
-55.357674904
 30
0.0
 11
92.0962854544
 21
-45.954983297
 31
0.0
  0
LINE
  5
C4
100
AcDbEntity
  8
LY_3
  6
DASHED
 62
        80
100
AcDbLine
 10
108.6877790206
 20
-58.2393570112
 30
0.0
 11
99.4490118212
 21
-54.4125343376
 31
0.0
  0
LINE
  5
C5
100
AcDbEntity
  8
LY_3
  6
DASHED
 62
        80
100
AcDbLine
 10
108.9556620867
 20
-57.5926300798
 30
0.0
 11
97.407196056
 21
-52.8090988253
 31
0.0
  0
LINE
  5
C6
100
AcDbEntity
  8
LY_3
  6
DASHED
 62
        80
100
AcDbLine
 10
109.4242370269
 20
-59.6268331055
 30
0.0
 11
108.305105067
 21
-59.1632734696
 31
0.0
  0
LINE
  5
C7
100
AcDbEntity
  8
LY_3
  6
DASHED
 62
        80
100
AcDbLine
 10
100.2964483303
 20
-45.8338267997
 30
0.0
 11
96.9543145271
 21
-44.4494696512
 31
0.0
  0
LINE
  5
C8
100
AcDbEntity
  8
LY_3
  6
DASHED
 62
        80
100
AcDbLine
 10
100.698275812
 20
-44.8637294436
 30
0.0
 11
97.407196056
 21
-52.8090988253
 31
0.0
  0
LINE
  5
C9
100
AcDbEntity
  8
LY_3
  6
DASHED
 62
        80
100
AcDbLine
 10
97.8090060199
 20
-51.8390437611
 30
0.0
 11
94.4668736688
 21
-50.454687214
 31
0.0
  0
ARC
  5
CA
100
AcDbEntity
  8
LY_3
  6
CENTER
 62
        80
100
AcDbCircle
 10
54.2445815133
 20
-30.2763053894
 30
0.0
 40
53.9999983907
100
AcDbArc
 50
304.9071460094
 51
325.0928565862
  0
ARC
  5
CB
100
AcDbEntity
  8
LY_3
  6
CONTINUOUS
 62
         3
100
AcDbCircle
 10
54.2445815133
 20
-30.2763053894
 30
0.0
 40
19.9999989271
100
AcDbArc
 50
107.4575630419
 51
72.5423836831
  0
CIRCLE
  5
CC
100
AcDbEntity
  8
LY_3
  6
CONTINUOUS
 62
         3
100
AcDbCircle
 10
54.2445815133
 20
-30.2763053894
 30
0.0
 40
32.3279790781
  0
CIRCLE
  5
CD
100
AcDbEntity
  8
LY_3
  6
CONTINUOUS
 62
         3
100
AcDbCircle
 10
54.2445815133
 20
-30.2763053894
 30
0.0
 40
44.9999986589
  0
ARC
  5
CE
100
AcDbEntity
  8
LY_3
  6
CENTER
 62
        80
100
AcDbCircle
 10
54.2445815133
 20
-30.2763053894
 30
0.0
 40
53.9999983907
100
AcDbArc
 50
349.9071455767
 51
10.0928544233
  0
CIRCLE
  5
CF
100
AcDbEntity
  8
LY_3
  6
CONTINUOUS
 62
         3
100
AcDbCircle
 10
54.2445815133
 20
-30.2763053894
 30
0.0
 40
62.4999828786
  0
CIRCLE
  5
D0
100
AcDbEntity
  8
LY_3
  6
CONTINUOUS
 62
         3
100
AcDbCircle
 10
33.5796651369
 20
19.613181344
 30
0.0
 40
4.4999998659
  0
CIRCLE
  5
D1
100
AcDbEntity
  8
LY_3
  6
CONTINUOUS
 62
         3
100
AcDbCircle
 10
74.9094750014
 20
-80.1657978448
 30
0.0
 40
4.4999998659
  0
ARC
  5
D2
100
AcDbEntity
  8
LY_3
  6
CENTER
 62
        80
100
AcDbCircle
 10
54.2445815133
 20
-30.2763053894
 30
0.0
 40
53.9999983907
100
AcDbArc
 50
79.9070934397
 51
100.092871883
  0
ARC
  5
D3
100
AcDbEntity
  8
LY_3
  6
CENTER
 62
        80
100
AcDbCircle
 10
54.2445815133
 20
-30.2763053894
 30
0.0
 40
53.9999983907
100
AcDbArc
 50
169.9071300951
 51
190.0928526021
  0
ARC
  5
D4
100
AcDbEntity
  8
LY_3
  6
CENTER
 62
        80
100
AcDbCircle
 10
54.2445815133
 20
-30.2763053894
 30
0.0
 40
53.9999983907
100
AcDbArc
 50
259.9071840533
 51
280.092871883
  0
ARC
  5
D5
100
AcDbEntity
  8
LY_3
  6
CENTER
 62
        80
100
AcDbCircle
 10
54.2445815133
 20
-30.2763053894
 30
0.0
 40
53.9999983907
100
AcDbArc
 50
214.9071657256
 51
235.0928882326
  0
ARC
  5
D6
100
AcDbEntity
  8
LY_3
  6
CENTER
 62
        80
100
AcDbCircle
 10
54.2445815133
 20
-30.2763053894
 30
0.0
 40
53.9999983907
100
AcDbArc
 50
34.9071468289
 51
55.0928556756
  0
ARC
  5
D7
100
AcDbEntity
  8
LY_3
  6
CENTER
 62
        80
100
AcDbCircle
 10
54.2445815133
 20
-30.2763053894
 30
0.0
 40
53.9999983907
100
AcDbArc
 50
124.9071460094
 51
145.0928342744
  0
MTEXT
  5
D8
100
AcDbEntity
  8
LY_3
  6
CONTINUOUS
 62
       110
100
AcDbMText
 10
-34.8712336621
 20
69.1865802765
 30
0.0
 40
15.0
 41
0.0
 71
         1
 72
         1
  1
\W1.128;\A1;BR 40
  0
MTEXT
  5
D9
100
AcDbEntity
  8
LY_3
  6
CONTINUOUS
 62
       110
100
AcDbMText
 10
-68.2430553901
 20
92.6673583984
 30
0.0
 40
13.0
 41
0.0
 71
         1
 72
         1
  1
\W1.042;\A1;CAM CLUTCH
  0
ENDSEC
  0
SECTION
  2
OBJECTS
  0
DICTIONARY
  5
19
100
AcDbDictionary
  3
ACAD_GROUP
350
1A
  3
ACAD_MLINESTYLE
350
1B
  0
DICTIONARY
  5
1A
102
{ACAD_REACTORS
330
19
102
}
100
AcDbDictionary
  0
DICTIONARY
  5
1B
102
{ACAD_REACTORS
330
19
102
}
100
AcDbDictionary
  3
STANDARD
350
1C
  0
MLINESTYLE
  5
1C
102
{ACAD_REACTORS
330
1B
102
}
100
AcDbMlineStyle
  2
Standard
 70
         0
  3

 62
         0
 51
90.0
 52
90.0
 71
         2
 49
0.5
 62
       256
  6
ByLayer
 49
-0.5
 62
       256
  6
ByLayer
  0
ENDSEC
  0
EOF
