  0
SECTION
  2
HEADER
  9
$ACADVER
  1
AC1014
  9
$ACADMAINTVER
 70
         0
  9
$DWGCODEPAGE
  3
ANSI_932
  9
$INSBASE
 10
0.0
 20
0.0
 30
0.0
  9
$EXTMIN
 10
-149.7476530076
 20
-85.5762941892
 30
0.0
  9
$EXTMAX
 10
100.6297159726
 20
122.1256914138
 30
0.0
  9
$LIMMIN
 10
-149.7476530076
 20
-85.5762941892
  9
$LIMMAX
 10
100.6297159726
 20
122.1256914138
  9
$ORTHOMODE
 70
         0
  9
$REGENMODE
 70
         1
  9
$FILLMODE
 70
         1
  9
$QTEXTMODE
 70
         0
  9
$MIRRTEXT
 70
         1
  9
$DRAGMODE
 70
         2
  9
$LTSCALE
 40
1.0
  9
$OSMODE
 70
         0
  9
$ATTMODE
 70
         1
  9
$TEXTSIZE
 40
3.2000000477
  9
$TRACEWID
 40
0.05
  9
$TEXTSTYLE
  7
MX_NOTE_STANDARD
  9
$CLAYER
  8
0
  9
$CELTYPE
  6
CONTINUOUS
  9
$CECOLOR
 62
       256
  9
$CELTSCALE
 40
1.0
  9
$DELOBJ
 70
         1
  9
$DISPSILH
 70
         0
  9
$DIMSCALE
 40
1.0
  9
$DIMASZ
 40
2.5
  9
$DIMEXO
 40
0.0
  9
$DIMDLI
 40
3.75
  9
$DIMRND
 40
0.0
  9
$DIMDLE
 40
0.0
  9
$DIMEXE
 40
2.5
  9
$DIMTP
 40
0.0
  9
$DIMTM
 40
0.0
  9
$DIMTXT
 40
3.2000000477
  9
$DIMCEN
 40
2.5
  9
$DIMTSZ
 40
0.0
  9
$DIMTOL
 70
         0
  9
$DIMLIM
 70
         0
  9
$DIMTIH
 70
         0
  9
$DIMTOH
 70
         0
  9
$DIMSE1
 70
         0
  9
$DIMSE2
 70
         0
  9
$DIMTAD
 70
         1
  9
$DIMZIN
 70
         8
  9
$DIMBLK
  1

  9
$DIMASO
 70
         1
  9
$DIMSHO
 70
         1
  9
$DIMPOST
  1

  9
$DIMAPOST
  1

  9
$DIMALT
 70
         0
  9
$DIMALTD
 70
         4
  9
$DIMALTF
 40
0.0393700787
  9
$DIMLFAC
 40
1.0
  9
$DIMTOFL
 70
         1
  9
$DIMTVP
 40
0.0
  9
$DIMTIX
 70
         0
  9
$DIMSOXD
 70
         0
  9
$DIMSAH
 70
         1
  9
$DIMBLK1
  1
_OPEN30
  9
$DIMBLK2
  1
_OPEN30
  9
$DIMSTYLE
  2
MXDIMSTYLE
  9
$DIMCLRD
 70
         0
  9
$DIMCLRE
 70
         0
  9
$DIMCLRT
 70
         0
  9
$DIMTFAC
 40
1.0
  9
$DIMGAP
 40
1.0
  9
$DIMJUST
 70
         0
  9
$DIMSD1
 70
         0
  9
$DIMSD2
 70
         0
  9
$DIMTOLJ
 70
         0
  9
$DIMTZIN
 70
         0
  9
$DIMALTZ
 70
         0
  9
$DIMALTTZ
 70
         0
  9
$DIMFIT
 70
         3
  9
$DIMUPT
 70
         0
  9
$DIMUNIT
 70
         2
  9
$DIMDEC
 70
         2
  9
$DIMTDEC
 70
         2
  9
$DIMALTU
 70
         2
  9
$DIMALTTD
 70
         4
  9
$DIMTXSTY
  7
MX_NOTE_STANDARD
  9
$DIMAUNIT
 70
         0
  9
$LUNITS
 70
         2
  9
$LUPREC
 70
         4
  9
$SKETCHINC
 40
0.1
  9
$FILLETRAD
 40
0.0
  9
$AUNITS
 70
         0
  9
$AUPREC
 70
         0
  9
$MENU
  1
acad
  9
$ELEVATION
 40
0.0
  9
$PELEVATION
 40
0.0
  9
$THICKNESS
 40
0.0
  9
$LIMCHECK
 70
         0
  9
$BLIPMODE
 70
         1
  9
$CHAMFERA
 40
0.0
  9
$CHAMFERB
 40
0.0
  9
$CHAMFERC
 40
0.0
  9
$CHAMFERD
 40
0.0
  9
$SKPOLY
 70
         0
  9
$TDCREATE
 40
2456603.419490741
  9
$TDUPDATE
 40
2456603.419490741
  9
$TDINDWG
 40
0.0000000000
  9
$TDUSRTIMER
 40
0.0000000000
  9
$USRTIMER
 70
         1
  9
$ANGBASE
 50
0.0
  9
$ANGDIR
 70
         0
  9
$PDMODE
 70
         0
  9
$PDSIZE
 40
0.0
  9
$PLINEWID
 40
0.0
  9
$COORDS
 70
         1
  9
$SPLFRAME
 70
         0
  9
$SPLINETYPE
 70
         6
  9
$SPLINESEGS
 70
         8
  9
$ATTDIA
 70
         0
  9
$ATTREQ
 70
         1
  9
$HANDLING
 70
         1
  9
$HANDSEED
  5
CE
  9
$SURFTAB1
 70
         6
  9
$SURFTAB2
 70
         6
  9
$SURFTYPE
 70
         6
  9
$SURFU
 70
         6
  9
$SURFV
 70
         6
  9
$UCSNAME
  2

  9
$UCSORG
 10
0.0
 20
0.0
 30
0.0
  9
$UCSXDIR
 10
1.0
 20
0.0
 30
0.0
  9
$UCSYDIR
 10
0.0
 20
1.0
 30
0.0
  9
$PUCSNAME
  2

  9
$PUCSORG
 10
0.0
 20
0.0
 30
0.0
  9
$PUCSXDIR
 10
1.0
 20
0.0
 30
0.0
  9
$PUCSYDIR
 10
0.0
 20
1.0
 30
0.0
  9
$USERI1
 70
         0
  9
$USERI2
 70
         0
  9
$USERI3
 70
         0
  9
$USERI4
 70
         0
  9
$USERI5
 70
         0
  9
$USERR1
 40
0.0
  9
$USERR2
 40
0.0
  9
$USERR3
 40
0.0
  9
$USERR4
 40
0.0
  9
$USERR5
 40
0.0
  9
$WORLDVIEW
 70
         1
  9
$SHADEDGE
 70
         3
  9
$SHADEDIF
 70
        70
  9
$TILEMODE
 70
         1
  9
$MAXACTVP
 70
        16
  9
$PINSBASE
 10
0.0
 20
0.0
 30
0.0
  9
$PLIMCHECK
 70
         0
  9
$PEXTMIN
 10
1.0000000000E+20
 20
1.0000000000E+20
 30
1.0000000000E+20
  9
$PEXTMAX
 10
-1.0000000000E+20
 20
-1.0000000000E+20
 30
-1.0000000000E+20
  9
$PLIMMIN
 10
0.0
 20
0.0
  9
$PLIMMAX
 10
12.0
 20
9.0
  9
$UNITMODE
 70
         0
  9
$VISRETAIN
 70
         0
  9
$PLINEGEN
 70
         1
  9
$PSLTSCALE
 70
         0
  9
$TREEDEPTH
 70
      3020
  9
$PICKSTYLE
 70
         1
  9
$CMLSTYLE
  2
Standard
  9
$CMLJUST
 70
         0
  9
$CMLSCALE
 40
1.0
  9
$PROXYGRAPHICS
 70
         0
  9
$MEASUREMENT
 70
         1
  0
ENDSEC
  0
SECTION
  2
CLASSES
  0
CLASS
  1
LWPOLYLINE
  2
AcDbPolyline
  3
"AutoCAD"
 90
        0
280
         0
281
         1
  0
CLASS
  1
IMAGE
  2
AcDbRasterImage
  3
ISM
 90
      127
280
         0
281
         1
  0
CLASS
  1
OLE2FRAME
  2
AcDbOle2Frame
  3
""
 90
        0
280
         0
281
         1
  0
CLASS
  1
HATCH
  2
AcDbHatch
  3
"ACAD_SEDONA"
 90
        0
280
         0
281
         1
  0
CLASS
  1
DICTIONARYVAR
  2
AcDbDictionaryVar
  3
"AutoCAD"
 90
        0
280
         0
281
         0
  0
CLASS
  1
RASTERVARIABLES
  2
AcDbRasterVariables
  3
ISM
 90
        0
280
         0
281
         0
  0
CLASS
  1
IMAGEDEF
  2
AcDbRasterImageDef
  3
ISM
 90
        0
280
         0
281
         0
  0
CLASS
  1
IMAGEDEF_REACTOR
  2
AcDbRasterImageDefReactor
  3
ISM
 90
        1
280
         0
281
         0
  0
CLASS
  1
IDBUFFER
  2
AcDbIdBuffer
  3
"Acad"
 90
        0
280
         0
281
         0
  0
CLASS
  1
SPATIAL_FILTER
  2
AcDbSpatialFilter
  3
"Acad"
 90
        0
280
         0
281
         0
  0
CLASS
  1
XRECORD
  2
AcDbXrecord
  3
"<Built In>"
 90
        0
280
         0
281
         0
  0
CLASS
  1
SORTENTSTABLE
  2
AcDbSortentsTable
  3
"AutoCAD"
 90
        0
280
         0
281
         0
  0
CLASS
  1
LAYER_INDEX
  2
AcDbLayerIndex
  3
"Acad"
 90
        0
280
         0
281
         0
  0
CLASS
  1
SPATIAL_INDEX
  2
AcDbSpatialIndex
  3
"Acad"
 90
        0
280
         0
281
         0
  0
CLASS
  1
OBJECT_PTR
  2
CAseDLPNTableRecord
  3
"ASE-LPNTableRecord"
 90
        1
280
         0
281
         0
  0
CLASS
  1
LAYOUT
  2
AcDbLayout
  3
"AutoCAD 2000"
 90
        0
280
         0
281
         0
  0
CLASS
  1
PLOTSETTINGS
  2
AcDbPlotSettings
  3
"AutoCAD 2000"
 90
        0
280
         0
281
         0
  0
CLASS
  1
ACDBDICTIONARYWDFLT
  2
AcDbDictionaryWithDefault
  3
"AutoCAD 2000"
 90
        0
280
         0
281
         0
  0
CLASS
  1
ACDBPLACEHOLDER
  2
AcDbPlaceHolder
  3
"AutoCAD 2000"
 90
        0
280
         0
281
         0
  0
ENDSEC
  0
SECTION
  2
TABLES
  0
TABLE
  2
VPORT
  5
7
100
AcDbSymbolTable
 70
         1
  0
VPORT
  5
15
100
AcDbSymbolTableRecord
100
AcDbViewportTableRecord
  2
*ACTIVE
 70
         0
 10
0.0
 20
0.0
 11
1.0
 21
1.0
 12
-24.5589685175
 22
18.2746986123
 13
0.0
 23
0.0
 14
1.0
 24
1.0
 15
0.0
 25
0.0
 16
0.0
 26
0.0
 36
1.0
 17
0.0
 27
0.0
 37
0.0
 40
209.7790054591
 41
1.7320508076
 42
50.0
 43
0.0
 44
0.0
 50
0.0
 51
0.0
 71
         0
 72
       100
 73
         1
 74
         1
 75
         0
 76
         0
 77
         0
 78
         0
  0
ENDTAB
  0
TABLE
  2
LTYPE
  5
4
100
AcDbSymbolTable
 70
         5
  0
LTYPE
  5
11
100
AcDbSymbolTableRecord
100
AcDbLinetypeTableRecord
  2
BYBLOCK
 70
        64
  3

 72
        65
 73
         0
 40
0.0
  0
LTYPE
  5
12
100
AcDbSymbolTableRecord
100
AcDbLinetypeTableRecord
  2
BYLAYER
 70
        64
  3

 72
        65
 73
         0
 40
0.0
  0
LTYPE
  5
13
100
AcDbSymbolTableRecord
100
AcDbLinetypeTableRecord
  2
CONTINUOUS
 70
        64
  3
Solid line
 72
        65
 73
         0
 40
0.0
  0
LTYPE
  5
29
100
AcDbSymbolTableRecord
100
AcDbLinetypeTableRecord
  2
CENTER
 70
        64
  3
Center ____ _ ____ _ ____ _ ____ _ ____ _ ____
 72
        65
 73
         4
 40
50.8
 49
31.75
 74
         0
 49
-6.35
 74
         0
 49
6.35
 74
         0
 49
-6.35
 74
         0
  0
LTYPE
  5
84
100
AcDbSymbolTableRecord
100
AcDbLinetypeTableRecord
  2
DASHED
 70
        64
  3
Dashed __ __ __ __ __ __ __ __ __ __ __ __ __ _
 72
        65
 73
         2
 40
19.05
 49
12.7
 74
         0
 49
-6.35
 74
         0
  0
ENDTAB
  0
TABLE
  2
LAYER
  5
2
100
AcDbSymbolTable
 70
         3
  0
LAYER
  5
14
100
AcDbSymbolTableRecord
100
AcDbLayerTableRecord
  2
0
 70
         0
 62
         7
  6
CONTINUOUS
  0
LAYER
  5
1D
100
AcDbSymbolTableRecord
100
AcDbLayerTableRecord
  2
DEFPOINTS
 70
         0
 62
         7
  6
CONTINUOUS
  0
LAYER
  5
1E
100
AcDbSymbolTableRecord
100
AcDbLayerTableRecord
  2
LY_3
 70
         0
 62
         7
  6
CONTINUOUS
  0
ENDTAB
  0
TABLE
  2
STYLE
  5
3
100
AcDbSymbolTable
 70
         1
  0
STYLE
  5
17
100
AcDbSymbolTableRecord
100
AcDbTextStyleTableRecord
  2
MX_NOTE_STANDARD
 70
         0
 40
0.0
 41
1.0
 50
0.0
 71
         0
 42
3.2000000477
  3
txt.shx
  4
extfont.shx
  0
ENDTAB
  0
TABLE
  2
VIEW
  5
5
100
AcDbSymbolTable
 70
         0
  0
ENDTAB
  0
TABLE
  2
UCS
  5
6
100
AcDbSymbolTable
 70
         0
  0
ENDTAB
  0
TABLE
  2
APPID
  5
8
100
AcDbSymbolTable
 70
         1
  0
APPID
  5
16
100
AcDbSymbolTableRecord
100
AcDbRegAppTableRecord
  2
ACAD
 70
         0
  0
ENDTAB
  0
TABLE
  2
DIMSTYLE
  5
9
100
AcDbSymbolTable
 70
         1
  0
DIMSTYLE
105
18
100
AcDbSymbolTableRecord
100
AcDbDimStyleTableRecord
  2
MXDIMSTYLE
 70
         0
  3

  4

  5

  6
_OPEN30
  7
_OPEN30
 40
1.0
 41
2.5
 42
0.0
 43
3.75
 44
2.5
 45
0.0
 46
0.0
 47
0.0
 48
0.0
 71
         0
 72
         0
 73
         0
 74
         0
 75
         0
 76
         0
 77
         1
 78
         8
140
3.2000000477
141
2.5
142
0.0
143
0.0393700787
144
1.0
145
0.0
146
1.0
147
1.0
170
         0
171
         4
172
         1
173
         1
174
         0
175
         0
176
         0
177
         0
178
         0
270
         2
271
         2
272
         2
273
         2
274
         4
275
         0
280
         0
281
         0
282
         0
283
         0
284
         0
285
         0
286
         0
287
         3
288
         0
340
17
  0
ENDTAB
  0
TABLE
  2
BLOCK_RECORD
  5
1
100
AcDbSymbolTable
 70
         1
  0
BLOCK_RECORD
  5
A
100
AcDbSymbolTableRecord
100
AcDbBlockTableRecord
  2
*MODEL_SPACE
  0
BLOCK_RECORD
  5
B
100
AcDbSymbolTableRecord
100
AcDbBlockTableRecord
  2
*PAPER_SPACE
  0
BLOCK_RECORD
  5
1F
100
AcDbSymbolTableRecord
100
AcDbBlockTableRecord
  2
_OPEN30
  0
ENDTAB
  0
ENDSEC
  0
SECTION
  2
BLOCKS
  0
BLOCK
  5
D
100
AcDbEntity
  8
0
100
AcDbBlockBegin
  2
*MODEL_SPACE
 70
         0
 10
0.0
 20
0.0
 30
0.0
  3
*MODEL_SPACE
  1

  0
ENDBLK
  5
E
100
AcDbEntity
  8
0
100
AcDbBlockEnd
  0
BLOCK
  5
F
100
AcDbEntity
 67
         1
  8
0
100
AcDbBlockBegin
  2
*PAPER_SPACE
 70
         0
 10
0.0
 20
0.0
 30
0.0
  3
*PAPER_SPACE
  1

  0
ENDBLK
  5
10
100
AcDbEntity
 67
         1
  8
0
100
AcDbBlockEnd
  0
BLOCK
  5
20
100
AcDbEntity
  8
0
  6
ByBlock
 62
         0
100
AcDbBlockBegin
  2
_OPEN30
 70
         2
 10
0.0
 20
0.0
 30
0.0
  3
_OPEN30
  1

  0
LINE
  5
21
100
AcDbEntity
  8
0
  6
ByBlock
 62
         0
100
AcDbLine
 10
-1.0
 20
0.267949
 30
0.0
 11
0.0
 21
0.0
 31
0.0
  0
LINE
  5
22
100
AcDbEntity
  8
0
  6
ByBlock
 62
         0
100
AcDbLine
 10
0.0
 20
0.0
 30
0.0
 11
-1.0
 21
-0.267949
 31
0.0
  0
LINE
  5
23
100
AcDbEntity
  8
0
  6
ByBlock
 62
         0
100
AcDbLine
 10
0.0
 20
0.0
 30
0.0
 11
-1.0
 21
0.0
 31
0.0
  0
ENDBLK
  5
24
100
AcDbEntity
  8
0
  6
ByBlock
 62
         0
100
AcDbBlockEnd
  0
ENDSEC
  0
SECTION
  2
ENTITIES
  0
MTEXT
  5
25
100
AcDbEntity
  8
0
  6
CONTINUOUS
 62
       110
100
AcDbMText
 10
-147.4464030812
 20
117.7423582077
 30
0.0
 40
13.1499996185
 41
0.0
 71
         1
 72
         1
  1
\W1.050;\A1;TSUBAKI
  0
POINT
  5
26
100
AcDbEntity
  8
LY_3
  6
CONTINUOUS
 62
       172
100
AcDbPoint
 10
-80.3297271729
 20
-30.2763053894
 30
0.0
  0
POINT
  5
27
100
AcDbEntity
  8
LY_3
  6
CONTINUOUS
 62
       172
100
AcDbPoint
 10
-45.3297271729
 20
-30.2763053894
 30
0.0
  0
POINT
  5
28
100
AcDbEntity
  8
LY_3
  6
CONTINUOUS
 62
       172
100
AcDbPoint
 10
45.3297271729
 20
-30.2763053894
 30
0.0
  0
LINE
  5
2A
100
AcDbEntity
  8
LY_3
  6
CENTER
 62
        80
100
AcDbLine
 10
45.3297271729
 20
25.0236834104
 30
0.0
 11
45.3297271729
 21
10.4237058108
 31
0.0
  0
LINE
  5
2B
100
AcDbEntity
  8
LY_3
  6
CENTER
 62
        80
100
AcDbLine
 10
-9.9893537714
 20
-30.2763053894
 30
0.0
 11
4.4943596738
 21
-30.2763053894
 31
0.0
  0
LINE
  5
2C
100
AcDbEntity
  8
LY_3
  6
CONTINUOUS
 62
         3
100
AcDbLine
 10
-80.3297271729
 20
-2.9483177185
 30
0.0
 11
-77.3297271729
 21
-2.9483177185
 31
0.0
  0
LINE
  5
2D
100
AcDbEntity
  8
LY_3
  6
CONTINUOUS
 62
         3
100
AcDbLine
 10
-80.3297271729
 20
9.7236946106
 30
0.0
 11
-45.3297271729
 21
9.7236946106
 31
0.0
  0
LINE
  5
2E
100
AcDbEntity
  8
LY_3
  6
CONTINUOUS
 62
         3
100
AcDbLine
 10
-80.3297271729
 20
24.7236946106
 30
0.0
 11
-45.3297271729
 21
24.7236946106
 31
0.0
  0
LINE
  5
2F
100
AcDbEntity
  8
LY_3
  6
CONTINUOUS
 62
         3
100
AcDbLine
 10
-77.3297271729
 20
-4.2763053894
 30
0.0
 11
-75.3297271729
 21
-4.2763053894
 31
0.0
  0
LINE
  5
30
100
AcDbEntity
  8
LY_3
  6
CONTINUOUS
 62
         3
100
AcDbLine
 10
-50.3297271729
 20
-4.2763053894
 30
0.0
 11
-48.3297271729
 21
-4.2763053894
 31
0.0
  0
LINE
  5
31
100
AcDbEntity
  8
LY_3
  6
CONTINUOUS
 62
         3
100
AcDbLine
 10
-48.3297271729
 20
2.7236946106
 30
0.0
 11
-48.3297271729
 21
-4.2763053894
 31
0.0
  0
LINE
  5
32
100
AcDbEntity
  8
LY_3
  6
CONTINUOUS
 62
         3
100
AcDbLine
 10
-77.3297271729
 20
2.7236946106
 30
0.0
 11
-77.3297271729
 21
-4.2763053894
 31
0.0
  0
LINE
  5
33
100
AcDbEntity
  8
LY_3
  6
CONTINUOUS
 62
         3
100
AcDbLine
 10
-75.3297271729
 20
-2.9483177185
 30
0.0
 11
-50.3297271729
 21
-2.9483177185
 31
0.0
  0
LINE
  5
34
100
AcDbEntity
  8
LY_3
  6
CONTINUOUS
 62
         3
100
AcDbLine
 10
-48.3297271729
 20
-2.9483177185
 30
0.0
 11
-45.3297271729
 21
-2.9483177185
 31
0.0
  0
LINE
  5
35
100
AcDbEntity
  8
LY_3
  6
CONTINUOUS
 62
         3
100
AcDbLine
 10
-77.3297271729
 20
2.7236946106
 30
0.0
 11
-75.3297271729
 21
2.7236946106
 31
0.0
  0
LINE
  5
36
100
AcDbEntity
  8
LY_3
  6
CONTINUOUS
 62
         3
100
AcDbLine
 10
-50.3297271729
 20
2.7236946106
 30
0.0
 11
-48.3297271729
 21
2.7236946106
 31
0.0
  0
LINE
  5
37
100
AcDbEntity
  8
LY_3
  6
CONTINUOUS
 62
         3
100
AcDbLine
 10
-45.3297271729
 20
24.7236946106
 30
0.0
 11
-45.3297271729
 21
2.7236946106
 31
0.0
  0
LINE
  5
38
100
AcDbEntity
  8
LY_3
  6
CONTINUOUS
 62
         3
100
AcDbLine
 10
-80.3297271729
 20
24.7236946106
 30
0.0
 11
-80.3297271729
 21
2.7236946106
 31
0.0
  0
LINE
  5
39
100
AcDbEntity
  8
LY_3
  6
CONTINUOUS
 62
         3
100
AcDbLine
 10
-80.3297271729
 20
-2.9483177185
 30
0.0
 11
-80.3297271729
 21
-57.6043045044
 31
0.0
  0
LINE
  5
3A
100
AcDbEntity
  8
LY_3
  6
CONTINUOUS
 62
         3
100
AcDbLine
 10
-45.3297271729
 20
-2.9483177185
 30
0.0
 11
-45.3297271729
 21
-57.6043045044
 31
0.0
  0
LINE
  5
3B
100
AcDbEntity
  8
LY_3
  6
CONTINUOUS
 62
         3
100
AcDbLine
 10
-80.3297271729
 20
-12.7763053894
 30
0.0
 11
-45.3297271729
 21
-12.7763053894
 31
0.0
  0
LINE
  5
3C
100
AcDbEntity
  8
LY_3
  6
CONTINUOUS
 62
         3
100
AcDbLine
 10
-80.3297271729
 20
14.4236915588
 30
0.0
 11
-45.3297271729
 21
14.4236915588
 31
0.0
  0
LINE
  5
3D
100
AcDbEntity
  8
LY_3
  6
CONTINUOUS
 62
         3
100
AcDbLine
 10
-80.3297271729
 20
21.0236976624
 30
0.0
 11
-45.3297271729
 21
21.0236976624
 31
0.0
  0
LINE
  5
3E
100
AcDbEntity
  8
LY_3
  6
CONTINUOUS
 62
         3
100
AcDbLine
 10
-80.3297271729
 20
-57.6043045044
 30
0.0
 11
-77.3297271729
 21
-57.6043045044
 31
0.0
  0
LINE
  5
3F
100
AcDbEntity
  8
LY_3
  6
CONTINUOUS
 62
         3
100
AcDbLine
 10
-80.3297271729
 20
-70.2763053894
 30
0.0
 11
-45.3297271729
 21
-70.2763053894
 31
0.0
  0
LINE
  5
40
100
AcDbEntity
  8
LY_3
  6
CONTINUOUS
 62
         3
100
AcDbLine
 10
-80.3297271729
 20
-85.2763053894
 30
0.0
 11
-45.3297271729
 21
-85.2763053894
 31
0.0
  0
LINE
  5
41
100
AcDbEntity
  8
LY_3
  6
CONTINUOUS
 62
         3
100
AcDbLine
 10
-77.3297271729
 20
-56.2763053894
 30
0.0
 11
-75.3297271729
 21
-56.2763053894
 31
0.0
  0
LINE
  5
42
100
AcDbEntity
  8
LY_3
  6
CONTINUOUS
 62
         3
100
AcDbLine
 10
-50.3297271729
 20
-56.2763053894
 30
0.0
 11
-48.3297271729
 21
-56.2763053894
 31
0.0
  0
LINE
  5
43
100
AcDbEntity
  8
LY_3
  6
CONTINUOUS
 62
         3
100
AcDbLine
 10
-48.3297271729
 20
-63.2763053894
 30
0.0
 11
-48.3297271729
 21
-56.2763053894
 31
0.0
  0
LINE
  5
44
100
AcDbEntity
  8
LY_3
  6
CONTINUOUS
 62
         3
100
AcDbLine
 10
-77.3297271729
 20
-63.2763053894
 30
0.0
 11
-77.3297271729
 21
-56.2763053894
 31
0.0
  0
LINE
  5
45
100
AcDbEntity
  8
LY_3
  6
CONTINUOUS
 62
         3
100
AcDbLine
 10
-75.3297271729
 20
-57.6043045044
 30
0.0
 11
-50.3297271729
 21
-57.6043045044
 31
0.0
  0
LINE
  5
46
100
AcDbEntity
  8
LY_3
  6
CONTINUOUS
 62
         3
100
AcDbLine
 10
-48.3297271729
 20
-57.6043045044
 30
0.0
 11
-45.3297271729
 21
-57.6043045044
 31
0.0
  0
LINE
  5
47
100
AcDbEntity
  8
LY_3
  6
CONTINUOUS
 62
         3
100
AcDbLine
 10
-77.3297271729
 20
-63.2763053894
 30
0.0
 11
-75.3297271729
 21
-63.2763053894
 31
0.0
  0
LINE
  5
48
100
AcDbEntity
  8
LY_3
  6
CONTINUOUS
 62
         3
100
AcDbLine
 10
-50.3297271729
 20
-63.2763053894
 30
0.0
 11
-48.3297271729
 21
-63.2763053894
 31
0.0
  0
LINE
  5
49
100
AcDbEntity
  8
LY_3
  6
CONTINUOUS
 62
         3
100
AcDbLine
 10
-45.3297271729
 20
-85.2763053894
 30
0.0
 11
-45.3297271729
 21
-63.2763053894
 31
0.0
  0
LINE
  5
4A
100
AcDbEntity
  8
LY_3
  6
CONTINUOUS
 62
         3
100
AcDbLine
 10
-80.3297271729
 20
-85.2763053894
 30
0.0
 11
-80.3297271729
 21
-63.2763053894
 31
0.0
  0
LINE
  5
4B
100
AcDbEntity
  8
LY_3
  6
CONTINUOUS
 62
         3
100
AcDbLine
 10
-74.3297271729
 20
-81.5762931824
 30
0.0
 11
-45.3297271729
 21
-81.5762931824
 31
0.0
  0
LINE
  5
4C
100
AcDbEntity
  8
LY_3
  6
CONTINUOUS
 62
         3
100
AcDbLine
 10
-74.3297271729
 20
-74.9763061523
 30
0.0
 11
-45.3297271729
 21
-74.9763061523
 31
0.0
  0
LINE
  5
4D
100
AcDbEntity
  8
LY_3
  6
CONTINUOUS
 62
         3
100
AcDbLine
 10
-80.3297271729
 20
-47.7763053894
 30
0.0
 11
-45.3297271729
 21
-47.7763053894
 31
0.0
  0
LINE
  5
4E
100
AcDbEntity
  8
LY_3
  6
CONTINUOUS
 62
         3
100
AcDbLine
 10
-80.3297271729
 20
-9.4763175964
 30
0.0
 11
-45.3297271729
 21
-9.4763175964
 31
0.0
  0
LINE
  5
4F
100
AcDbEntity
  8
LY_3
  6
CONTINUOUS
 62
         3
100
AcDbLine
 10
40.3297271729
 20
-9.4763175964
 30
0.0
 11
50.3297271729
 21
-9.4763175964
 31
0.0
  0
LINE
  5
50
100
AcDbEntity
  8
LY_3
  6
CONTINUOUS
 62
         3
100
AcDbLine
 10
40.3297271729
 20
-9.4763175964
 30
0.0
 11
40.3297271729
 21
-13.5057975769
 31
0.0
  0
LINE
  5
51
100
AcDbEntity
  8
LY_3
  6
CONTINUOUS
 62
         3
100
AcDbLine
 10
50.3297271729
 20
-9.4763175964
 30
0.0
 11
50.3297271729
 21
-13.5057975769
 31
0.0
  0
LINE
  5
52
100
AcDbEntity
  8
LY_3
  6
CENTER
 62
        80
100
AcDbLine
 10
74.1089616511
 20
-1.4970507711
 30
0.0
 11
84.4327141827
 21
8.8267017605
 31
0.0
  0
LINE
  5
53
100
AcDbEntity
  8
LY_3
  6
CENTER
 62
        80
100
AcDbLine
 10
74.1089724407
 20
-59.0555492334
 30
0.0
 11
84.4327249646
 21
-69.3793017573
 31
0.0
  0
LINE
  5
54
100
AcDbEntity
  8
LY_3
  6
CENTER
 62
        80
100
AcDbLine
 10
16.5504820706
 20
-1.4970588633
 30
0.0
 11
6.2267322364
 21
8.8266909709
 31
0.0
  0
LINE
  5
55
100
AcDbEntity
  8
LY_3
  6
CENTER
 62
        80
100
AcDbLine
 10
16.5504631888
 20
-59.0555492334
 30
0.0
 11
6.2267120059
 21
-69.3793004163
 31
0.0
  0
LINE
  5
56
100
AcDbEntity
  8
LY_3
  6
CONTINUOUS
 62
        80
100
AcDbLine
 10
-80.3297271729
 20
-75.2763053894
 30
0.0
 11
-74.3297271729
 21
-75.2763053894
 31
0.0
  0
LINE
  5
57
100
AcDbEntity
  8
LY_3
  6
CONTINUOUS
 62
        80
100
AcDbLine
 10
-80.3297271729
 20
-81.2763053894
 30
0.0
 11
-74.3297271729
 21
-81.2763053894
 31
0.0
  0
LINE
  5
58
100
AcDbEntity
  8
LY_3
  6
CONTINUOUS
 62
         3
100
AcDbLine
 10
-80.3297271729
 20
-75.7263051987
 30
0.0
 11
-74.3297271729
 21
-75.7263051987
 31
0.0
  0
LINE
  5
59
100
AcDbEntity
  8
LY_3
  6
CONTINUOUS
 62
         3
100
AcDbLine
 10
-80.3297271729
 20
-80.8262931824
 30
0.0
 11
-74.3297271729
 21
-80.8262931824
 31
0.0
  0
LINE
  5
5A
100
AcDbEntity
  8
LY_3
  6
CONTINUOUS
 62
         3
100
AcDbLine
 10
-70.5297241211
 20
9.7236946106
 30
0.0
 11
-70.5297241211
 21
-2.9483177185
 31
0.0
  0
LINE
  5
5B
100
AcDbEntity
  8
LY_3
  6
CONTINUOUS
 62
         3
100
AcDbLine
 10
-75.3297271729
 20
1.0676887512
 30
0.0
 11
-71.8297271729
 21
1.0676887512
 31
0.0
  0
LINE
  5
5C
100
AcDbEntity
  8
LY_3
  6
CONTINUOUS
 62
         3
100
AcDbLine
 10
-71.8297271729
 20
8.6676948547
 30
0.0
 11
-71.8297271729
 21
-2.9483177185
 31
0.0
  0
LINE
  5
5D
100
AcDbEntity
  8
LY_3
  6
CONTINUOUS
 62
         3
100
AcDbLine
 10
-75.3297271729
 20
8.6676948547
 30
0.0
 11
-75.3297271729
 21
-4.2763053894
 31
0.0
  0
LINE
  5
5E
100
AcDbEntity
  8
LY_3
  6
CONTINUOUS
 62
         3
100
AcDbLine
 10
-75.3297271729
 20
6.6676948547
 30
0.0
 11
-71.8297271729
 21
6.6676948547
 31
0.0
  0
LINE
  5
5F
100
AcDbEntity
  8
LY_3
  6
CONTINUOUS
 62
         3
100
AcDbLine
 10
-75.3297271729
 20
8.6676948547
 30
0.0
 11
-71.8297271729
 21
8.6676948547
 31
0.0
  0
LINE
  5
60
100
AcDbEntity
  8
LY_3
  6
CONTINUOUS
 62
         3
100
AcDbLine
 10
-70.7297363281
 20
7.0086372375
 30
0.0
 11
-54.9297180176
 21
7.0086372375
 31
0.0
  0
LINE
  5
61
100
AcDbEntity
  8
LY_3
  6
CONTINUOUS
 62
         3
100
AcDbLine
 10
-70.5297241211
 20
5.8879707336
 30
0.0
 11
-55.1297149658
 21
5.8879707336
 31
0.0
  0
LINE
  5
62
100
AcDbEntity
  8
LY_3
  6
CONTINUOUS
 62
         3
100
AcDbLine
 10
-55.1297149658
 20
9.7236946106
 30
0.0
 11
-55.1297149658
 21
-2.9483177185
 31
0.0
  0
LINE
  5
63
100
AcDbEntity
  8
LY_3
  6
CONTINUOUS
 62
         3
100
AcDbLine
 10
-53.8297119141
 20
8.6676948547
 30
0.0
 11
-50.3297271729
 21
8.6676948547
 31
0.0
  0
LINE
  5
64
100
AcDbEntity
  8
LY_3
  6
CONTINUOUS
 62
         3
100
AcDbLine
 10
-53.8297119141
 20
8.6676948547
 30
0.0
 11
-53.8297119141
 21
-2.9483177185
 31
0.0
  0
LINE
  5
65
100
AcDbEntity
  8
LY_3
  6
CONTINUOUS
 62
         3
100
AcDbLine
 10
-50.3297271729
 20
8.6676948547
 30
0.0
 11
-50.3297271729
 21
-4.2763053894
 31
0.0
  0
LINE
  5
66
100
AcDbEntity
  8
LY_3
  6
CONTINUOUS
 62
         3
100
AcDbLine
 10
-53.8297119141
 20
6.6676948547
 30
0.0
 11
-50.3297271729
 21
6.6676948547
 31
0.0
  0
LINE
  5
67
100
AcDbEntity
  8
LY_3
  6
CONTINUOUS
 62
         3
100
AcDbLine
 10
-53.8297119141
 20
1.0676887512
 30
0.0
 11
-50.3297271729
 21
1.0676887512
 31
0.0
  0
LINE
  5
68
100
AcDbEntity
  8
LY_3
  6
CONTINUOUS
 62
         3
100
AcDbLine
 10
-75.1297302246
 20
6.6676948547
 30
0.0
 11
-75.1297302246
 21
1.0676887512
 31
0.0
  0
LINE
  5
69
100
AcDbEntity
  8
LY_3
  6
CONTINUOUS
 62
         3
100
AcDbLine
 10
-50.5297241211
 20
6.6676948547
 30
0.0
 11
-50.5297241211
 21
1.0676887512
 31
0.0
  0
LINE
  5
6A
100
AcDbEntity
  8
LY_3
  6
CONTINUOUS
 62
         3
100
AcDbLine
 10
-54.9297180176
 20
7.0086372375
 30
0.0
 11
-54.9297180176
 21
-1.0323020935
 31
0.0
  0
LINE
  5
6B
100
AcDbEntity
  8
LY_3
  6
CONTINUOUS
 62
         3
100
AcDbLine
 10
-53.8297119141
 20
-0.5323020935
 30
0.0
 11
-55.1297149658
 21
-0.5323020935
 31
0.0
  0
LINE
  5
6C
100
AcDbEntity
  8
LY_3
  6
CONTINUOUS
 62
         3
100
AcDbLine
 10
-53.8297119141
 20
8.2676856995
 30
0.0
 11
-55.1297149658
 21
8.2676856995
 31
0.0
  0
LINE
  5
6D
100
AcDbEntity
  8
LY_3
  6
CONTINUOUS
 62
         3
100
AcDbLine
 10
-70.7297363281
 20
7.0086372375
 30
0.0
 11
-70.7297363281
 21
-1.0323020935
 31
0.0
  0
LINE
  5
6E
100
AcDbEntity
  8
LY_3
  6
CONTINUOUS
 62
         3
100
AcDbLine
 10
-71.8297271729
 20
-0.5323020935
 30
0.0
 11
-70.5297241211
 21
-0.5323020935
 31
0.0
  0
LINE
  5
6F
100
AcDbEntity
  8
LY_3
  6
CONTINUOUS
 62
         3
100
AcDbLine
 10
-71.8297271729
 20
8.2676856995
 30
0.0
 11
-70.5297241211
 21
8.2676856995
 31
0.0
  0
LINE
  5
70
100
AcDbEntity
  8
LY_3
  6
CONTINUOUS
 62
         3
100
AcDbLine
 10
-55.1297149658
 20
-58.0106460571
 30
0.0
 11
-70.5297241211
 21
-58.0106460571
 31
0.0
  0
LINE
  5
71
100
AcDbEntity
  8
LY_3
  6
CONTINUOUS
 62
         3
100
AcDbLine
 10
-55.1297149658
 20
-68.6696655273
 30
0.0
 11
-70.5297241211
 21
-68.6696655273
 31
0.0
  0
LINE
  5
72
100
AcDbEntity
  8
LY_3
  6
CONTINUOUS
 62
         3
100
AcDbLine
 10
-53.8297271729
 20
-69.2203018188
 30
0.0
 11
-53.8297271729
 21
-57.6043045044
 31
0.0
  0
LINE
  5
73
100
AcDbEntity
  8
LY_3
  6
CONTINUOUS
 62
         3
100
AcDbLine
 10
-50.3297271729
 20
-69.2203018188
 30
0.0
 11
-50.3297271729
 21
-56.2763053894
 31
0.0
  0
LINE
  5
74
100
AcDbEntity
  8
LY_3
  6
CONTINUOUS
 62
         3
100
AcDbLine
 10
-50.3297271729
 20
-69.2203018188
 30
0.0
 11
-53.8297271729
 21
-69.2203018188
 31
0.0
  0
LINE
  5
75
100
AcDbEntity
  8
LY_3
  6
CONTINUOUS
 62
         3
100
AcDbLine
 10
-50.3297271729
 20
-67.2203018188
 30
0.0
 11
-53.8297271729
 21
-67.2203018188
 31
0.0
  0
LINE
  5
76
100
AcDbEntity
  8
LY_3
  6
CONTINUOUS
 62
         3
100
AcDbLine
 10
-50.3297271729
 20
-61.6203109741
 30
0.0
 11
-53.8297271729
 21
-61.6203109741
 31
0.0
  0
LINE
  5
77
100
AcDbEntity
  8
LY_3
  6
CONTINUOUS
 62
         3
100
AcDbLine
 10
-71.8297271729
 20
-61.6203109741
 30
0.0
 11
-75.3297271729
 21
-61.6203109741
 31
0.0
  0
LINE
  5
78
100
AcDbEntity
  8
LY_3
  6
CONTINUOUS
 62
         3
100
AcDbLine
 10
-71.8297271729
 20
-69.2203018188
 30
0.0
 11
-71.8297271729
 21
-57.6043045044
 31
0.0
  0
LINE
  5
79
100
AcDbEntity
  8
LY_3
  6
CONTINUOUS
 62
         3
100
AcDbLine
 10
-71.8297271729
 20
-69.2203018188
 30
0.0
 11
-75.3297271729
 21
-69.2203018188
 31
0.0
  0
LINE
  5
7A
100
AcDbEntity
  8
LY_3
  6
CONTINUOUS
 62
         3
100
AcDbLine
 10
-71.8297271729
 20
-67.2203018188
 30
0.0
 11
-75.3297271729
 21
-67.2203018188
 31
0.0
  0
LINE
  5
7B
100
AcDbEntity
  8
LY_3
  6
CONTINUOUS
 62
         3
100
AcDbLine
 10
-75.3297271729
 20
-69.2203018188
 30
0.0
 11
-75.3297271729
 21
-56.2763053894
 31
0.0
  0
LINE
  5
7C
100
AcDbEntity
  8
LY_3
  6
CONTINUOUS
 62
         3
100
AcDbLine
 10
-70.5297241211
 20
-57.6043045044
 30
0.0
 11
-70.5297241211
 21
-70.2763015747
 31
0.0
  0
LINE
  5
7D
100
AcDbEntity
  8
LY_3
  6
CONTINUOUS
 62
         3
100
AcDbLine
 10
-55.1297149658
 20
-57.6043045044
 30
0.0
 11
-55.1297149658
 21
-70.2763015747
 31
0.0
  0
LINE
  5
7E
100
AcDbEntity
  8
LY_3
  6
CONTINUOUS
 62
         3
100
AcDbLine
 10
-71.8297271729
 20
-60.0203003407
 30
0.0
 11
-70.5297241211
 21
-60.0203003407
 31
0.0
  0
LINE
  5
7F
100
AcDbEntity
  8
LY_3
  6
CONTINUOUS
 62
         3
100
AcDbLine
 10
-71.8297271729
 20
-68.8202974319
 30
0.0
 11
-70.5297241211
 21
-68.8202974319
 31
0.0
  0
LINE
  5
80
100
AcDbEntity
  8
LY_3
  6
CONTINUOUS
 62
         3
100
AcDbLine
 10
-53.8297119141
 20
-68.8202974319
 30
0.0
 11
-55.1297149658
 21
-68.8202974319
 31
0.0
  0
LINE
  5
81
100
AcDbEntity
  8
LY_3
  6
CONTINUOUS
 62
         3
100
AcDbLine
 10
-53.8297119141
 20
-60.0203003407
 30
0.0
 11
-55.1297149658
 21
-60.0203003407
 31
0.0
  0
LINE
  5
82
100
AcDbEntity
  8
LY_3
  6
CONTINUOUS
 62
         3
100
AcDbLine
 10
-74.3297271729
 20
-81.5762931824
 30
0.0
 11
-74.3297271729
 21
-74.9763061523
 31
0.0
  0
LINE
  5
83
100
AcDbEntity
  8
LY_3
  6
CENTER
 62
        80
100
AcDbLine
 10
67.5409864803
 20
23.3463859427
 30
0.0
 11
59.6397617409
 21
4.2711408063
 31
0.0
  0
LINE
  5
85
100
AcDbEntity
  8
LY_3
  6
DASHED
 62
        80
100
AcDbLine
 10
69.4988089076
 20
17.6205158816
 30
0.0
 11
65.6719745839
 21
8.3817205565
 31
0.0
  0
LINE
  5
86
100
AcDbEntity
  8
LY_3
  6
DASHED
 62
        80
100
AcDbLine
 10
59.8886248721
 20
15.3233130963
 30
0.0
 11
60.5380468785
 21
13.7554696807
 31
0.0
  0
LINE
  5
87
100
AcDbEntity
  8
LY_3
  6
DASHED
 62
        80
100
AcDbLine
 10
58.2809383238
 20
11.4431880154
 30
0.0
 11
65.6719745839
 21
8.3817205565
 31
0.0
  0
LINE
  5
88
100
AcDbEntity
  8
LY_3
  6
DASHED
 62
        80
100
AcDbLine
 10
59.8883628851
 20
15.3227377439
 30
0.0
 11
67.2790044213
 21
12.261433785
 31
0.0
  0
LINE
  5
89
100
AcDbEntity
  8
LY_3
  6
DASHED
 62
        80
100
AcDbLine
 10
60.5377766171
 20
13.7548579154
 30
0.0
 11
65.7109328532
 21
11.6120664421
 31
0.0
  0
LINE
  5
8A
100
AcDbEntity
  8
LY_3
  6
DASHED
 62
        80
100
AcDbLine
 10
89.3608904776
 20
-45.4843548337
 30
0.0
 11
87.2180990044
 21
-50.6575110698
 31
0.0
  0
LINE
  5
8B
100
AcDbEntity
  8
LY_3
  6
DASHED
 62
        80
100
AcDbLine
 10
90.9287703062
 20
-44.8349411017
 30
0.0
 11
87.8674663473
 21
-52.2255826378
 31
0.0
  0
LINE
  5
8C
100
AcDbEntity
  8
LY_3
  6
DASHED
 62
        80
100
AcDbLine
 10
87.0492205777
 20
-43.2275165404
 30
0.0
 11
83.9877531188
 21
-50.6185528005
 31
0.0
  0
LINE
  5
8D
100
AcDbEntity
  8
LY_3
  6
CONTINUOUS
 62
         3
100
AcDbLine
 10
-78.3297271729
 20
9.7236946106
 30
0.0
 11
-78.3297271729
 21
2.7236946106
 31
0.0
  0
LINE
  5
8E
100
AcDbEntity
  8
LY_3
  6
CONTINUOUS
 62
         3
100
AcDbLine
 10
-47.3297271729
 20
9.7236946106
 30
0.0
 11
-47.3297271729
 21
2.7236946106
 31
0.0
  0
LINE
  5
8F
100
AcDbEntity
  8
LY_3
  6
CONTINUOUS
 62
         3
100
AcDbLine
 10
-78.3297271729
 20
-63.2763053894
 30
0.0
 11
-78.3297271729
 21
-70.2763053894
 31
0.0
  0
LINE
  5
90
100
AcDbEntity
  8
LY_3
  6
CONTINUOUS
 62
         3
100
AcDbLine
 10
-47.3297271729
 20
-63.2763053894
 30
0.0
 11
-47.3297271729
 21
-70.2763053894
 31
0.0
  0
LINE
  5
91
100
AcDbEntity
  8
LY_3
  6
DASHED
 62
        80
100
AcDbLine
 10
90.9293456586
 20
-44.8352030887
 30
0.0
 11
89.3615022429
 21
-45.4846250951
 31
0.0
  0
LINE
  5
92
100
AcDbEntity
  8
LY_3
  6
DASHED
 62
        80
100
AcDbLine
 10
93.2265484439
 20
-54.4453871241
 30
0.0
 11
83.9877531188
 21
-50.6185528005
 31
0.0
  0
LINE
  5
93
100
AcDbEntity
  8
LY_3
  6
DASHED
 62
        80
100
AcDbLine
 10
-0.2698913129
 20
-15.7174076902
 30
0.0
 11
1.2979521028
 21
-15.0679856837
 31
0.0
  0
LINE
  5
94
100
AcDbEntity
  8
LY_3
  6
DASHED
 62
        80
100
AcDbLine
 10
-2.5670940982
 20
-6.1072236547
 30
0.0
 11
6.6717012269
 21
-9.9340579783
 31
0.0
  0
LINE
  5
95
100
AcDbEntity
  8
LY_3
  6
DASHED
 62
        80
100
AcDbLine
 10
-6.0112449895
 20
-14.4221394473
 30
0.0
 11
-2.1844106658
 21
-5.1833441222
 31
0.0
  0
LINE
  5
96
100
AcDbEntity
  8
LY_3
  6
DASHED
 62
        80
100
AcDbLine
 10
-7.186656035
 20
-13.9352682509
 30
0.0
 11
-6.0112449895
 21
-14.4221394473
 31
0.0
  0
LINE
  5
97
100
AcDbEntity
  8
LY_3
  6
DASHED
 62
        80
100
AcDbLine
 10
-5.6285615571
 20
-13.4982599148
 30
0.0
 11
3.610233768
 21
-17.3250942384
 31
0.0
  0
LINE
  5
98
100
AcDbEntity
  8
LY_3
  6
DASHED
 62
        80
100
AcDbLine
 10
3.4408828463
 20
-9.8943057911
 30
0.0
 11
2.7914491613
 21
-8.3264341809
 31
0.0
  0
LINE
  5
99
100
AcDbEntity
  8
LY_3
  6
DASHED
 62
        80
100
AcDbLine
 10
-3.3598217163
 20
-4.6964729237
 30
0.0
 11
-2.1844106658
 21
-5.1833441222
 31
0.0
  0
LINE
  5
9A
100
AcDbEntity
  8
LY_3
  6
DASHED
 62
        80
100
AcDbLine
 10
-2.8349771723
 20
-6.7539506053
 30
0.0
 11
9.7633734073
 21
-11.9723582789
 31
0.0
  0
LINE
  5
9B
100
AcDbEntity
  8
LY_3
  6
DASHED
 62
        80
100
AcDbLine
 10
-5.3606901616
 20
-12.8515611588
 30
0.0
 11
7.2376627565
 21
-18.069969801
 31
0.0
  0
LINE
  5
9C
100
AcDbEntity
  8
LY_3
  6
DASHED
 62
        80
100
AcDbLine
 10
1.2985638681
 20
-15.0682559451
 30
0.0
 11
3.4413553413
 21
-9.895099709
 31
0.0
  0
LINE
  5
9D
100
AcDbEntity
  8
LY_3
  6
DASHED
 62
        80
100
AcDbLine
 10
-0.2693159605
 20
-15.7176696771
 30
0.0
 11
2.7919879985
 21
-8.327028141
 31
0.0
  0
LINE
  5
9E
100
AcDbEntity
  8
LY_3
  6
DASHED
 62
        80
100
AcDbLine
 10
27.9049829422
 20
-80.9667227238
 30
0.0
 11
33.1233915844
 21
-68.3683698058
 31
0.0
  0
LINE
  5
9F
100
AcDbEntity
  8
LY_3
  6
DASHED
 62
        80
100
AcDbLine
 10
21.8073723887
 20
-78.4410097345
 30
0.0
 11
27.0257800623
 21
-65.8426591549
 31
0.0
  0
LINE
  5
A0
100
AcDbEntity
  8
LY_3
  6
DASHED
 62
        80
100
AcDbLine
 10
19.7498947072
 20
-78.9658542785
 30
0.0
 11
20.2367659056
 21
-77.7904432281
 31
0.0
  0
LINE
  5
A1
100
AcDbEntity
  8
LY_3
  6
DASHED
 62
        80
100
AcDbLine
 10
24.9477275746
 20
-72.165149716
 30
0.0
 11
23.3798559643
 21
-72.814583401
 31
0.0
  0
LINE
  5
A2
100
AcDbEntity
  8
LY_3
  6
DASHED
 62
        80
100
AcDbLine
 10
28.5516816982
 20
-81.2345941193
 30
0.0
 11
32.3785160219
 21
-71.9957987942
 31
0.0
  0
LINE
  5
A3
100
AcDbEntity
  8
LY_3
  6
DASHED
 62
        80
100
AcDbLine
 10
28.9886900343
 20
-82.7926885973
 30
0.0
 11
29.4755612307
 21
-81.6172775517
 31
0.0
  0
LINE
  5
A4
100
AcDbEntity
  8
LY_3
  6
DASHED
 62
        80
100
AcDbLine
 10
29.4755612307
 20
-81.6172775517
 30
0.0
 11
20.2367659056
 21
-77.7904432281
 31
0.0
  0
LINE
  5
A5
100
AcDbEntity
  8
LY_3
  6
DASHED
 62
        80
100
AcDbLine
 10
21.1606454381
 20
-78.1731266604
 30
0.0
 11
24.9874797618
 21
-68.9343313353
 31
0.0
  0
LINE
  5
A6
100
AcDbEntity
  8
LY_3
  6
DASHED
 62
        80
100
AcDbLine
 10
30.7708294736
 20
-75.8759238751
 30
0.0
 11
30.1214074672
 21
-74.3080804595
 31
0.0
  0
LINE
  5
A7
100
AcDbEntity
  8
LY_3
  6
DASHED
 62
        80
100
AcDbLine
 10
96.6706993352
 20
-46.1304713315
 30
0.0
 11
92.8438650115
 21
-55.3692666566
 31
0.0
  0
LINE
  5
A8
100
AcDbEntity
  8
LY_3
  6
DASHED
 62
        80
100
AcDbLine
 10
97.8461103807
 20
-46.617342528
 30
0.0
 11
96.6706993352
 21
-46.1304713315
 31
0.0
  0
LINE
  5
A9
100
AcDbEntity
  8
LY_3
  6
DASHED
 62
        80
100
AcDbLine
 10
96.2880159028
 20
-47.054350864
 30
0.0
 11
87.0492205777
 21
-43.2275165404
 31
0.0
  0
LINE
  5
AA
100
AcDbEntity
  8
LY_3
  6
DASHED
 62
        80
100
AcDbLine
 10
87.2185714994
 20
-50.6583049877
 30
0.0
 11
87.8680051844
 21
-52.2261765979
 31
0.0
  0
LINE
  5
AB
100
AcDbEntity
  8
LY_3
  6
DASHED
 62
        80
100
AcDbLine
 10
94.019276062
 20
-55.8561378551
 30
0.0
 11
92.8438650115
 21
-55.3692666566
 31
0.0
  0
LINE
  5
AC
100
AcDbEntity
  8
LY_3
  6
DASHED
 62
        80
100
AcDbLine
 10
93.494431518
 20
-53.7986601735
 30
0.0
 11
80.8960809384
 21
-48.5802524999
 31
0.0
  0
LINE
  5
AD
100
AcDbEntity
  8
LY_3
  6
DASHED
 62
        80
100
AcDbLine
 10
96.0201445073
 20
-47.70104962
 30
0.0
 11
83.4217915892
 21
-42.4826409778
 31
0.0
  0
LINE
  5
AE
100
AcDbEntity
  8
LY_3
  6
DASHED
 62
        80
100
AcDbLine
 10
32.3785160219
 20
-71.9957987942
 30
0.0
 11
24.9874797618
 21
-68.9343313353
 31
0.0
  0
LINE
  5
AF
100
AcDbEntity
  8
LY_3
  6
DASHED
 62
        80
100
AcDbLine
 10
30.7710914606
 20
-75.8753485227
 30
0.0
 11
23.3804499244
 21
-72.8140445638
 31
0.0
  0
LINE
  5
B0
100
AcDbEntity
  8
LY_3
  6
DASHED
 62
        80
100
AcDbLine
 10
30.1216777286
 20
-74.3074686942
 30
0.0
 11
24.9485214925
 21
-72.1646772209
 31
0.0
  0
LINE
  5
B1
100
AcDbEntity
  8
LY_3
  6
CENTER
 62
        80
100
AcDbLine
 10
-8.2929966362
 20
-8.0650460417
 30
0.0
 11
10.7822581921
 21
-15.9662747956
 31
0.0
  0
LINE
  5
B2
100
AcDbEntity
  8
LY_3
  6
CENTER
 62
        80
100
AcDbLine
 10
23.1184533089
 20
-83.8990231784
 30
0.0
 11
31.0196787782
 21
-64.8237762799
 31
0.0
  0
LINE
  5
B3
100
AcDbEntity
  8
LY_3
  6
CENTER
 62
        80
100
AcDbLine
 10
98.9524239391
 20
-52.4875839575
 30
0.0
 11
79.8771788027
 21
-44.5863592182
 31
0.0
  0
LINE
  5
B4
100
AcDbEntity
  8
LY_3
  6
DASHED
 62
        80
100
AcDbLine
 10
3.610233768
 20
-17.3250942384
 30
0.0
 11
6.6717012269
 21
-9.9340579783
 31
0.0
  0
LINE
  5
B5
100
AcDbEntity
  8
LY_3
  6
DASHED
 62
        80
100
AcDbLine
 10
68.852081957
 20
17.8883989557
 30
0.0
 11
63.6336742834
 21
5.2900483761
 31
0.0
  0
LINE
  5
B6
100
AcDbEntity
  8
LY_3
  6
DASHED
 62
        80
100
AcDbLine
 10
70.9095596385
 20
18.4132434997
 30
0.0
 11
70.4226884401
 21
17.2378324493
 31
0.0
  0
LINE
  5
B7
100
AcDbEntity
  8
LY_3
  6
DASHED
 62
        80
100
AcDbLine
 10
65.7117267711
 20
11.6125389372
 30
0.0
 11
67.2795983814
 21
12.2619726222
 31
0.0
  0
LINE
  5
B8
100
AcDbEntity
  8
LY_3
  6
DASHED
 62
        80
100
AcDbLine
 10
62.1077726475
 20
20.6819833405
 30
0.0
 11
58.2809383238
 21
11.4431880154
 31
0.0
  0
LINE
  5
B9
100
AcDbEntity
  8
LY_3
  6
DASHED
 62
        80
100
AcDbLine
 10
61.6707643114
 20
22.2400778185
 30
0.0
 11
61.183893115
 21
21.0646667729
 31
0.0
  0
LINE
  5
BA
100
AcDbEntity
  8
LY_3
  6
DASHED
 62
        80
100
AcDbLine
 10
61.183893115
 20
21.0646667729
 30
0.0
 11
70.4226884401
 21
17.2378324493
 31
0.0
  0
LINE
  5
BB
100
AcDbEntity
  8
LY_3
  6
DASHED
 62
        80
100
AcDbLine
 10
62.7544714035
 20
20.414111945
 30
0.0
 11
57.5360627613
 21
7.815759027
 31
0.0
  0
LINE
  5
BC
100
AcDbEntity
  8
LY_3
  6
CENTER
 62
        80
100
AcDbLine
 10
85.926896074
 20
-30.2763053894
 30
0.0
 11
100.6297159726
 21
-30.2763053894
 31
0.0
  0
LINE
  5
BD
100
AcDbEntity
  8
LY_3
  6
CENTER
 62
        80
100
AcDbLine
 10
45.3297271729
 20
-70.9763165896
 30
0.0
 11
45.3297271729
 21
-85.5762941892
 31
0.0
  0
CIRCLE
  5
BE
100
AcDbEntity
  8
LY_3
  6
CONTINUOUS
 62
         3
100
AcDbCircle
 10
45.3297271729
 20
-30.2763053894
 30
0.0
 40
55.0
  0
CIRCLE
  5
BF
100
AcDbEntity
  8
LY_3
  6
CONTINUOUS
 62
         3
100
AcDbCircle
 10
45.3297271729
 20
-30.2763053894
 30
0.0
 40
40.0
  0
ARC
  5
C0
100
AcDbEntity
  8
LY_3
  6
CENTER
 62
        80
100
AcDbCircle
 10
45.3297271729
 20
-30.2763053894
 30
0.0
 40
48.0
100
AcDbArc
 50
36.277846267
 51
53.7221528223
  0
ARC
  5
C1
100
AcDbEntity
  8
LY_3
  6
CENTER
 62
        80
100
AcDbCircle
 10
45.3297271729
 20
-30.2763053894
 30
0.0
 40
48.0
100
AcDbArc
 50
81.2778304438
 51
98.722133584
  0
ARC
  5
C2
100
AcDbEntity
  8
LY_3
  6
CENTER
 62
        80
100
AcDbCircle
 10
45.3297271729
 20
-30.2763053894
 30
0.0
 40
48.0
100
AcDbArc
 50
126.2778487715
 51
143.7221519117
  0
ARC
  5
C3
100
AcDbEntity
  8
LY_3
  6
CENTER
 62
        80
100
AcDbCircle
 10
45.3297271729
 20
-30.2763053894
 30
0.0
 40
48.0
100
AcDbArc
 50
171.2778124577
 51
188.7221155979
  0
ARC
  5
C4
100
AcDbEntity
  8
LY_3
  6
CENTER
 62
        80
100
AcDbCircle
 10
45.3297271729
 20
-30.2763053894
 30
0.0
 40
48.0
100
AcDbArc
 50
216.2778480883
 51
233.7221512285
  0
ARC
  5
C5
100
AcDbEntity
  8
LY_3
  6
CENTER
 62
        80
100
AcDbCircle
 10
45.3297271729
 20
-30.2763053894
 30
0.0
 40
48.0
100
AcDbArc
 50
306.2778471777
 51
323.722153733
  0
ARC
  5
C6
100
AcDbEntity
  8
LY_3
  6
CENTER
 62
        80
100
AcDbCircle
 10
45.3297271729
 20
-30.2763053894
 30
0.0
 40
48.0
100
AcDbArc
 50
351.2778484299
 51
8.7221515701
  0
CIRCLE
  5
C7
100
AcDbEntity
  8
LY_3
  6
CONTINUOUS
 62
         3
100
AcDbCircle
 10
45.3297271729
 20
-30.2763053894
 30
0.0
 40
27.3279876709
  0
ARC
  5
C8
100
AcDbEntity
  8
LY_3
  6
CONTINUOUS
 62
         3
100
AcDbCircle
 10
45.3297271729
 20
-30.2763053894
 30
0.0
 40
17.5
100
AcDbArc
 50
106.6015490936
 51
73.3984522729
  0
CIRCLE
  5
C9
100
AcDbEntity
  8
LY_3
  6
CONTINUOUS
 62
         3
100
AcDbCircle
 10
26.9609222412
 20
14.0699012756
 30
0.0
 40
3.2999992371
  0
ARC
  5
CA
100
AcDbEntity
  8
LY_3
  6
CENTER
 62
        80
100
AcDbCircle
 10
45.3297271729
 20
-30.2763053894
 30
0.0
 40
48.0
100
AcDbArc
 50
261.277866416
 51
278.7221695562
  0
CIRCLE
  5
CB
100
AcDbEntity
  8
LY_3
  6
CONTINUOUS
 62
         3
100
AcDbCircle
 10
63.6985321045
 20
-74.6225225449
 30
0.0
 40
3.2999992371
  0
MTEXT
  5
CC
100
AcDbEntity
  8
LY_3
  6
CONTINUOUS
 62
       110
100
AcDbMText
 10
-34.9733912425
 20
69.1865802765
 30
0.0
 40
15.0
 41
0.0
 71
         1
 72
         1
  1
\W1.087;\A1;BR 35
  0
MTEXT
  5
CD
100
AcDbEntity
  8
LY_3
  6
CONTINUOUS
 62
       110
100
AcDbMText
 10
-68.2430553901
 20
92.6673583984
 30
0.0
 40
13.0
 41
0.0
 71
         1
 72
         1
  1
\W1.042;\A1;CAM CLUTCH
  0
ENDSEC
  0
SECTION
  2
OBJECTS
  0
DICTIONARY
  5
19
100
AcDbDictionary
  3
ACAD_GROUP
350
1A
  3
ACAD_MLINESTYLE
350
1B
  0
DICTIONARY
  5
1A
102
{ACAD_REACTORS
330
19
102
}
100
AcDbDictionary
  0
DICTIONARY
  5
1B
102
{ACAD_REACTORS
330
19
102
}
100
AcDbDictionary
  3
STANDARD
350
1C
  0
MLINESTYLE
  5
1C
102
{ACAD_REACTORS
330
1B
102
}
100
AcDbMlineStyle
  2
Standard
 70
         0
  3

 62
         0
 51
90.0
 52
90.0
 71
         2
 49
0.5
 62
       256
  6
ByLayer
 49
-0.5
 62
       256
  6
ByLayer
  0
ENDSEC
  0
EOF
