  0
SECTION
  2
HEADER
  9
$ACADVER
  1
AC1014
  9
$ACADMAINTVER
 70
         0
  9
$DWGCODEPAGE
  3
ANSI_932
  9
$INSBASE
 10
0.0
 20
0.0
 30
0.0
  9
$EXTMIN
 10
-249.5026344847
 20
-281.4688852013
 30
0.0
  9
$EXTMAX
 10
265.4757111259
 20
122.1256914138
 30
0.0
  9
$LIMMIN
 10
-249.5026344847
 20
-281.4688852013
  9
$LIMMAX
 10
265.4757111259
 20
122.1256914138
  9
$ORTHOMODE
 70
         0
  9
$REGENMODE
 70
         1
  9
$FILLMODE
 70
         1
  9
$QTEXTMODE
 70
         0
  9
$MIRRTEXT
 70
         1
  9
$DRAGMODE
 70
         2
  9
$LTSCALE
 40
1.0
  9
$OSMODE
 70
         0
  9
$ATTMODE
 70
         1
  9
$TEXTSIZE
 40
3.2000000477
  9
$TRACEWID
 40
0.05
  9
$TEXTSTYLE
  7
MX_NOTE_STANDARD
  9
$CLAYER
  8
0
  9
$CELTYPE
  6
CONTINUOUS
  9
$CECOLOR
 62
       256
  9
$CELTSCALE
 40
1.0
  9
$DELOBJ
 70
         1
  9
$DISPSILH
 70
         0
  9
$DIMSCALE
 40
1.0
  9
$DIMASZ
 40
2.5
  9
$DIMEXO
 40
0.0
  9
$DIMDLI
 40
3.75
  9
$DIMRND
 40
0.0
  9
$DIMDLE
 40
0.0
  9
$DIMEXE
 40
2.5
  9
$DIMTP
 40
0.0
  9
$DIMTM
 40
0.0
  9
$DIMTXT
 40
3.2000000477
  9
$DIMCEN
 40
2.5
  9
$DIMTSZ
 40
0.0
  9
$DIMTOL
 70
         0
  9
$DIMLIM
 70
         0
  9
$DIMTIH
 70
         0
  9
$DIMTOH
 70
         0
  9
$DIMSE1
 70
         0
  9
$DIMSE2
 70
         0
  9
$DIMTAD
 70
         1
  9
$DIMZIN
 70
         8
  9
$DIMBLK
  1

  9
$DIMASO
 70
         1
  9
$DIMSHO
 70
         1
  9
$DIMPOST
  1

  9
$DIMAPOST
  1

  9
$DIMALT
 70
         0
  9
$DIMALTD
 70
         4
  9
$DIMALTF
 40
0.0393700787
  9
$DIMLFAC
 40
1.0
  9
$DIMTOFL
 70
         1
  9
$DIMTVP
 40
0.0
  9
$DIMTIX
 70
         0
  9
$DIMSOXD
 70
         0
  9
$DIMSAH
 70
         1
  9
$DIMBLK1
  1
_OPEN30
  9
$DIMBLK2
  1
_OPEN30
  9
$DIMSTYLE
  2
MXDIMSTYLE
  9
$DIMCLRD
 70
         0
  9
$DIMCLRE
 70
         0
  9
$DIMCLRT
 70
         0
  9
$DIMTFAC
 40
1.0
  9
$DIMGAP
 40
1.0
  9
$DIMJUST
 70
         0
  9
$DIMSD1
 70
         0
  9
$DIMSD2
 70
         0
  9
$DIMTOLJ
 70
         0
  9
$DIMTZIN
 70
         0
  9
$DIMALTZ
 70
         0
  9
$DIMALTTZ
 70
         0
  9
$DIMFIT
 70
         3
  9
$DIMUPT
 70
         0
  9
$DIMUNIT
 70
         2
  9
$DIMDEC
 70
         2
  9
$DIMTDEC
 70
         2
  9
$DIMALTU
 70
         2
  9
$DIMALTTD
 70
         4
  9
$DIMTXSTY
  7
MX_NOTE_STANDARD
  9
$DIMAUNIT
 70
         0
  9
$LUNITS
 70
         2
  9
$LUPREC
 70
         4
  9
$SKETCHINC
 40
0.1
  9
$FILLETRAD
 40
0.0
  9
$AUNITS
 70
         0
  9
$AUPREC
 70
         0
  9
$MENU
  1
acad
  9
$ELEVATION
 40
0.0
  9
$PELEVATION
 40
0.0
  9
$THICKNESS
 40
0.0
  9
$LIMCHECK
 70
         0
  9
$BLIPMODE
 70
         1
  9
$CHAMFERA
 40
0.0
  9
$CHAMFERB
 40
0.0
  9
$CHAMFERC
 40
0.0
  9
$CHAMFERD
 40
0.0
  9
$SKPOLY
 70
         0
  9
$TDCREATE
 40
2456603.419490741
  9
$TDUPDATE
 40
2456603.419490741
  9
$TDINDWG
 40
0.0000000000
  9
$TDUSRTIMER
 40
0.0000000000
  9
$USRTIMER
 70
         1
  9
$ANGBASE
 50
0.0
  9
$ANGDIR
 70
         0
  9
$PDMODE
 70
         0
  9
$PDSIZE
 40
0.0
  9
$PLINEWID
 40
0.0
  9
$COORDS
 70
         1
  9
$SPLFRAME
 70
         0
  9
$SPLINETYPE
 70
         6
  9
$SPLINESEGS
 70
         8
  9
$ATTDIA
 70
         0
  9
$ATTREQ
 70
         1
  9
$HANDLING
 70
         1
  9
$HANDSEED
  5
DA
  9
$SURFTAB1
 70
         6
  9
$SURFTAB2
 70
         6
  9
$SURFTYPE
 70
         6
  9
$SURFU
 70
         6
  9
$SURFV
 70
         6
  9
$UCSNAME
  2

  9
$UCSORG
 10
0.0
 20
0.0
 30
0.0
  9
$UCSXDIR
 10
1.0
 20
0.0
 30
0.0
  9
$UCSYDIR
 10
0.0
 20
1.0
 30
0.0
  9
$PUCSNAME
  2

  9
$PUCSORG
 10
0.0
 20
0.0
 30
0.0
  9
$PUCSXDIR
 10
1.0
 20
0.0
 30
0.0
  9
$PUCSYDIR
 10
0.0
 20
1.0
 30
0.0
  9
$USERI1
 70
         0
  9
$USERI2
 70
         0
  9
$USERI3
 70
         0
  9
$USERI4
 70
         0
  9
$USERI5
 70
         0
  9
$USERR1
 40
0.0
  9
$USERR2
 40
0.0
  9
$USERR3
 40
0.0
  9
$USERR4
 40
0.0
  9
$USERR5
 40
0.0
  9
$WORLDVIEW
 70
         1
  9
$SHADEDGE
 70
         3
  9
$SHADEDIF
 70
        70
  9
$TILEMODE
 70
         1
  9
$MAXACTVP
 70
        16
  9
$PINSBASE
 10
0.0
 20
0.0
 30
0.0
  9
$PLIMCHECK
 70
         0
  9
$PEXTMIN
 10
1.0000000000E+20
 20
1.0000000000E+20
 30
1.0000000000E+20
  9
$PEXTMAX
 10
-1.0000000000E+20
 20
-1.0000000000E+20
 30
-1.0000000000E+20
  9
$PLIMMIN
 10
0.0
 20
0.0
  9
$PLIMMAX
 10
12.0
 20
9.0
  9
$UNITMODE
 70
         0
  9
$VISRETAIN
 70
         0
  9
$PLINEGEN
 70
         1
  9
$PSLTSCALE
 70
         0
  9
$TREEDEPTH
 70
      3020
  9
$PICKSTYLE
 70
         1
  9
$CMLSTYLE
  2
Standard
  9
$CMLJUST
 70
         0
  9
$CMLSCALE
 40
1.0
  9
$PROXYGRAPHICS
 70
         0
  9
$MEASUREMENT
 70
         1
  0
ENDSEC
  0
SECTION
  2
CLASSES
  0
CLASS
  1
LWPOLYLINE
  2
AcDbPolyline
  3
"AutoCAD"
 90
        0
280
         0
281
         1
  0
CLASS
  1
IMAGE
  2
AcDbRasterImage
  3
ISM
 90
      127
280
         0
281
         1
  0
CLASS
  1
OLE2FRAME
  2
AcDbOle2Frame
  3
""
 90
        0
280
         0
281
         1
  0
CLASS
  1
HATCH
  2
AcDbHatch
  3
"ACAD_SEDONA"
 90
        0
280
         0
281
         1
  0
CLASS
  1
DICTIONARYVAR
  2
AcDbDictionaryVar
  3
"AutoCAD"
 90
        0
280
         0
281
         0
  0
CLASS
  1
RASTERVARIABLES
  2
AcDbRasterVariables
  3
ISM
 90
        0
280
         0
281
         0
  0
CLASS
  1
IMAGEDEF
  2
AcDbRasterImageDef
  3
ISM
 90
        0
280
         0
281
         0
  0
CLASS
  1
IMAGEDEF_REACTOR
  2
AcDbRasterImageDefReactor
  3
ISM
 90
        1
280
         0
281
         0
  0
CLASS
  1
IDBUFFER
  2
AcDbIdBuffer
  3
"Acad"
 90
        0
280
         0
281
         0
  0
CLASS
  1
SPATIAL_FILTER
  2
AcDbSpatialFilter
  3
"Acad"
 90
        0
280
         0
281
         0
  0
CLASS
  1
XRECORD
  2
AcDbXrecord
  3
"<Built In>"
 90
        0
280
         0
281
         0
  0
CLASS
  1
SORTENTSTABLE
  2
AcDbSortentsTable
  3
"AutoCAD"
 90
        0
280
         0
281
         0
  0
CLASS
  1
LAYER_INDEX
  2
AcDbLayerIndex
  3
"Acad"
 90
        0
280
         0
281
         0
  0
CLASS
  1
SPATIAL_INDEX
  2
AcDbSpatialIndex
  3
"Acad"
 90
        0
280
         0
281
         0
  0
CLASS
  1
OBJECT_PTR
  2
CAseDLPNTableRecord
  3
"ASE-LPNTableRecord"
 90
        1
280
         0
281
         0
  0
CLASS
  1
LAYOUT
  2
AcDbLayout
  3
"AutoCAD 2000"
 90
        0
280
         0
281
         0
  0
CLASS
  1
PLOTSETTINGS
  2
AcDbPlotSettings
  3
"AutoCAD 2000"
 90
        0
280
         0
281
         0
  0
CLASS
  1
ACDBDICTIONARYWDFLT
  2
AcDbDictionaryWithDefault
  3
"AutoCAD 2000"
 90
        0
280
         0
281
         0
  0
CLASS
  1
ACDBPLACEHOLDER
  2
AcDbPlaceHolder
  3
"AutoCAD 2000"
 90
        0
280
         0
281
         0
  0
ENDSEC
  0
SECTION
  2
TABLES
  0
TABLE
  2
VPORT
  5
7
100
AcDbSymbolTable
 70
         1
  0
VPORT
  5
15
100
AcDbSymbolTableRecord
100
AcDbViewportTableRecord
  2
*ACTIVE
 70
         0
 10
0.0
 20
0.0
 11
1.0
 21
1.0
 12
7.9865383206
 22
-79.6715968937
 13
0.0
 23
0.0
 14
1.0
 24
1.0
 15
0.0
 25
0.0
 16
0.0
 26
0.0
 36
1.0
 17
0.0
 27
0.0
 37
0.0
 40
407.6305223813
 41
1.7320508076
 42
50.0
 43
0.0
 44
0.0
 50
0.0
 51
0.0
 71
         0
 72
       100
 73
         1
 74
         1
 75
         0
 76
         0
 77
         0
 78
         0
  0
ENDTAB
  0
TABLE
  2
LTYPE
  5
4
100
AcDbSymbolTable
 70
         5
  0
LTYPE
  5
11
100
AcDbSymbolTableRecord
100
AcDbLinetypeTableRecord
  2
BYBLOCK
 70
        64
  3

 72
        65
 73
         0
 40
0.0
  0
LTYPE
  5
12
100
AcDbSymbolTableRecord
100
AcDbLinetypeTableRecord
  2
BYLAYER
 70
        64
  3

 72
        65
 73
         0
 40
0.0
  0
LTYPE
  5
13
100
AcDbSymbolTableRecord
100
AcDbLinetypeTableRecord
  2
CONTINUOUS
 70
        64
  3
Solid line
 72
        65
 73
         0
 40
0.0
  0
LTYPE
  5
29
100
AcDbSymbolTableRecord
100
AcDbLinetypeTableRecord
  2
CENTER
 70
        64
  3
Center ____ _ ____ _ ____ _ ____ _ ____ _ ____
 72
        65
 73
         4
 40
50.8
 49
31.75
 74
         0
 49
-6.35
 74
         0
 49
6.35
 74
         0
 49
-6.35
 74
         0
  0
LTYPE
  5
87
100
AcDbSymbolTableRecord
100
AcDbLinetypeTableRecord
  2
DASHED
 70
        64
  3
Dashed __ __ __ __ __ __ __ __ __ __ __ __ __ _
 72
        65
 73
         2
 40
19.05
 49
12.7
 74
         0
 49
-6.35
 74
         0
  0
ENDTAB
  0
TABLE
  2
LAYER
  5
2
100
AcDbSymbolTable
 70
         3
  0
LAYER
  5
14
100
AcDbSymbolTableRecord
100
AcDbLayerTableRecord
  2
0
 70
         0
 62
         7
  6
CONTINUOUS
  0
LAYER
  5
1D
100
AcDbSymbolTableRecord
100
AcDbLayerTableRecord
  2
DEFPOINTS
 70
         0
 62
         7
  6
CONTINUOUS
  0
LAYER
  5
1E
100
AcDbSymbolTableRecord
100
AcDbLayerTableRecord
  2
LY_3
 70
         0
 62
         7
  6
CONTINUOUS
  0
ENDTAB
  0
TABLE
  2
STYLE
  5
3
100
AcDbSymbolTable
 70
         1
  0
STYLE
  5
17
100
AcDbSymbolTableRecord
100
AcDbTextStyleTableRecord
  2
MX_NOTE_STANDARD
 70
         0
 40
0.0
 41
1.0
 50
0.0
 71
         0
 42
3.2000000477
  3
txt.shx
  4
extfont.shx
  0
ENDTAB
  0
TABLE
  2
VIEW
  5
5
100
AcDbSymbolTable
 70
         0
  0
ENDTAB
  0
TABLE
  2
UCS
  5
6
100
AcDbSymbolTable
 70
         0
  0
ENDTAB
  0
TABLE
  2
APPID
  5
8
100
AcDbSymbolTable
 70
         1
  0
APPID
  5
16
100
AcDbSymbolTableRecord
100
AcDbRegAppTableRecord
  2
ACAD
 70
         0
  0
ENDTAB
  0
TABLE
  2
DIMSTYLE
  5
9
100
AcDbSymbolTable
 70
         1
  0
DIMSTYLE
105
18
100
AcDbSymbolTableRecord
100
AcDbDimStyleTableRecord
  2
MXDIMSTYLE
 70
         0
  3

  4

  5

  6
_OPEN30
  7
_OPEN30
 40
1.0
 41
2.5
 42
0.0
 43
3.75
 44
2.5
 45
0.0
 46
0.0
 47
0.0
 48
0.0
 71
         0
 72
         0
 73
         0
 74
         0
 75
         0
 76
         0
 77
         1
 78
         8
140
3.2000000477
141
2.5
142
0.0
143
0.0393700787
144
1.0
145
0.0
146
1.0
147
1.0
170
         0
171
         4
172
         1
173
         1
174
         0
175
         0
176
         0
177
         0
178
         0
270
         2
271
         2
272
         2
273
         2
274
         4
275
         0
280
         0
281
         0
282
         0
283
         0
284
         0
285
         0
286
         0
287
         3
288
         0
340
17
  0
ENDTAB
  0
TABLE
  2
BLOCK_RECORD
  5
1
100
AcDbSymbolTable
 70
         1
  0
BLOCK_RECORD
  5
A
100
AcDbSymbolTableRecord
100
AcDbBlockTableRecord
  2
*MODEL_SPACE
  0
BLOCK_RECORD
  5
B
100
AcDbSymbolTableRecord
100
AcDbBlockTableRecord
  2
*PAPER_SPACE
  0
BLOCK_RECORD
  5
1F
100
AcDbSymbolTableRecord
100
AcDbBlockTableRecord
  2
_OPEN30
  0
ENDTAB
  0
ENDSEC
  0
SECTION
  2
BLOCKS
  0
BLOCK
  5
D
100
AcDbEntity
  8
0
100
AcDbBlockBegin
  2
*MODEL_SPACE
 70
         0
 10
0.0
 20
0.0
 30
0.0
  3
*MODEL_SPACE
  1

  0
ENDBLK
  5
E
100
AcDbEntity
  8
0
100
AcDbBlockEnd
  0
BLOCK
  5
F
100
AcDbEntity
 67
         1
  8
0
100
AcDbBlockBegin
  2
*PAPER_SPACE
 70
         0
 10
0.0
 20
0.0
 30
0.0
  3
*PAPER_SPACE
  1

  0
ENDBLK
  5
10
100
AcDbEntity
 67
         1
  8
0
100
AcDbBlockEnd
  0
BLOCK
  5
20
100
AcDbEntity
  8
0
  6
ByBlock
 62
         0
100
AcDbBlockBegin
  2
_OPEN30
 70
         2
 10
0.0
 20
0.0
 30
0.0
  3
_OPEN30
  1

  0
LINE
  5
21
100
AcDbEntity
  8
0
  6
ByBlock
 62
         0
100
AcDbLine
 10
-1.0
 20
0.267949
 30
0.0
 11
0.0
 21
0.0
 31
0.0
  0
LINE
  5
22
100
AcDbEntity
  8
0
  6
ByBlock
 62
         0
100
AcDbLine
 10
0.0
 20
0.0
 30
0.0
 11
-1.0
 21
-0.267949
 31
0.0
  0
LINE
  5
23
100
AcDbEntity
  8
0
  6
ByBlock
 62
         0
100
AcDbLine
 10
0.0
 20
0.0
 30
0.0
 11
-1.0
 21
0.0
 31
0.0
  0
ENDBLK
  5
24
100
AcDbEntity
  8
0
  6
ByBlock
 62
         0
100
AcDbBlockEnd
  0
ENDSEC
  0
SECTION
  2
ENTITIES
  0
MTEXT
  5
25
100
AcDbEntity
  8
0
  6
CONTINUOUS
 62
       110
100
AcDbMText
 10
-147.4464030812
 20
117.7423582077
 30
0.0
 40
13.1499996185
 41
0.0
 71
         1
 72
         1
  1
\W1.050;\A1;TSUBAKI
  0
POINT
  5
26
100
AcDbEntity
  8
LY_3
  6
CONTINUOUS
 62
       172
100
AcDbPoint
 10
107.4757119532
 20
-123.4688860285
 30
0.0
  0
POINT
  5
27
100
AcDbEntity
  8
LY_3
  6
CONTINUOUS
 62
       172
100
AcDbPoint
 10
-249.5026344847
 20
-123.4688860285
 30
0.0
  0
POINT
  5
28
100
AcDbEntity
  8
LY_3
  6
CONTINUOUS
 62
       172
100
AcDbPoint
 10
-159.5026371669
 20
-123.4688860285
 30
0.0
  0
LINE
  5
2A
100
AcDbEntity
  8
LY_3
  6
CENTER
 62
        80
100
AcDbLine
 10
107.4757119532
 20
34.5311131442
 30
0.0
 11
107.4757119532
 21
-3.4689240039
 31
0.0
  0
LINE
  5
2B
100
AcDbEntity
  8
LY_3
  6
CENTER
 62
        80
100
AcDbLine
 10
-50.5242872196
 20
-123.4688860285
 30
0.0
 11
-12.5242500715
 21
-123.4688860285
 31
0.0
  0
LINE
  5
2C
100
AcDbEntity
  8
LY_3
  6
CONTINUOUS
 62
         3
100
AcDbLine
 10
-244.5026193749
 20
-3.4688896048
 30
0.0
 11
-164.5026065003
 21
-3.4688896048
 31
0.0
  0
LINE
  5
2D
100
AcDbEntity
  8
LY_3
  6
CONTINUOUS
 62
         3
100
AcDbLine
 10
-234.802607457
 20
-40.9688884872
 30
0.0
 11
-230.802622835
 21
-40.9688884872
 31
0.0
  0
LINE
  5
2E
100
AcDbEntity
  8
LY_3
  6
CONTINUOUS
 62
         3
100
AcDbLine
 10
-174.2026184183
 20
-27.8688827741
 30
0.0
 11
-174.2026184183
 21
-40.9688884872
 31
0.0
  0
LINE
  5
2F
100
AcDbEntity
  8
LY_3
  6
CONTINUOUS
 62
         3
100
AcDbLine
 10
-234.802607457
 20
-27.8688827741
 30
0.0
 11
-234.802607457
 21
-40.9688884872
 31
0.0
  0
LINE
  5
30
100
AcDbEntity
  8
LY_3
  6
CONTINUOUS
 62
         3
100
AcDbLine
 10
-178.2026030403
 20
-40.9688884872
 30
0.0
 11
-174.2026184183
 21
-40.9688884872
 31
0.0
  0
LINE
  5
31
100
AcDbEntity
  8
LY_3
  6
CONTINUOUS
 62
         3
100
AcDbLine
 10
-234.802607457
 20
-27.8688827741
 30
0.0
 11
-230.802622835
 21
-27.8688827741
 31
0.0
  0
LINE
  5
32
100
AcDbEntity
  8
LY_3
  6
CONTINUOUS
 62
         3
100
AcDbLine
 10
-178.2026030403
 20
-27.8688827741
 30
0.0
 11
-174.2026184183
 21
-27.8688827741
 31
0.0
  0
LINE
  5
33
100
AcDbEntity
  8
LY_3
  6
CONTINUOUS
 62
         3
100
AcDbLine
 10
-159.5026371669
 20
-36.9969190011
 30
0.0
 11
-159.5026371669
 21
-209.9408902493
 31
0.0
  0
LINE
  5
34
100
AcDbEntity
  8
LY_3
  6
CONTINUOUS
 62
         3
100
AcDbLine
 10
-249.5026344847
 20
-36.9969190011
 30
0.0
 11
-249.5026344847
 21
-209.9408902493
 31
0.0
  0
LINE
  5
35
100
AcDbEntity
  8
LY_3
  6
CONTINUOUS
 62
         3
100
AcDbLine
 10
-244.5026193749
 20
31.5310788345
 30
0.0
 11
-244.5026193749
 21
-27.8688827741
 31
0.0
  0
LINE
  5
36
100
AcDbEntity
  8
LY_3
  6
CONTINUOUS
 62
         3
100
AcDbLine
 10
-164.5026065003
 20
31.5310788345
 30
0.0
 11
-164.5026065003
 21
-27.8688827741
 31
0.0
  0
LINE
  5
37
100
AcDbEntity
  8
LY_3
  6
CONTINUOUS
 62
         3
100
AcDbLine
 10
-244.5026193749
 20
31.5310788345
 30
0.0
 11
-164.5026065003
 21
31.5310788345
 31
0.0
  0
LINE
  5
38
100
AcDbEntity
  8
LY_3
  6
CONTINUOUS
 62
         3
100
AcDbLine
 10
-244.5026193749
 20
6.5310948384
 30
0.0
 11
-164.5026065003
 21
6.5310948384
 31
0.0
  0
LINE
  5
39
100
AcDbEntity
  8
LY_3
  6
CONTINUOUS
 62
         3
100
AcDbLine
 10
-244.5026193749
 20
24.5310943019
 30
0.0
 11
-164.5026065003
 21
24.5310943019
 31
0.0
  0
LINE
  5
3A
100
AcDbEntity
  8
LY_3
  6
CONTINUOUS
 62
         3
100
AcDbLine
 10
-249.5026344847
 20
-58.4689184833
 30
0.0
 11
-159.5026371669
 21
-58.4689184833
 31
0.0
  0
LINE
  5
3B
100
AcDbEntity
  8
LY_3
  6
CONTINUOUS
 62
         3
100
AcDbLine
 10
-244.5026193749
 20
-243.4688795912
 30
0.0
 11
-164.5026065003
 21
-243.4688795912
 31
0.0
  0
LINE
  5
3C
100
AcDbEntity
  8
LY_3
  6
CONTINUOUS
 62
         3
100
AcDbLine
 10
-234.802607457
 20
-205.9688835698
 30
0.0
 11
-230.802622835
 21
-205.9688835698
 31
0.0
  0
LINE
  5
3D
100
AcDbEntity
  8
LY_3
  6
CONTINUOUS
 62
         3
100
AcDbLine
 10
-174.2026184183
 20
-219.0688835609
 30
0.0
 11
-174.2026184183
 21
-205.9688835698
 31
0.0
  0
LINE
  5
3E
100
AcDbEntity
  8
LY_3
  6
CONTINUOUS
 62
         3
100
AcDbLine
 10
-234.802607457
 20
-219.0688835609
 30
0.0
 11
-234.802607457
 21
-205.9688835698
 31
0.0
  0
LINE
  5
3F
100
AcDbEntity
  8
LY_3
  6
CONTINUOUS
 62
         3
100
AcDbLine
 10
-178.2026030403
 20
-205.9688835698
 30
0.0
 11
-174.2026184183
 21
-205.9688835698
 31
0.0
  0
LINE
  5
40
100
AcDbEntity
  8
LY_3
  6
CONTINUOUS
 62
         3
100
AcDbLine
 10
-234.802607457
 20
-219.0688835609
 30
0.0
 11
-230.802622835
 21
-219.0688835609
 31
0.0
  0
LINE
  5
41
100
AcDbEntity
  8
LY_3
  6
CONTINUOUS
 62
         3
100
AcDbLine
 10
-178.2026030403
 20
-219.0688835609
 30
0.0
 11
-174.2026184183
 21
-219.0688835609
 31
0.0
  0
LINE
  5
42
100
AcDbEntity
  8
LY_3
  6
CONTINUOUS
 62
         3
100
AcDbLine
 10
-228.5026351105
 20
-271.468866359
 30
0.0
 11
-164.5026065003
 21
-271.468866359
 31
0.0
  0
LINE
  5
43
100
AcDbEntity
  8
LY_3
  6
CONTINUOUS
 62
         3
100
AcDbLine
 10
-249.5026344847
 20
-188.468882184
 30
0.0
 11
-159.5026371669
 21
-188.468882184
 31
0.0
  0
LINE
  5
44
100
AcDbEntity
  8
LY_3
  6
CONTINUOUS
 62
         3
100
AcDbLine
 10
-244.5026193749
 20
-278.4688508916
 30
0.0
 11
-244.5026193749
 21
-219.0688835609
 31
0.0
  0
LINE
  5
45
100
AcDbEntity
  8
LY_3
  6
CONTINUOUS
 62
         3
100
AcDbLine
 10
-164.5026065003
 20
-278.4688508916
 30
0.0
 11
-164.5026065003
 21
-219.0688835609
 31
0.0
  0
LINE
  5
46
100
AcDbEntity
  8
LY_3
  6
CONTINUOUS
 62
         3
100
AcDbLine
 10
-244.5026193749
 20
-278.4688508916
 30
0.0
 11
-164.5026065003
 21
-278.4688508916
 31
0.0
  0
LINE
  5
47
100
AcDbEntity
  8
LY_3
  6
CONTINUOUS
 62
         3
100
AcDbLine
 10
-228.5026351105
 20
-253.4688812006
 30
0.0
 11
-164.5026065003
 21
-253.4688812006
 31
0.0
  0
LINE
  5
48
100
AcDbEntity
  8
LY_3
  6
CONTINUOUS
 62
         3
100
AcDbLine
 10
-249.5026344847
 20
-51.0688942897
 30
0.0
 11
-159.5026371669
 21
-51.0688942897
 31
0.0
  0
LINE
  5
49
100
AcDbEntity
  8
LY_3
  6
CONTINUOUS
 62
         3
100
AcDbLine
 10
91.4756819124
 20
-51.0688942897
 30
0.0
 11
123.4756962175
 21
-51.0688942897
 31
0.0
  0
LINE
  5
4A
100
AcDbEntity
  8
LY_3
  6
CONTINUOUS
 62
         3
100
AcDbLine
 10
91.4756819124
 20
-51.0688942897
 30
0.0
 11
91.4756819124
 21
-60.4688879061
 31
0.0
  0
LINE
  5
4B
100
AcDbEntity
  8
LY_3
  6
CONTINUOUS
 62
         3
100
AcDbLine
 10
123.4756962175
 20
-51.0688942897
 30
0.0
 11
123.4756962175
 21
-60.4688879061
 31
0.0
  0
LINE
  5
4C
100
AcDbEntity
  8
LY_3
  6
CENTER
 62
        80
100
AcDbLine
 10
211.3987599266
 20
-63.468881948
 30
0.0
 11
244.307697713
 21
-44.4688975172
 31
0.0
  0
LINE
  5
4D
100
AcDbEntity
  8
LY_3
  6
CENTER
 62
        80
100
AcDbLine
 10
167.4757108368
 20
-19.5458541968
 30
0.0
 11
186.4757181557
 21
13.3631232331
 31
0.0
  0
LINE
  5
4E
100
AcDbEntity
  8
LY_3
  6
CENTER
 62
        80
100
AcDbLine
 10
167.4757197775
 20
-227.3919357691
 30
0.0
 11
186.4757042082
 21
-260.3008735554
 31
0.0
  0
LINE
  5
4F
100
AcDbEntity
  8
LY_3
  6
CENTER
 62
        80
100
AcDbLine
 10
211.398756708
 20
-183.468898107
 30
0.0
 11
244.3076944943
 21
-202.4688825377
 31
0.0
  0
LINE
  5
50
100
AcDbEntity
  8
LY_3
  6
CENTER
 62
        80
100
AcDbLine
 10
47.4757217385
 20
-19.5458459877
 30
0.0
 11
28.4757144195
 21
13.3631314422
 31
0.0
  0
LINE
  5
51
100
AcDbEntity
  8
LY_3
  6
CENTER
 62
        80
100
AcDbLine
 10
3.552654538
 20
-63.4688929154
 30
0.0
 11
-29.3563080255
 21
-44.4688941795
 31
0.0
  0
LINE
  5
52
100
AcDbEntity
  8
LY_3
  6
CENTER
 62
        80
100
AcDbLine
 10
47.4757127978
 20
-227.3919439781
 30
0.0
 11
28.4757140619
 21
-260.3009065417
 31
0.0
  0
LINE
  5
53
100
AcDbEntity
  8
LY_3
  6
CENTER
 62
        80
100
AcDbLine
 10
3.5526305018
 20
-183.4689028752
 30
0.0
 11
-29.3563072846
 21
-202.468887306
 31
0.0
  0
LINE
  5
54
100
AcDbEntity
  8
LY_3
  6
CONTINUOUS
 62
        80
100
AcDbLine
 10
-244.5026193749
 20
-254.4688830781
 30
0.0
 11
-228.5026351105
 21
-254.4688830781
 31
0.0
  0
LINE
  5
55
100
AcDbEntity
  8
LY_3
  6
CONTINUOUS
 62
        80
100
AcDbLine
 10
-244.5026193749
 20
-270.4688816476
 30
0.0
 11
-228.5026351105
 21
-270.4688816476
 31
0.0
  0
LINE
  5
56
100
AcDbEntity
  8
LY_3
  6
CONTINUOUS
 62
         3
100
AcDbLine
 10
-244.5026193749
 20
-255.3688836235
 30
0.0
 11
-228.5026351105
 21
-255.3688836235
 31
0.0
  0
LINE
  5
57
100
AcDbEntity
  8
LY_3
  6
CONTINUOUS
 62
         3
100
AcDbLine
 10
-244.5026193749
 20
-269.5688725191
 30
0.0
 11
-228.5026351105
 21
-269.5688725191
 31
0.0
  0
LINE
  5
58
100
AcDbEntity
  8
LY_3
  6
CONTINUOUS
 62
         3
100
AcDbLine
 10
-230.8025770586
 20
-36.9969190011
 30
0.0
 11
-178.2026488166
 21
-36.9969190011
 31
0.0
  0
LINE
  5
59
100
AcDbEntity
  8
LY_3
  6
CONTINUOUS
 62
         3
100
AcDbLine
 10
-230.8025770586
 20
-209.9408902493
 30
0.0
 11
-178.2026488166
 21
-209.9408902493
 31
0.0
  0
LINE
  5
5A
100
AcDbEntity
  8
LY_3
  6
CONTINUOUS
 62
         3
100
AcDbLine
 10
-217.8025011521
 20
-29.8450484867
 30
0.0
 11
-217.8025011521
 21
-36.9969190011
 31
0.0
  0
LINE
  5
5B
100
AcDbEntity
  8
LY_3
  6
CONTINUOUS
 62
         3
100
AcDbLine
 10
-217.8021377526
 20
-36.9968266839
 30
0.0
 11
-220.8021408993
 21
-33.9968235372
 31
0.0
  0
LINE
  5
5C
100
AcDbEntity
  8
LY_3
  6
CONTINUOUS
 62
         3
100
AcDbLine
 10
-220.8025010627
 20
-3.4688438285
 30
0.0
 11
-220.8025010627
 21
-33.9969190905
 31
0.0
  0
LINE
  5
5D
100
AcDbEntity
  8
LY_3
  6
CONTINUOUS
 62
         3
100
AcDbLine
 10
-217.8022226199
 20
-29.8451984842
 30
0.0
 11
-220.8022090228
 21
-11.2753101537
 31
0.0
  0
LINE
  5
5E
100
AcDbEntity
  8
LY_3
  6
CONTINUOUS
 62
         3
100
AcDbLine
 10
-221.7026017439
 20
-9.4093801504
 30
0.0
 11
-187.3026241314
 21
-9.4093801504
 31
0.0
  0
LINE
  5
5F
100
AcDbEntity
  8
LY_3
  6
CONTINUOUS
 62
         3
100
AcDbLine
 10
-225.1025497627
 20
-8.6228506329
 30
0.0
 11
-220.8025010627
 21
-8.6228506329
 31
0.0
  0
LINE
  5
60
100
AcDbEntity
  8
LY_3
  6
CONTINUOUS
 62
         3
100
AcDbLine
 10
-230.8025770586
 20
-6.468843739
 30
0.0
 11
-230.8025770586
 21
-40.9688884872
 31
0.0
  0
LINE
  5
61
100
AcDbEntity
  8
LY_3
  6
CONTINUOUS
 62
         3
100
AcDbLine
 10
-178.2026488166
 20
-6.468843739
 30
0.0
 11
-178.2026488166
 21
-40.9688884872
 31
0.0
  0
LINE
  5
62
100
AcDbEntity
  8
LY_3
  6
CONTINUOUS
 62
         3
100
AcDbLine
 10
-183.9026303362
 20
-6.468843739
 30
0.0
 11
-178.3026243996
 21
-6.468843739
 31
0.0
  0
LINE
  5
63
100
AcDbEntity
  8
LY_3
  6
CONTINUOUS
 62
         3
100
AcDbLine
 10
-183.9026303362
 20
-11.2228566589
 30
0.0
 11
-178.4026915353
 21
-11.2228566589
 31
0.0
  0
LINE
  5
64
100
AcDbEntity
  8
LY_3
  6
CONTINUOUS
 62
         3
100
AcDbLine
 10
-183.9026303362
 20
-26.0229050459
 30
0.0
 11
-178.4026915353
 21
-26.0229050459
 31
0.0
  0
LINE
  5
65
100
AcDbEntity
  8
LY_3
  6
CONTINUOUS
 62
         3
100
AcDbLine
 10
-191.2024220211
 20
-29.8454493503
 30
0.0
 11
-188.2024356182
 21
-11.2755610198
 31
0.0
  0
LINE
  5
66
100
AcDbEntity
  8
LY_3
  6
CONTINUOUS
 62
         3
100
AcDbLine
 10
-188.2027248125
 20
-3.4688438285
 30
0.0
 11
-188.2027248125
 21
-33.9969190905
 31
0.0
  0
LINE
  5
67
100
AcDbEntity
  8
LY_3
  6
CONTINUOUS
 62
         3
100
AcDbLine
 10
-191.2021551681
 20
-36.9969885278
 30
0.0
 11
-188.2021843902
 21
-33.9970177499
 31
0.0
  0
LINE
  5
68
100
AcDbEntity
  8
LY_3
  6
CONTINUOUS
 62
         3
100
AcDbLine
 10
-191.2027247231
 20
-29.8450484867
 30
0.0
 11
-191.2027247231
 21
-36.9969190011
 31
0.0
  0
LINE
  5
69
100
AcDbEntity
  8
LY_3
  6
CONTINUOUS
 62
         3
100
AcDbLine
 10
-188.2027248125
 20
-8.6228506329
 30
0.0
 11
-183.9026303362
 21
-8.6228506329
 31
0.0
  0
LINE
  5
6A
100
AcDbEntity
  8
LY_3
  6
CONTINUOUS
 62
         3
100
AcDbLine
 10
-188.2027248125
 20
-28.6229568483
 30
0.0
 11
-183.9026303362
 21
-28.6229568483
 31
0.0
  0
LINE
  5
6B
100
AcDbEntity
  8
LY_3
  6
CONTINUOUS
 62
         3
100
AcDbLine
 10
-225.1025497627
 20
-28.6229568483
 30
0.0
 11
-220.8025010627
 21
-28.6229568483
 31
0.0
  0
LINE
  5
6C
100
AcDbEntity
  8
LY_3
  6
CONTINUOUS
 62
         3
100
AcDbLine
 10
-225.1025497627
 20
-6.468843739
 30
0.0
 11
-225.1025497627
 21
-36.9969190011
 31
0.0
  0
LINE
  5
6D
100
AcDbEntity
  8
LY_3
  6
CONTINUOUS
 62
         3
100
AcDbLine
 10
-183.9026303362
 20
-6.468843739
 30
0.0
 11
-183.9026303362
 21
-36.9969190011
 31
0.0
  0
LINE
  5
6E
100
AcDbEntity
  8
LY_3
  6
CONTINUOUS
 62
         3
100
AcDbLine
 10
-230.8025770586
 20
-6.468843739
 30
0.0
 11
-225.1025497627
 21
-6.468843739
 31
0.0
  0
LINE
  5
6F
100
AcDbEntity
  8
LY_3
  6
CONTINUOUS
 62
         3
100
AcDbLine
 10
-225.102595539
 20
-26.0229050459
 30
0.0
 11
-230.6025343399
 21
-26.0229050459
 31
0.0
  0
LINE
  5
70
100
AcDbEntity
  8
LY_3
  6
CONTINUOUS
 62
         3
100
AcDbLine
 10
-225.102595539
 20
-11.2228566589
 30
0.0
 11
-230.6025343399
 21
-11.2228566589
 31
0.0
  0
LINE
  5
71
100
AcDbEntity
  8
LY_3
  6
CONTINUOUS
 62
         3
100
AcDbLine
 10
-217.8025011521
 20
-29.8450484867
 30
0.0
 11
-191.2027247231
 21
-29.8450484867
 31
0.0
  0
LINE
  5
72
100
AcDbEntity
  8
LY_3
  6
CONTINUOUS
 62
         3
100
AcDbLine
 10
-221.7026017439
 20
-9.4093801504
 30
0.0
 11
-221.7026017439
 21
-29.6229415597
 31
0.0
  0
LINE
  5
73
100
AcDbEntity
  8
LY_3
  6
CONTINUOUS
 62
         3
100
AcDbLine
 10
-187.3026241314
 20
-9.4093801504
 30
0.0
 11
-187.3026241314
 21
-29.6229415597
 31
0.0
  0
LINE
  5
74
100
AcDbEntity
  8
LY_3
  6
CONTINUOUS
 62
         3
100
AcDbLine
 10
-217.8021377526
 20
-209.9409454192
 30
0.0
 11
-220.8021408993
 21
-212.9409485659
 31
0.0
  0
LINE
  5
75
100
AcDbEntity
  8
LY_3
  6
CONTINUOUS
 62
         3
100
AcDbLine
 10
-220.8025010627
 20
-243.4689310896
 30
0.0
 11
-220.8025010627
 21
-212.9408881929
 31
0.0
  0
LINE
  5
76
100
AcDbEntity
  8
LY_3
  6
CONTINUOUS
 62
         3
100
AcDbLine
 10
-191.2021875369
 20
-209.9408159441
 30
0.0
 11
-188.202216759
 21
-212.940786722
 31
0.0
  0
LINE
  5
77
100
AcDbEntity
  8
LY_3
  6
CONTINUOUS
 62
         3
100
AcDbLine
 10
-188.2027248125
 20
-243.4689310896
 30
0.0
 11
-188.2027248125
 21
-212.9408881929
 31
0.0
  0
LINE
  5
78
100
AcDbEntity
  8
LY_3
  6
CONTINUOUS
 62
         3
100
AcDbLine
 10
-188.2027248125
 20
-238.3149242852
 30
0.0
 11
-183.9026303362
 21
-238.3149242852
 31
0.0
  0
LINE
  5
79
100
AcDbEntity
  8
LY_3
  6
CONTINUOUS
 62
         3
100
AcDbLine
 10
-188.2027248125
 20
-218.314849541
 30
0.0
 11
-183.9026303362
 21
-218.314849541
 31
0.0
  0
LINE
  5
7A
100
AcDbEntity
  8
LY_3
  6
CONTINUOUS
 62
         3
100
AcDbLine
 10
-183.9026303362
 20
-240.4689311791
 30
0.0
 11
-183.9026303362
 21
-209.9408902493
 31
0.0
  0
LINE
  5
7B
100
AcDbEntity
  8
LY_3
  6
CONTINUOUS
 62
         3
100
AcDbLine
 10
-183.9026303362
 20
-220.9149013434
 30
0.0
 11
-178.4027373116
 21
-220.9149013434
 31
0.0
  0
LINE
  5
7C
100
AcDbEntity
  8
LY_3
  6
CONTINUOUS
 62
         3
100
AcDbLine
 10
-178.2026488166
 20
-240.4689311791
 30
0.0
 11
-178.2026488166
 21
-205.9688835698
 31
0.0
  0
LINE
  5
7D
100
AcDbEntity
  8
LY_3
  6
CONTINUOUS
 62
         3
100
AcDbLine
 10
-183.9026303362
 20
-235.7149153982
 30
0.0
 11
-178.4027373116
 21
-235.7149153982
 31
0.0
  0
LINE
  5
7E
100
AcDbEntity
  8
LY_3
  6
CONTINUOUS
 62
         3
100
AcDbLine
 10
-183.9026303362
 20
-240.4689311791
 30
0.0
 11
-178.302670176
 21
-240.4689311791
 31
0.0
  0
LINE
  5
7F
100
AcDbEntity
  8
LY_3
  6
CONTINUOUS
 62
         3
100
AcDbLine
 10
-225.1025497627
 20
-238.3149242852
 30
0.0
 11
-220.8025010627
 21
-238.3149242852
 31
0.0
  0
LINE
  5
80
100
AcDbEntity
  8
LY_3
  6
CONTINUOUS
 62
         3
100
AcDbLine
 10
-225.1025497627
 20
-218.314849541
 30
0.0
 11
-220.8025010627
 21
-218.314849541
 31
0.0
  0
LINE
  5
81
100
AcDbEntity
  8
LY_3
  6
CONTINUOUS
 62
         3
100
AcDbLine
 10
-225.102595539
 20
-220.9149013434
 30
0.0
 11
-230.6025343399
 21
-220.9149013434
 31
0.0
  0
LINE
  5
82
100
AcDbEntity
  8
LY_3
  6
CONTINUOUS
 62
         3
100
AcDbLine
 10
-225.1025497627
 20
-240.4689311791
 30
0.0
 11
-225.1025497627
 21
-209.9408902493
 31
0.0
  0
LINE
  5
83
100
AcDbEntity
  8
LY_3
  6
CONTINUOUS
 62
         3
100
AcDbLine
 10
-230.8025770586
 20
-240.4689311791
 30
0.0
 11
-230.8025770586
 21
-205.9688835698
 31
0.0
  0
LINE
  5
84
100
AcDbEntity
  8
LY_3
  6
CONTINUOUS
 62
         3
100
AcDbLine
 10
-225.102595539
 20
-235.7149153982
 30
0.0
 11
-230.6025343399
 21
-235.7149153982
 31
0.0
  0
LINE
  5
85
100
AcDbEntity
  8
LY_3
  6
CONTINUOUS
 62
         3
100
AcDbLine
 10
-230.8025770586
 20
-240.4689311791
 30
0.0
 11
-225.1025497627
 21
-240.4689311791
 31
0.0
  0
LINE
  5
86
100
AcDbEntity
  8
LY_3
  6
CONTINUOUS
 62
         3
100
AcDbLine
 10
-228.5026351105
 20
-271.468866359
 30
0.0
 11
-228.5026351105
 21
-253.4688812006
 31
0.0
  0
LINE
  5
88
100
AcDbEntity
  8
LY_3
  6
DASHED
 62
        80
100
AcDbLine
 10
18.8229202915
 20
-42.5944045367
 30
0.0
 11
-2.8329367198
 21
-20.9384160925
 31
0.0
  0
LINE
  5
89
100
AcDbEntity
  8
LY_3
  6
CENTER
 62
        80
100
AcDbLine
 10
-5.6613207842
 20
-10.3318384766
 30
0.0
 11
25.7736972321
 21
-41.7670472772
 31
0.0
  0
LINE
  5
8A
100
AcDbEntity
  8
LY_3
  6
DASHED
 62
        80
100
AcDbLine
 10
15.6318932879
 20
-22.4327444249
 30
0.0
 11
6.4394559323
 21
-31.6251259905
 31
0.0
  0
LINE
  5
8B
100
AcDbEntity
  8
LY_3
  6
DASHED
 62
        80
100
AcDbLine
 10
1.763185034
 20
-26.9488267111
 30
0.0
 11
10.9556223897
 21
-17.7564451456
 31
0.0
  0
LINE
  5
8C
100
AcDbEntity
  8
LY_3
  6
DASHED
 62
        80
100
AcDbLine
 10
3.8845053143
 20
-26.9488331484
 30
0.0
 11
10.9556159524
 21
-19.8777654259
 31
0.0
  0
LINE
  5
8D
100
AcDbEntity
  8
LY_3
  6
DASHED
 62
        80
100
AcDbLine
 10
6.4394559323
 20
-31.6251259905
 30
0.0
 11
-3.5400672049
 21
-21.6455422859
 31
0.0
  0
LINE
  5
8E
100
AcDbEntity
  8
LY_3
  6
DASHED
 62
        80
100
AcDbLine
 10
15.6318932879
 20
-22.4327444249
 30
0.0
 11
5.6523701508
 21
-12.4531607204
 31
0.0
  0
LINE
  5
8F
100
AcDbEntity
  8
LY_3
  6
DASHED
 62
        80
100
AcDbLine
 10
10.9555579693
 20
-19.8777025924
 30
0.0
 11
10.9555579693
 21
-17.7563800237
 31
0.0
  0
LINE
  5
90
100
AcDbEntity
  8
LY_3
  6
DASHED
 62
        80
100
AcDbLine
 10
26.6010643082
 20
-34.8162429892
 30
0.0
 11
4.9452396656
 21
-13.1602869138
 31
0.0
  0
LINE
  5
91
100
AcDbEntity
  8
LY_3
  6
DASHED
 62
        80
100
AcDbLine
 10
1.7632059484
 20
-26.9487320447
 30
0.0
 11
3.884528517
 21
-26.9487320447
 31
0.0
  0
LINE
  5
92
100
AcDbEntity
  8
LY_3
  6
CONTINUOUS
 62
         3
100
AcDbLine
 10
-168.5026368987
 20
-3.4688896048
 30
0.0
 11
-168.5026368987
 21
-18.4688891578
 31
0.0
  0
LINE
  5
93
100
AcDbEntity
  8
LY_3
  6
CONTINUOUS
 62
         3
100
AcDbLine
 10
-240.5026347529
 20
-3.4688896048
 30
0.0
 11
-240.5026347529
 21
-18.4688891578
 31
0.0
  0
LINE
  5
94
100
AcDbEntity
  8
LY_3
  6
CONTINUOUS
 62
         3
100
AcDbLine
 10
-168.5026368987
 20
-228.4688828993
 30
0.0
 11
-168.5026368987
 21
-243.4688824523
 31
0.0
  0
LINE
  5
95
100
AcDbEntity
  8
LY_3
  6
CONTINUOUS
 62
         3
100
AcDbLine
 10
-240.5026347529
 20
-228.4688828993
 30
0.0
 11
-240.5026347529
 21
-243.4688824523
 31
0.0
  0
LINE
  5
96
100
AcDbEntity
  8
LY_3
  6
DASHED
 62
        80
100
AcDbLine
 10
6.3595358682
 20
-11.7460395328
 30
0.0
 11
-4.2470979022
 21
-22.3526733033
 31
0.0
  0
LINE
  5
97
100
AcDbEntity
  8
LY_3
  6
DASHED
 62
        80
100
AcDbLine
 10
3.3059364268
 20
-8.6924517852
 30
0.0
 11
6.3594682672
 21
-11.746002158
 31
0.0
  0
LINE
  5
98
100
AcDbEntity
  8
LY_3
  6
DASHED
 62
        80
100
AcDbLine
 10
-7.3006971616
 20
-19.2990857379
 30
0.0
 11
-4.2471653211
 21
-22.3526361107
 31
0.0
  0
LINE
  5
99
100
AcDbEntity
  8
LY_3
  6
DASHED
 62
        80
100
AcDbLine
 10
26.601193868
 20
-212.1216864595
 30
0.0
 11
4.9451851932
 21
-233.7775637012
 31
0.0
  0
LINE
  5
9A
100
AcDbEntity
  8
LY_3
  6
CENTER
 62
        80
100
AcDbLine
 10
-5.6613924227
 20
-236.6059477656
 30
0.0
 11
25.7738366085
 21
-205.1709095189
 31
0.0
  0
LINE
  5
9B
100
AcDbEntity
  8
LY_3
  6
DASHED
 62
        80
100
AcDbLine
 10
6.4395135256
 20
-215.3127336935
 30
0.0
 11
15.6318950912
 21
-224.5051710492
 31
0.0
  0
LINE
  5
9C
100
AcDbEntity
  8
LY_3
  6
DASHED
 62
        80
100
AcDbLine
 10
10.9555958118
 20
-229.1814419474
 30
0.0
 11
1.7632142463
 21
-219.9890045918
 31
0.0
  0
LINE
  5
9D
100
AcDbEntity
  8
LY_3
  6
DASHED
 62
        80
100
AcDbLine
 10
10.9556022491
 20
-227.0601216671
 30
0.0
 11
3.8845345266
 21
-219.9890110291
 31
0.0
  0
LINE
  5
9E
100
AcDbEntity
  8
LY_3
  6
DASHED
 62
        80
100
AcDbLine
 10
15.6318950912
 20
-224.5051710492
 30
0.0
 11
5.6523113866
 21
-234.4846941863
 31
0.0
  0
LINE
  5
9F
100
AcDbEntity
  8
LY_3
  6
DASHED
 62
        80
100
AcDbLine
 10
6.4395135256
 20
-215.3127336935
 30
0.0
 11
-3.5400701789
 21
-225.2922568307
 31
0.0
  0
LINE
  5
A0
100
AcDbEntity
  8
LY_3
  6
DASHED
 62
        80
100
AcDbLine
 10
3.8844827406
 20
-219.9890514565
 30
0.0
 11
1.763160172
 21
-219.9890514565
 31
0.0
  0
LINE
  5
A1
100
AcDbEntity
  8
LY_3
  6
DASHED
 62
        80
100
AcDbLine
 10
18.8230323204
 20
-204.3435424428
 30
0.0
 11
-2.8329439855
 21
-225.9993873158
 31
0.0
  0
LINE
  5
A2
100
AcDbEntity
  8
LY_3
  6
DASHED
 62
        80
100
AcDbLine
 10
10.955512193
 20
-229.1814206436
 30
0.0
 11
10.955512193
 21
-227.0600980749
 31
0.0
  0
LINE
  5
A3
100
AcDbEntity
  8
LY_3
  6
DASHED
 62
        80
100
AcDbLine
 10
-4.2472273773
 20
-224.5850987997
 30
0.0
 11
6.3594063931
 21
-235.1917325702
 31
0.0
  0
LINE
  5
A4
100
AcDbEntity
  8
LY_3
  6
DASHED
 62
        80
100
AcDbLine
 10
-7.3007791141
 20
-227.6386905547
 30
0.0
 11
-4.2472287413
 21
-224.5851587142
 31
0.0
  0
LINE
  5
A5
100
AcDbEntity
  8
LY_3
  6
DASHED
 62
        80
100
AcDbLine
 10
3.3058548386
 20
-238.245324143
 30
0.0
 11
6.3594052114
 21
-235.1917923026
 31
0.0
  0
LINE
  5
A6
100
AcDbEntity
  8
LY_3
  6
DASHED
 62
        80
100
AcDbLine
 10
196.1284879291
 20
-204.3434007448
 30
0.0
 11
217.7843651708
 21
-225.9994094196
 31
0.0
  0
LINE
  5
A7
100
AcDbEntity
  8
LY_3
  6
CENTER
 62
        80
100
AcDbLine
 10
220.6127492352
 20
-236.6059870355
 30
0.0
 11
189.1777109884
 21
-205.1707580043
 31
0.0
  0
LINE
  5
A8
100
AcDbEntity
  8
LY_3
  6
DASHED
 62
        80
100
AcDbLine
 10
199.3195351631
 20
-224.5050810872
 30
0.0
 11
208.5119725187
 21
-215.3126995216
 31
0.0
  0
LINE
  5
A9
100
AcDbEntity
  8
LY_3
  6
DASHED
 62
        80
100
AcDbLine
 10
213.188243417
 20
-219.9889988009
 30
0.0
 11
203.9958060614
 21
-229.1813803665
 31
0.0
  0
LINE
  5
AA
100
AcDbEntity
  8
LY_3
  6
DASHED
 62
        80
100
AcDbLine
 10
211.0669231367
 20
-219.9889923636
 30
0.0
 11
203.9958124987
 21
-227.0600600862
 31
0.0
  0
LINE
  5
AB
100
AcDbEntity
  8
LY_3
  6
DASHED
 62
        80
100
AcDbLine
 10
208.5119725187
 20
-215.3126995216
 30
0.0
 11
218.4914956559
 21
-225.2922832261
 31
0.0
  0
LINE
  5
AC
100
AcDbEntity
  8
LY_3
  6
DASHED
 62
        80
100
AcDbLine
 10
199.3195351631
 20
-224.5050810872
 30
0.0
 11
209.2990583002
 21
-234.4846647917
 31
0.0
  0
LINE
  5
AD
100
AcDbEntity
  8
LY_3
  6
DASHED
 62
        80
100
AcDbLine
 10
203.995865937
 20
-227.0601123801
 30
0.0
 11
203.995865937
 21
-229.1814349487
 31
0.0
  0
LINE
  5
AE
100
AcDbEntity
  8
LY_3
  6
DASHED
 62
        80
100
AcDbLine
 10
188.3503439124
 20
-212.1215622923
 30
0.0
 11
210.0061887854
 21
-233.7775385982
 31
0.0
  0
LINE
  5
AF
100
AcDbEntity
  8
LY_3
  6
DASHED
 62
        80
100
AcDbLine
 10
213.188217958
 20
-219.9890829277
 30
0.0
 11
211.0668953894
 21
-219.9890829277
 31
0.0
  0
LINE
  5
B0
100
AcDbEntity
  8
LY_3
  6
DASHED
 62
        80
100
AcDbLine
 10
208.5918642583
 20
-235.1918296766
 30
0.0
 11
219.1984980288
 21
-224.5851959061
 31
0.0
  0
LINE
  5
B1
100
AcDbEntity
  8
LY_3
  6
DASHED
 62
        80
100
AcDbLine
 10
211.6454920242
 20
-238.2453737269
 30
0.0
 11
208.5919601838
 21
-235.191823354
 31
0.0
  0
LINE
  5
B2
100
AcDbEntity
  8
LY_3
  6
DASHED
 62
        80
100
AcDbLine
 10
222.2521256126
 20
-227.6387397742
 30
0.0
 11
219.1985937721
 21
-224.5851894013
 31
0.0
  0
LINE
  5
B3
100
AcDbEntity
  8
LY_3
  6
DASHED
 62
        80
100
AcDbLine
 10
188.3502022144
 20
-34.8161066837
 30
0.0
 11
210.0062108892
 21
-13.160229442
 31
0.0
  0
LINE
  5
B4
100
AcDbEntity
  8
LY_3
  6
CENTER
 62
        80
100
AcDbLine
 10
220.6127885051
 20
-10.3318453775
 30
0.0
 11
189.1775594739
 21
-41.7668836243
 31
0.0
  0
LINE
  5
B5
100
AcDbEntity
  8
LY_3
  6
DASHED
 62
        80
100
AcDbLine
 10
208.5118825568
 20
-31.6250594497
 30
0.0
 11
199.3195009912
 21
-22.432622094
 31
0.0
  0
LINE
  5
B6
100
AcDbEntity
  8
LY_3
  6
DASHED
 62
        80
100
AcDbLine
 10
203.9958002705
 20
-17.7563511957
 30
0.0
 11
213.1881818361
 21
-26.9487885514
 31
0.0
  0
LINE
  5
B7
100
AcDbEntity
  8
LY_3
  6
DASHED
 62
        80
100
AcDbLine
 10
203.9957938332
 20
-19.8776714761
 30
0.0
 11
211.0668615557
 21
-26.9487821141
 31
0.0
  0
LINE
  5
B8
100
AcDbEntity
  8
LY_3
  6
DASHED
 62
        80
100
AcDbLine
 10
199.3195009912
 20
-22.432622094
 30
0.0
 11
209.2990846957
 21
-12.4530989569
 31
0.0
  0
LINE
  5
B9
100
AcDbEntity
  8
LY_3
  6
DASHED
 62
        80
100
AcDbLine
 10
208.5118825568
 20
-31.6250594497
 30
0.0
 11
218.4914662613
 21
-21.6455363125
 31
0.0
  0
LINE
  5
BA
100
AcDbEntity
  8
LY_3
  6
DASHED
 62
        80
100
AcDbLine
 10
211.0668953894
 20
-26.9487320447
 30
0.0
 11
213.188217958
 21
-26.9487320447
 31
0.0
  0
LINE
  5
BB
100
AcDbEntity
  8
LY_3
  6
DASHED
 62
        80
100
AcDbLine
 10
196.1283637619
 20
-42.5942507004
 30
0.0
 11
217.7843400678
 21
-20.9384058274
 31
0.0
  0
LINE
  5
BC
100
AcDbEntity
  8
LY_3
  6
DASHED
 62
        80
100
AcDbLine
 10
203.995865937
 20
-17.7563800237
 30
0.0
 11
203.995865937
 21
-19.8777025924
 31
0.0
  0
LINE
  5
BD
100
AcDbEntity
  8
LY_3
  6
DASHED
 62
        80
100
AcDbLine
 10
219.1985951351
 20
-22.3527380409
 30
0.0
 11
208.5919613647
 21
-11.7461042704
 31
0.0
  0
LINE
  5
BE
100
AcDbEntity
  8
LY_3
  6
DASHED
 62
        80
100
AcDbLine
 10
222.2521751965
 20
-19.2991025885
 30
0.0
 11
219.1986248236
 21
-22.352634429
 31
0.0
  0
LINE
  5
BF
100
AcDbEntity
  8
LY_3
  6
DASHED
 62
        80
100
AcDbLine
 10
211.6455412438
 20
-8.6924690002
 30
0.0
 11
208.5919908709
 21
-11.7460008406
 31
0.0
  0
LINE
  5
C0
100
AcDbEntity
  8
LY_3
  6
CONTINUOUS
 62
         3
100
AcDbLine
 10
-249.5026344847
 20
-36.9969190011
 30
0.0
 11
-234.802607457
 21
-36.9969190011
 31
0.0
  0
LINE
  5
C1
100
AcDbEntity
  8
LY_3
  6
CONTINUOUS
 62
         3
100
AcDbLine
 10
-174.2026184183
 20
-36.9969190011
 30
0.0
 11
-159.5026371669
 21
-36.9969190011
 31
0.0
  0
LINE
  5
C2
100
AcDbEntity
  8
LY_3
  6
CONTINUOUS
 62
         3
100
AcDbLine
 10
-234.802607457
 20
-209.9408902493
 30
0.0
 11
-249.5026344847
 21
-209.9408902493
 31
0.0
  0
LINE
  5
C3
100
AcDbEntity
  8
LY_3
  6
CONTINUOUS
 62
         3
100
AcDbLine
 10
-159.5026371669
 20
-209.9408902493
 30
0.0
 11
-174.2026184183
 21
-209.9408902493
 31
0.0
  0
LINE
  5
C4
100
AcDbEntity
  8
LY_3
  6
CENTER
 62
        80
100
AcDbLine
 10
107.4757119532
 20
-243.4688480532
 30
0.0
 11
107.4757119532
 21
-281.4688852013
 31
0.0
  0
LINE
  5
C5
100
AcDbEntity
  8
LY_3
  6
CENTER
 62
        80
100
AcDbLine
 10
227.4756739778
 20
-123.4688860285
 30
0.0
 11
265.4757111259
 21
-123.4688860285
 31
0.0
  0
CIRCLE
  5
C6
100
AcDbEntity
  8
LY_3
  6
CONTINUOUS
 62
         3
100
AcDbCircle
 10
107.4757119532
 20
-123.4688860285
 30
0.0
 40
154.9999648631
  0
CIRCLE
  5
C7
100
AcDbEntity
  8
LY_3
  6
CONTINUOUS
 62
         3
100
AcDbCircle
 10
107.4757119532
 20
-123.4688860285
 30
0.0
 40
119.9999964237
  0
CIRCLE
  5
C8
100
AcDbEntity
  8
LY_3
  6
CONTINUOUS
 62
         3
100
AcDbCircle
 10
107.4757119532
 20
-123.4688860285
 30
0.0
 40
84.999982208
  0
ARC
  5
C9
100
AcDbEntity
  8
LY_3
  6
CONTINUOUS
 62
         3
100
AcDbCircle
 10
107.4757119532
 20
-123.4688860285
 30
0.0
 40
64.9999675453
100
AcDbArc
 50
104.2499969246
 51
75.7499498004
  0
ARC
  5
CA
100
AcDbEntity
  8
LY_3
  6
CENTER
 62
        80
100
AcDbCircle
 10
107.4757119532
 20
-123.4688860285
 30
0.0
 40
138.9999805987
100
AcDbArc
 50
22.1620923849
 51
37.8379058697
  0
ARC
  5
CB
100
AcDbEntity
  8
LY_3
  6
CENTER
 62
        80
100
AcDbCircle
 10
107.4757119532
 20
-123.4688860285
 30
0.0
 40
138.9999805987
100
AcDbArc
 50
172.1620760684
 51
187.8379066287
  0
ARC
  5
CC
100
AcDbEntity
  8
LY_3
  6
CENTER
 62
        80
100
AcDbCircle
 10
107.4757119532
 20
-123.4688860285
 30
0.0
 40
138.9999805987
100
AcDbArc
 50
82.1620940545
 51
97.837912896
  0
ARC
  5
CD
100
AcDbEntity
  8
LY_3
  6
CENTER
 62
        80
100
AcDbCircle
 10
107.4757119532
 20
-123.4688860285
 30
0.0
 40
138.9999805987
100
AcDbArc
 50
352.1620949651
 51
7.8379050349
  0
ARC
  5
CE
100
AcDbEntity
  8
LY_3
  6
CENTER
 62
        80
100
AcDbCircle
 10
107.4757119532
 20
-123.4688860285
 30
0.0
 40
138.9999805987
100
AcDbArc
 50
202.1620873759
 51
217.8379179362
  0
ARC
  5
CF
100
AcDbEntity
  8
LY_3
  6
CENTER
 62
        80
100
AcDbCircle
 10
107.4757119532
 20
-123.4688860285
 30
0.0
 40
138.9999805987
100
AcDbArc
 50
142.1620820638
 51
157.8379126241
  0
ARC
  5
D0
100
AcDbEntity
  8
LY_3
  6
CENTER
 62
        80
100
AcDbCircle
 10
107.4757119532
 20
-123.4688860285
 30
0.0
 40
138.9999805987
100
AcDbArc
 50
232.1621360221
 51
247.8379119409
  0
ARC
  5
D1
100
AcDbEntity
  8
LY_3
  6
CENTER
 62
        80
100
AcDbCircle
 10
107.4757119532
 20
-123.4688860285
 30
0.0
 40
138.9999805987
100
AcDbArc
 50
52.1620966348
 51
67.8378759687
  0
ARC
  5
D2
100
AcDbEntity
  8
LY_3
  6
CENTER
 62
        80
100
AcDbCircle
 10
107.4757119532
 20
-123.4688860285
 30
0.0
 40
138.9999805987
100
AcDbArc
 50
322.1620941303
 51
337.8379076151
  0
CIRCLE
  5
D3
100
AcDbEntity
  8
LY_3
  6
CONTINUOUS
 62
         3
100
AcDbCircle
 10
71.4998371708
 20
10.7947971039
 30
0.0
 40
8.7499978319
  0
CIRCLE
  5
D4
100
AcDbEntity
  8
LY_3
  6
CONTINUOUS
 62
         3
100
AcDbCircle
 10
143.4515409591
 20
-257.7325806051
 30
0.0
 40
8.7499978319
  0
ARC
  5
D5
100
AcDbEntity
  8
LY_3
  6
CENTER
 62
        80
100
AcDbCircle
 10
107.4757119532
 20
-123.4688860285
 30
0.0
 40
138.9999805987
100
AcDbArc
 50
262.1621300267
 51
277.837912896
  0
ARC
  5
D6
100
AcDbEntity
  8
LY_3
  6
CENTER
 62
        80
100
AcDbCircle
 10
107.4757119532
 20
-123.4688860285
 30
0.0
 40
138.9999805987
100
AcDbArc
 50
112.1620809275
 51
127.7345915177
  0
ARC
  5
D7
100
AcDbEntity
  8
LY_3
  6
CENTER
 62
        80
100
AcDbCircle
 10
107.4757119532
 20
-123.4688860285
 30
0.0
 40
138.9999805987
100
AcDbArc
 50
292.1620809275
 51
307.7346172446
  0
MTEXT
  5
D8
100
AcDbEntity
  8
LY_3
  6
CONTINUOUS
 62
       110
100
AcDbMText
 10
-34.9130047692
 20
69.1865802765
 30
0.0
 40
15.0
 41
0.0
 71
         1
 72
         1
  1
\W1.111;\A1;BR130
  0
MTEXT
  5
D9
100
AcDbEntity
  8
LY_3
  6
CONTINUOUS
 62
       110
100
AcDbMText
 10
-68.2430553901
 20
92.6673583984
 30
0.0
 40
13.0
 41
0.0
 71
         1
 72
         1
  1
\W1.042;\A1;CAM CLUTCH
  0
ENDSEC
  0
SECTION
  2
OBJECTS
  0
DICTIONARY
  5
19
100
AcDbDictionary
  3
ACAD_GROUP
350
1A
  3
ACAD_MLINESTYLE
350
1B
  0
DICTIONARY
  5
1A
102
{ACAD_REACTORS
330
19
102
}
100
AcDbDictionary
  0
DICTIONARY
  5
1B
102
{ACAD_REACTORS
330
19
102
}
100
AcDbDictionary
  3
STANDARD
350
1C
  0
MLINESTYLE
  5
1C
102
{ACAD_REACTORS
330
1B
102
}
100
AcDbMlineStyle
  2
Standard
 70
         0
  3

 62
         0
 51
90.0
 52
90.0
 71
         2
 49
0.5
 62
       256
  6
ByLayer
 49
-0.5
 62
       256
  6
ByLayer
  0
ENDSEC
  0
EOF
