  0
SECTION
  2
HEADER
  9
$ACADVER
  1
AC1014
  9
$ACADMAINTVER
 70
         0
  9
$DWGCODEPAGE
  3
ANSI_932
  9
$INSBASE
 10
0.0
 20
0.0
 30
0.0
  9
$EXTMIN
 10
-215.2706425778
 20
-239.7863158538
 30
0.0
  9
$EXTMAX
 10
215.1279747098
 20
122.1256914138
 30
0.0
  9
$LIMMIN
 10
-215.2706425778
 20
-239.7863158538
  9
$LIMMAX
 10
215.1279747098
 20
122.1256914138
  9
$ORTHOMODE
 70
         0
  9
$REGENMODE
 70
         1
  9
$FILLMODE
 70
         1
  9
$QTEXTMODE
 70
         0
  9
$MIRRTEXT
 70
         1
  9
$DRAGMODE
 70
         2
  9
$LTSCALE
 40
1.0
  9
$OSMODE
 70
         0
  9
$ATTMODE
 70
         1
  9
$TEXTSIZE
 40
3.2000000477
  9
$TRACEWID
 40
0.05
  9
$TEXTSTYLE
  7
MX_NOTE_STANDARD
  9
$CLAYER
  8
0
  9
$CELTYPE
  6
CONTINUOUS
  9
$CECOLOR
 62
       256
  9
$CELTSCALE
 40
1.0
  9
$DELOBJ
 70
         1
  9
$DISPSILH
 70
         0
  9
$DIMSCALE
 40
1.0
  9
$DIMASZ
 40
2.5
  9
$DIMEXO
 40
0.0
  9
$DIMDLI
 40
3.75
  9
$DIMRND
 40
0.0
  9
$DIMDLE
 40
0.0
  9
$DIMEXE
 40
2.5
  9
$DIMTP
 40
0.0
  9
$DIMTM
 40
0.0
  9
$DIMTXT
 40
3.2000000477
  9
$DIMCEN
 40
2.5
  9
$DIMTSZ
 40
0.0
  9
$DIMTOL
 70
         0
  9
$DIMLIM
 70
         0
  9
$DIMTIH
 70
         0
  9
$DIMTOH
 70
         0
  9
$DIMSE1
 70
         0
  9
$DIMSE2
 70
         0
  9
$DIMTAD
 70
         1
  9
$DIMZIN
 70
         8
  9
$DIMBLK
  1

  9
$DIMASO
 70
         1
  9
$DIMSHO
 70
         1
  9
$DIMPOST
  1

  9
$DIMAPOST
  1

  9
$DIMALT
 70
         0
  9
$DIMALTD
 70
         4
  9
$DIMALTF
 40
0.0393700787
  9
$DIMLFAC
 40
1.0
  9
$DIMTOFL
 70
         1
  9
$DIMTVP
 40
0.0
  9
$DIMTIX
 70
         0
  9
$DIMSOXD
 70
         0
  9
$DIMSAH
 70
         1
  9
$DIMBLK1
  1
_OPEN30
  9
$DIMBLK2
  1
_OPEN30
  9
$DIMSTYLE
  2
MXDIMSTYLE
  9
$DIMCLRD
 70
         0
  9
$DIMCLRE
 70
         0
  9
$DIMCLRT
 70
         0
  9
$DIMTFAC
 40
1.0
  9
$DIMGAP
 40
1.0
  9
$DIMJUST
 70
         0
  9
$DIMSD1
 70
         0
  9
$DIMSD2
 70
         0
  9
$DIMTOLJ
 70
         0
  9
$DIMTZIN
 70
         0
  9
$DIMALTZ
 70
         0
  9
$DIMALTTZ
 70
         0
  9
$DIMFIT
 70
         3
  9
$DIMUPT
 70
         0
  9
$DIMUNIT
 70
         2
  9
$DIMDEC
 70
         2
  9
$DIMTDEC
 70
         2
  9
$DIMALTU
 70
         2
  9
$DIMALTTD
 70
         4
  9
$DIMTXSTY
  7
MX_NOTE_STANDARD
  9
$DIMAUNIT
 70
         0
  9
$LUNITS
 70
         2
  9
$LUPREC
 70
         4
  9
$SKETCHINC
 40
0.1
  9
$FILLETRAD
 40
0.0
  9
$AUNITS
 70
         0
  9
$AUPREC
 70
         0
  9
$MENU
  1
acad
  9
$ELEVATION
 40
0.0
  9
$PELEVATION
 40
0.0
  9
$THICKNESS
 40
0.0
  9
$LIMCHECK
 70
         0
  9
$BLIPMODE
 70
         1
  9
$CHAMFERA
 40
0.0
  9
$CHAMFERB
 40
0.0
  9
$CHAMFERC
 40
0.0
  9
$CHAMFERD
 40
0.0
  9
$SKPOLY
 70
         0
  9
$TDCREATE
 40
2456603.419490741
  9
$TDUPDATE
 40
2456603.419490741
  9
$TDINDWG
 40
0.0000000000
  9
$TDUSRTIMER
 40
0.0000000000
  9
$USRTIMER
 70
         1
  9
$ANGBASE
 50
0.0
  9
$ANGDIR
 70
         0
  9
$PDMODE
 70
         0
  9
$PDSIZE
 40
0.0
  9
$PLINEWID
 40
0.0
  9
$COORDS
 70
         1
  9
$SPLFRAME
 70
         0
  9
$SPLINETYPE
 70
         6
  9
$SPLINESEGS
 70
         8
  9
$ATTDIA
 70
         0
  9
$ATTREQ
 70
         1
  9
$HANDLING
 70
         1
  9
$HANDSEED
  5
EA
  9
$SURFTAB1
 70
         6
  9
$SURFTAB2
 70
         6
  9
$SURFTYPE
 70
         6
  9
$SURFU
 70
         6
  9
$SURFV
 70
         6
  9
$UCSNAME
  2

  9
$UCSORG
 10
0.0
 20
0.0
 30
0.0
  9
$UCSXDIR
 10
1.0
 20
0.0
 30
0.0
  9
$UCSYDIR
 10
0.0
 20
1.0
 30
0.0
  9
$PUCSNAME
  2

  9
$PUCSORG
 10
0.0
 20
0.0
 30
0.0
  9
$PUCSXDIR
 10
1.0
 20
0.0
 30
0.0
  9
$PUCSYDIR
 10
0.0
 20
1.0
 30
0.0
  9
$USERI1
 70
         0
  9
$USERI2
 70
         0
  9
$USERI3
 70
         0
  9
$USERI4
 70
         0
  9
$USERI5
 70
         0
  9
$USERR1
 40
0.0
  9
$USERR2
 40
0.0
  9
$USERR3
 40
0.0
  9
$USERR4
 40
0.0
  9
$USERR5
 40
0.0
  9
$WORLDVIEW
 70
         1
  9
$SHADEDGE
 70
         3
  9
$SHADEDIF
 70
        70
  9
$TILEMODE
 70
         1
  9
$MAXACTVP
 70
        16
  9
$PINSBASE
 10
0.0
 20
0.0
 30
0.0
  9
$PLIMCHECK
 70
         0
  9
$PEXTMIN
 10
1.0000000000E+20
 20
1.0000000000E+20
 30
1.0000000000E+20
  9
$PEXTMAX
 10
-1.0000000000E+20
 20
-1.0000000000E+20
 30
-1.0000000000E+20
  9
$PLIMMIN
 10
0.0
 20
0.0
  9
$PLIMMAX
 10
12.0
 20
9.0
  9
$UNITMODE
 70
         0
  9
$VISRETAIN
 70
         0
  9
$PLINEGEN
 70
         1
  9
$PSLTSCALE
 70
         0
  9
$TREEDEPTH
 70
      3020
  9
$PICKSTYLE
 70
         1
  9
$CMLSTYLE
  2
Standard
  9
$CMLJUST
 70
         0
  9
$CMLSCALE
 40
1.0
  9
$PROXYGRAPHICS
 70
         0
  9
$MEASUREMENT
 70
         1
  0
ENDSEC
  0
SECTION
  2
CLASSES
  0
CLASS
  1
LWPOLYLINE
  2
AcDbPolyline
  3
"AutoCAD"
 90
        0
280
         0
281
         1
  0
CLASS
  1
IMAGE
  2
AcDbRasterImage
  3
ISM
 90
      127
280
         0
281
         1
  0
CLASS
  1
OLE2FRAME
  2
AcDbOle2Frame
  3
""
 90
        0
280
         0
281
         1
  0
CLASS
  1
HATCH
  2
AcDbHatch
  3
"ACAD_SEDONA"
 90
        0
280
         0
281
         1
  0
CLASS
  1
DICTIONARYVAR
  2
AcDbDictionaryVar
  3
"AutoCAD"
 90
        0
280
         0
281
         0
  0
CLASS
  1
RASTERVARIABLES
  2
AcDbRasterVariables
  3
ISM
 90
        0
280
         0
281
         0
  0
CLASS
  1
IMAGEDEF
  2
AcDbRasterImageDef
  3
ISM
 90
        0
280
         0
281
         0
  0
CLASS
  1
IMAGEDEF_REACTOR
  2
AcDbRasterImageDefReactor
  3
ISM
 90
        1
280
         0
281
         0
  0
CLASS
  1
IDBUFFER
  2
AcDbIdBuffer
  3
"Acad"
 90
        0
280
         0
281
         0
  0
CLASS
  1
SPATIAL_FILTER
  2
AcDbSpatialFilter
  3
"Acad"
 90
        0
280
         0
281
         0
  0
CLASS
  1
XRECORD
  2
AcDbXrecord
  3
"<Built In>"
 90
        0
280
         0
281
         0
  0
CLASS
  1
SORTENTSTABLE
  2
AcDbSortentsTable
  3
"AutoCAD"
 90
        0
280
         0
281
         0
  0
CLASS
  1
LAYER_INDEX
  2
AcDbLayerIndex
  3
"Acad"
 90
        0
280
         0
281
         0
  0
CLASS
  1
SPATIAL_INDEX
  2
AcDbSpatialIndex
  3
"Acad"
 90
        0
280
         0
281
         0
  0
CLASS
  1
OBJECT_PTR
  2
CAseDLPNTableRecord
  3
"ASE-LPNTableRecord"
 90
        1
280
         0
281
         0
  0
CLASS
  1
LAYOUT
  2
AcDbLayout
  3
"AutoCAD 2000"
 90
        0
280
         0
281
         0
  0
CLASS
  1
PLOTSETTINGS
  2
AcDbPlotSettings
  3
"AutoCAD 2000"
 90
        0
280
         0
281
         0
  0
CLASS
  1
ACDBDICTIONARYWDFLT
  2
AcDbDictionaryWithDefault
  3
"AutoCAD 2000"
 90
        0
280
         0
281
         0
  0
CLASS
  1
ACDBPLACEHOLDER
  2
AcDbPlaceHolder
  3
"AutoCAD 2000"
 90
        0
280
         0
281
         0
  0
ENDSEC
  0
SECTION
  2
TABLES
  0
TABLE
  2
VPORT
  5
7
100
AcDbSymbolTable
 70
         1
  0
VPORT
  5
15
100
AcDbSymbolTableRecord
100
AcDbViewportTableRecord
  2
*ACTIVE
 70
         0
 10
0.0
 20
0.0
 11
1.0
 21
1.0
 12
-0.071333934
 22
-58.83031222
 13
0.0
 23
0.0
 14
1.0
 24
1.0
 15
0.0
 25
0.0
 16
0.0
 26
0.0
 36
1.0
 17
0.0
 27
0.0
 37
0.0
 40
365.5311273403
 41
1.7320508076
 42
50.0
 43
0.0
 44
0.0
 50
0.0
 51
0.0
 71
         0
 72
       100
 73
         1
 74
         1
 75
         0
 76
         0
 77
         0
 78
         0
  0
ENDTAB
  0
TABLE
  2
LTYPE
  5
4
100
AcDbSymbolTable
 70
         5
  0
LTYPE
  5
11
100
AcDbSymbolTableRecord
100
AcDbLinetypeTableRecord
  2
BYBLOCK
 70
        64
  3

 72
        65
 73
         0
 40
0.0
  0
LTYPE
  5
12
100
AcDbSymbolTableRecord
100
AcDbLinetypeTableRecord
  2
BYLAYER
 70
        64
  3

 72
        65
 73
         0
 40
0.0
  0
LTYPE
  5
13
100
AcDbSymbolTableRecord
100
AcDbLinetypeTableRecord
  2
CONTINUOUS
 70
        64
  3
Solid line
 72
        65
 73
         0
 40
0.0
  0
LTYPE
  5
29
100
AcDbSymbolTableRecord
100
AcDbLinetypeTableRecord
  2
CENTER
 70
        64
  3
Center ____ _ ____ _ ____ _ ____ _ ____ _ ____
 72
        65
 73
         4
 40
50.8
 49
31.75
 74
         0
 49
-6.35
 74
         0
 49
6.35
 74
         0
 49
-6.35
 74
         0
  0
LTYPE
  5
87
100
AcDbSymbolTableRecord
100
AcDbLinetypeTableRecord
  2
DASHED
 70
        64
  3
Dashed __ __ __ __ __ __ __ __ __ __ __ __ __ _
 72
        65
 73
         2
 40
19.05
 49
12.7
 74
         0
 49
-6.35
 74
         0
  0
ENDTAB
  0
TABLE
  2
LAYER
  5
2
100
AcDbSymbolTable
 70
         3
  0
LAYER
  5
14
100
AcDbSymbolTableRecord
100
AcDbLayerTableRecord
  2
0
 70
         0
 62
         7
  6
CONTINUOUS
  0
LAYER
  5
1D
100
AcDbSymbolTableRecord
100
AcDbLayerTableRecord
  2
DEFPOINTS
 70
         0
 62
         7
  6
CONTINUOUS
  0
LAYER
  5
1E
100
AcDbSymbolTableRecord
100
AcDbLayerTableRecord
  2
LY_3
 70
         0
 62
         7
  6
CONTINUOUS
  0
ENDTAB
  0
TABLE
  2
STYLE
  5
3
100
AcDbSymbolTable
 70
         1
  0
STYLE
  5
17
100
AcDbSymbolTableRecord
100
AcDbTextStyleTableRecord
  2
MX_NOTE_STANDARD
 70
         0
 40
0.0
 41
1.0
 50
0.0
 71
         0
 42
3.2000000477
  3
txt.shx
  4
extfont.shx
  0
ENDTAB
  0
TABLE
  2
VIEW
  5
5
100
AcDbSymbolTable
 70
         0
  0
ENDTAB
  0
TABLE
  2
UCS
  5
6
100
AcDbSymbolTable
 70
         0
  0
ENDTAB
  0
TABLE
  2
APPID
  5
8
100
AcDbSymbolTable
 70
         1
  0
APPID
  5
16
100
AcDbSymbolTableRecord
100
AcDbRegAppTableRecord
  2
ACAD
 70
         0
  0
ENDTAB
  0
TABLE
  2
DIMSTYLE
  5
9
100
AcDbSymbolTable
 70
         1
  0
DIMSTYLE
105
18
100
AcDbSymbolTableRecord
100
AcDbDimStyleTableRecord
  2
MXDIMSTYLE
 70
         0
  3

  4

  5

  6
_OPEN30
  7
_OPEN30
 40
1.0
 41
2.5
 42
0.0
 43
3.75
 44
2.5
 45
0.0
 46
0.0
 47
0.0
 48
0.0
 71
         0
 72
         0
 73
         0
 74
         0
 75
         0
 76
         0
 77
         1
 78
         8
140
3.2000000477
141
2.5
142
0.0
143
0.0393700787
144
1.0
145
0.0
146
1.0
147
1.0
170
         0
171
         4
172
         1
173
         1
174
         0
175
         0
176
         0
177
         0
178
         0
270
         2
271
         2
272
         2
273
         2
274
         4
275
         0
280
         0
281
         0
282
         0
283
         0
284
         0
285
         0
286
         0
287
         3
288
         0
340
17
  0
ENDTAB
  0
TABLE
  2
BLOCK_RECORD
  5
1
100
AcDbSymbolTable
 70
         1
  0
BLOCK_RECORD
  5
A
100
AcDbSymbolTableRecord
100
AcDbBlockTableRecord
  2
*MODEL_SPACE
  0
BLOCK_RECORD
  5
B
100
AcDbSymbolTableRecord
100
AcDbBlockTableRecord
  2
*PAPER_SPACE
  0
BLOCK_RECORD
  5
1F
100
AcDbSymbolTableRecord
100
AcDbBlockTableRecord
  2
_OPEN30
  0
ENDTAB
  0
ENDSEC
  0
SECTION
  2
BLOCKS
  0
BLOCK
  5
D
100
AcDbEntity
  8
0
100
AcDbBlockBegin
  2
*MODEL_SPACE
 70
         0
 10
0.0
 20
0.0
 30
0.0
  3
*MODEL_SPACE
  1

  0
ENDBLK
  5
E
100
AcDbEntity
  8
0
100
AcDbBlockEnd
  0
BLOCK
  5
F
100
AcDbEntity
 67
         1
  8
0
100
AcDbBlockBegin
  2
*PAPER_SPACE
 70
         0
 10
0.0
 20
0.0
 30
0.0
  3
*PAPER_SPACE
  1

  0
ENDBLK
  5
10
100
AcDbEntity
 67
         1
  8
0
100
AcDbBlockEnd
  0
BLOCK
  5
20
100
AcDbEntity
  8
0
  6
ByBlock
 62
         0
100
AcDbBlockBegin
  2
_OPEN30
 70
         2
 10
0.0
 20
0.0
 30
0.0
  3
_OPEN30
  1

  0
LINE
  5
21
100
AcDbEntity
  8
0
  6
ByBlock
 62
         0
100
AcDbLine
 10
-1.0
 20
0.267949
 30
0.0
 11
0.0
 21
0.0
 31
0.0
  0
LINE
  5
22
100
AcDbEntity
  8
0
  6
ByBlock
 62
         0
100
AcDbLine
 10
0.0
 20
0.0
 30
0.0
 11
-1.0
 21
-0.267949
 31
0.0
  0
LINE
  5
23
100
AcDbEntity
  8
0
  6
ByBlock
 62
         0
100
AcDbLine
 10
0.0
 20
0.0
 30
0.0
 11
-1.0
 21
0.0
 31
0.0
  0
ENDBLK
  5
24
100
AcDbEntity
  8
0
  6
ByBlock
 62
         0
100
AcDbBlockEnd
  0
ENDSEC
  0
SECTION
  2
ENTITIES
  0
MTEXT
  5
25
100
AcDbEntity
  8
0
  6
CONTINUOUS
 62
       110
100
AcDbMText
 10
-147.4464030812
 20
117.7423582077
 30
0.0
 40
13.1499996185
 41
0.0
 71
         1
 72
         1
  1
\W1.050;\A1;TSUBAKI
  0
POINT
  5
26
100
AcDbEntity
  8
LY_3
  6
CONTINUOUS
 62
       172
100
AcDbPoint
 10
76.3779862584
 20
-101.0363274024
 30
0.0
  0
POINT
  5
27
100
AcDbEntity
  8
LY_3
  6
CONTINUOUS
 62
       172
100
AcDbPoint
 10
-215.2706425778
 20
-101.0363274024
 30
0.0
  0
POINT
  5
28
100
AcDbEntity
  8
LY_3
  6
CONTINUOUS
 62
       172
100
AcDbPoint
 10
-125.2706439189
 20
-101.0363274024
 30
0.0
  0
LINE
  5
2A
100
AcDbEntity
  8
LY_3
  6
CENTER
 62
        80
100
AcDbLine
 10
76.3779862584
 20
37.713661049
 30
0.0
 11
76.3779862584
 21
0.2136805699
 31
0.0
  0
LINE
  5
2B
100
AcDbEntity
  8
LY_3
  6
CENTER
 62
        80
100
AcDbLine
 10
-62.372002193
 20
-101.0363274024
 30
0.0
 11
-24.8720217139
 21
-101.0363274024
 31
0.0
  0
LINE
  5
2C
100
AcDbEntity
  8
LY_3
  6
CONTINUOUS
 62
         3
100
AcDbLine
 10
-196.5706153906
 20
-29.5643512335
 30
0.0
 11
-143.9706329591
 21
-29.5643512335
 31
0.0
  0
LINE
  5
2D
100
AcDbEntity
  8
LY_3
  6
CONTINUOUS
 62
         3
100
AcDbLine
 10
-210.2706426523
 20
3.963671033
 30
0.0
 11
-130.2706438444
 21
3.963671033
 31
0.0
  0
LINE
  5
2E
100
AcDbEntity
  8
LY_3
  6
CONTINUOUS
 62
         3
100
AcDbLine
 10
-200.5706305898
 20
-33.0363360451
 30
0.0
 11
-196.5706153906
 21
-33.0363360451
 31
0.0
  0
LINE
  5
2F
100
AcDbEntity
  8
LY_3
  6
CONTINUOUS
 62
         3
100
AcDbLine
 10
-139.9706177599
 20
-21.2363331692
 30
0.0
 11
-139.9706177599
 21
-33.0363360451
 31
0.0
  0
LINE
  5
30
100
AcDbEntity
  8
LY_3
  6
CONTINUOUS
 62
         3
100
AcDbLine
 10
-200.5706305898
 20
-21.2363331692
 30
0.0
 11
-200.5706305898
 21
-33.0363360451
 31
0.0
  0
LINE
  5
31
100
AcDbEntity
  8
LY_3
  6
CONTINUOUS
 62
         3
100
AcDbLine
 10
-143.9706329591
 20
-33.0363360451
 30
0.0
 11
-139.9706177599
 21
-33.0363360451
 31
0.0
  0
LINE
  5
32
100
AcDbEntity
  8
LY_3
  6
CONTINUOUS
 62
         3
100
AcDbLine
 10
-143.9706329591
 20
-21.2363331692
 30
0.0
 11
-139.9706177599
 21
-21.2363331692
 31
0.0
  0
LINE
  5
33
100
AcDbEntity
  8
LY_3
  6
CONTINUOUS
 62
         3
100
AcDbLine
 10
-200.5706305898
 20
-21.2363331692
 30
0.0
 11
-196.5706153906
 21
-21.2363331692
 31
0.0
  0
LINE
  5
34
100
AcDbEntity
  8
LY_3
  6
CONTINUOUS
 62
         3
100
AcDbLine
 10
-210.2706426523
 20
33.9636705859
 30
0.0
 11
-130.2706438444
 21
33.9636705859
 31
0.0
  0
LINE
  5
35
100
AcDbEntity
  8
LY_3
  6
CONTINUOUS
 62
         3
100
AcDbLine
 10
-125.2706439189
 20
-29.5643512335
 30
0.0
 11
-125.2706439189
 21
-172.5083035713
 31
0.0
  0
LINE
  5
36
100
AcDbEntity
  8
LY_3
  6
CONTINUOUS
 62
         3
100
AcDbLine
 10
-215.2706425778
 20
-29.5643512335
 30
0.0
 11
-215.2706425778
 21
-172.5083035713
 31
0.0
  0
LINE
  5
37
100
AcDbEntity
  8
LY_3
  6
CONTINUOUS
 62
         3
100
AcDbLine
 10
-210.2706426523
 20
33.9636705859
 30
0.0
 11
-210.2706426523
 21
-21.2363331692
 31
0.0
  0
LINE
  5
38
100
AcDbEntity
  8
LY_3
  6
CONTINUOUS
 62
         3
100
AcDbLine
 10
-130.2706438444
 20
33.9636705859
 30
0.0
 11
-130.2706438444
 21
-21.2363331692
 31
0.0
  0
LINE
  5
39
100
AcDbEntity
  8
LY_3
  6
CONTINUOUS
 62
         3
100
AcDbLine
 10
-215.2706425778
 20
-51.0363281475
 30
0.0
 11
-125.2706439189
 21
-51.0363281475
 31
0.0
  0
LINE
  5
3A
100
AcDbEntity
  8
LY_3
  6
CONTINUOUS
 62
         3
100
AcDbLine
 10
-196.5706153906
 20
-172.5083274131
 30
0.0
 11
-143.9706329591
 21
-172.5083274131
 31
0.0
  0
LINE
  5
3B
100
AcDbEntity
  8
LY_3
  6
CONTINUOUS
 62
         3
100
AcDbLine
 10
-210.2706426523
 20
-206.0363258378
 30
0.0
 11
-130.2706438444
 21
-206.0363258378
 31
0.0
  0
LINE
  5
3C
100
AcDbEntity
  8
LY_3
  6
CONTINUOUS
 62
         3
100
AcDbLine
 10
-200.5706305898
 20
-169.0363282965
 30
0.0
 11
-196.5706153906
 21
-169.0363282965
 31
0.0
  0
LINE
  5
3D
100
AcDbEntity
  8
LY_3
  6
CONTINUOUS
 62
         3
100
AcDbLine
 10
-139.9706177599
 20
-180.836326404
 30
0.0
 11
-139.9706177599
 21
-169.0363282965
 31
0.0
  0
LINE
  5
3E
100
AcDbEntity
  8
LY_3
  6
CONTINUOUS
 62
         3
100
AcDbLine
 10
-200.5706305898
 20
-180.836326404
 30
0.0
 11
-200.5706305898
 21
-169.0363282965
 31
0.0
  0
LINE
  5
3F
100
AcDbEntity
  8
LY_3
  6
CONTINUOUS
 62
         3
100
AcDbLine
 10
-143.9706329591
 20
-169.0363282965
 30
0.0
 11
-139.9706177599
 21
-169.0363282965
 31
0.0
  0
LINE
  5
40
100
AcDbEntity
  8
LY_3
  6
CONTINUOUS
 62
         3
100
AcDbLine
 10
-143.9706329591
 20
-180.836326404
 30
0.0
 11
-139.9706177599
 21
-180.836326404
 31
0.0
  0
LINE
  5
41
100
AcDbEntity
  8
LY_3
  6
CONTINUOUS
 62
         3
100
AcDbLine
 10
-200.5706305898
 20
-180.836326404
 30
0.0
 11
-196.5706153906
 21
-180.836326404
 31
0.0
  0
LINE
  5
42
100
AcDbEntity
  8
LY_3
  6
CONTINUOUS
 62
         3
100
AcDbLine
 10
-210.2706426523
 20
-236.0363253907
 30
0.0
 11
-130.2706438444
 21
-236.0363253907
 31
0.0
  0
LINE
  5
43
100
AcDbEntity
  8
LY_3
  6
CONTINUOUS
 62
         3
100
AcDbLine
 10
-130.2706438444
 20
-236.0363253907
 30
0.0
 11
-130.2706438444
 21
-180.836326404
 31
0.0
  0
LINE
  5
44
100
AcDbEntity
  8
LY_3
  6
CONTINUOUS
 62
         3
100
AcDbLine
 10
-215.2706425778
 20
-151.0363266573
 30
0.0
 11
-125.2706439189
 21
-151.0363266573
 31
0.0
  0
LINE
  5
45
100
AcDbEntity
  8
LY_3
  6
CONTINUOUS
 62
         3
100
AcDbLine
 10
-210.2706426523
 20
-236.0363253907
 30
0.0
 11
-210.2706426523
 21
-180.836326404
 31
0.0
  0
LINE
  5
46
100
AcDbEntity
  8
LY_3
  6
CONTINUOUS
 62
         3
100
AcDbLine
 10
-210.2706426523
 20
27.7136706791
 30
0.0
 11
-130.2706438444
 21
27.7136706791
 31
0.0
  0
LINE
  5
47
100
AcDbEntity
  8
LY_3
  6
CONTINUOUS
 62
         3
100
AcDbLine
 10
-210.2706426523
 20
10.2136709398
 30
0.0
 11
-130.2706438444
 21
10.2136709398
 31
0.0
  0
LINE
  5
48
100
AcDbEntity
  8
LY_3
  6
CONTINUOUS
 62
         3
100
AcDbLine
 10
-215.2706425778
 20
-44.6363343463
 30
0.0
 11
-125.2706439189
 21
-44.6363343463
 31
0.0
  0
LINE
  5
49
100
AcDbEntity
  8
LY_3
  6
CENTER
 62
        80
100
AcDbLine
 10
164.0630592605
 20
-50.4113232578
 30
0.0
 11
196.5390112727
 21
-31.6613232848
 31
0.0
  0
LINE
  5
4A
100
AcDbEntity
  8
LY_3
  6
CENTER
 62
        80
100
AcDbLine
 10
127.0029860723
 20
-13.3512678517
 30
0.0
 11
145.7529860453
 21
19.1246841606
 31
0.0
  0
LINE
  5
4B
100
AcDbEntity
  8
LY_3
  6
CENTER
 62
        80
100
AcDbLine
 10
127.0029744494
 20
-188.7213688408
 30
0.0
 11
145.7529744224
 21
-221.1973208531
 31
0.0
  0
LINE
  5
4C
100
AcDbEntity
  8
LY_3
  6
CENTER
 62
        80
100
AcDbLine
 10
164.0630565783
 20
-151.6613382119
 30
0.0
 11
196.5390085905
 21
-170.4113381849
 31
0.0
  0
LINE
  5
4D
100
AcDbEntity
  8
LY_3
  6
CENTER
 62
        80
100
AcDbLine
 10
25.7529936686
 20
-13.3512610108
 30
0.0
 11
7.0029936956
 21
19.1246910014
 31
0.0
  0
LINE
  5
4E
100
AcDbEntity
  8
LY_3
  6
CENTER
 62
        80
100
AcDbLine
 10
-11.3070884175
 20
-50.4113359735
 30
0.0
 11
-43.7830404298
 21
-31.6613360005
 31
0.0
  0
LINE
  5
4F
100
AcDbEntity
  8
LY_3
  6
CENTER
 62
        80
100
AcDbLine
 10
25.7529862181
 20
-188.7214087179
 30
0.0
 11
7.0029898213
 21
-221.1973545359
 31
0.0
  0
LINE
  5
50
100
AcDbEntity
  8
LY_3
  6
CENTER
 62
        80
100
AcDbLine
 10
-11.3070816058
 20
-151.661323112
 30
0.0
 11
-43.7830666543
 21
-170.4113421585
 31
0.0
  0
LINE
  5
51
100
AcDbEntity
  8
LY_3
  6
CONTINUOUS
 62
         3
100
AcDbLine
 10
62.3779712082
 20
-44.6363343463
 30
0.0
 11
90.3779631616
 21
-44.6363343463
 31
0.0
  0
LINE
  5
52
100
AcDbEntity
  8
LY_3
  6
CONTINUOUS
 62
         3
100
AcDbLine
 10
62.3779712082
 20
-44.6363343463
 30
0.0
 11
62.3779712082
 21
-53.0363357471
 31
0.0
  0
LINE
  5
53
100
AcDbEntity
  8
LY_3
  6
CONTINUOUS
 62
         3
100
AcDbLine
 10
90.3779631616
 20
-44.6363343463
 30
0.0
 11
90.3779631616
 21
-53.0363357471
 31
0.0
  0
LINE
  5
54
100
AcDbEntity
  8
LY_3
  6
CONTINUOUS
 62
         3
100
AcDbLine
 10
-194.2706200025
 20
-212.2863257447
 30
0.0
 11
-130.2706438444
 21
-212.2863257447
 31
0.0
  0
LINE
  5
55
100
AcDbEntity
  8
LY_3
  6
CONTINUOUS
 62
         3
100
AcDbLine
 10
-194.2706200025
 20
-229.7863254839
 30
0.0
 11
-130.2706438444
 21
-229.7863254839
 31
0.0
  0
LINE
  5
56
100
AcDbEntity
  8
LY_3
  6
CONTINUOUS
 62
        80
100
AcDbLine
 10
-210.2706426523
 20
-213.0363262103
 30
0.0
 11
-194.2706200025
 21
-213.0363262103
 31
0.0
  0
LINE
  5
57
100
AcDbEntity
  8
LY_3
  6
CONTINUOUS
 62
        80
100
AcDbLine
 10
-210.2706426523
 20
-229.0363178657
 30
0.0
 11
-194.2706200025
 21
-229.0363178657
 31
0.0
  0
LINE
  5
58
100
AcDbEntity
  8
LY_3
  6
CONTINUOUS
 62
         3
100
AcDbLine
 10
-210.2706426523
 20
-213.9363253386
 30
0.0
 11
-194.2706200025
 21
-213.9363253386
 31
0.0
  0
LINE
  5
59
100
AcDbEntity
  8
LY_3
  6
CONTINUOUS
 62
         3
100
AcDbLine
 10
-210.2706426523
 20
-228.1363163532
 30
0.0
 11
-194.2706200025
 21
-228.1363163532
 31
0.0
  0
LINE
  5
5A
100
AcDbEntity
  8
LY_3
  6
CONTINUOUS
 62
         3
100
AcDbLine
 10
-183.5705087728
 20
-22.4124806126
 30
0.0
 11
-183.5705087728
 21
-29.5643512335
 31
0.0
  0
LINE
  5
5B
100
AcDbEntity
  8
LY_3
  6
CONTINUOUS
 62
         3
100
AcDbLine
 10
-183.5701217357
 20
-29.5642557485
 30
0.0
 11
-186.5701141375
 21
-26.5642633467
 31
0.0
  0
LINE
  5
5C
100
AcDbEntity
  8
LY_3
  6
CONTINUOUS
 62
         3
100
AcDbLine
 10
-186.5705010987
 20
3.9637091799
 30
0.0
 11
-186.5705010987
 21
-26.5643589076
 31
0.0
  0
LINE
  5
5D
100
AcDbEntity
  8
LY_3
  6
CONTINUOUS
 62
         3
100
AcDbLine
 10
-183.5702234614
 20
-22.4126591186
 30
0.0
 11
-186.5702099089
 21
-3.8427705115
 31
0.0
  0
LINE
  5
5E
100
AcDbEntity
  8
LY_3
  6
CONTINUOUS
 62
         3
100
AcDbLine
 10
-187.4706170521
 20
-1.9768424893
 30
0.0
 11
-153.0706312976
 21
-1.9768424893
 31
0.0
  0
LINE
  5
5F
100
AcDbEntity
  8
LY_3
  6
CONTINUOUS
 62
         3
100
AcDbLine
 10
-190.8705803803
 20
-1.1902900719
 30
0.0
 11
-186.5705010987
 21
-1.1902900719
 31
0.0
  0
LINE
  5
60
100
AcDbEntity
  8
LY_3
  6
CONTINUOUS
 62
         3
100
AcDbLine
 10
-196.5705772436
 20
0.963716854
 30
0.0
 11
-196.5705772436
 21
-33.0363360451
 31
0.0
  0
LINE
  5
61
100
AcDbEntity
  8
LY_3
  6
CONTINUOUS
 62
         3
100
AcDbLine
 10
-143.970671106
 20
0.963716854
 30
0.0
 11
-143.970671106
 21
-33.0363360451
 31
0.0
  0
LINE
  5
62
100
AcDbEntity
  8
LY_3
  6
CONTINUOUS
 62
         3
100
AcDbLine
 10
-149.6706679693
 20
0.963716854
 30
0.0
 11
-144.0706543199
 21
0.963716854
 31
0.0
  0
LINE
  5
63
100
AcDbEntity
  8
LY_3
  6
CONTINUOUS
 62
         3
100
AcDbLine
 10
-149.6706679693
 20
-3.7903113954
 30
0.0
 11
-144.1707138277
 21
-3.7903113954
 31
0.0
  0
LINE
  5
64
100
AcDbEntity
  8
LY_3
  6
CONTINUOUS
 62
         3
100
AcDbLine
 10
-149.6706679693
 20
-18.5903447442
 30
0.0
 11
-144.1707138277
 21
-18.5903447442
 31
0.0
  0
LINE
  5
65
100
AcDbEntity
  8
LY_3
  6
CONTINUOUS
 62
         3
100
AcDbLine
 10
-156.9704336341
 20
-22.4129240839
 30
0.0
 11
-153.9704471865
 21
-3.8430354767
 31
0.0
  0
LINE
  5
66
100
AcDbEntity
  8
LY_3
  6
CONTINUOUS
 62
         3
100
AcDbLine
 10
-153.970747251
 20
3.9637091799
 30
0.0
 11
-153.970747251
 21
-26.5643589076
 31
0.0
  0
LINE
  5
67
100
AcDbEntity
  8
LY_3
  6
CONTINUOUS
 62
         3
100
AcDbLine
 10
-156.970187308
 20
-29.5644445663
 30
0.0
 11
-153.9701949062
 21
-26.5644521645
 31
0.0
  0
LINE
  5
68
100
AcDbEntity
  8
LY_3
  6
CONTINUOUS
 62
         3
100
AcDbLine
 10
-156.9707395769
 20
-22.4124806126
 30
0.0
 11
-156.9707395769
 21
-29.5643512335
 31
0.0
  0
LINE
  5
69
100
AcDbEntity
  8
LY_3
  6
CONTINUOUS
 62
         3
100
AcDbLine
 10
-153.970747251
 20
-1.1902900719
 30
0.0
 11
-149.6706679693
 21
-1.1902900719
 31
0.0
  0
LINE
  5
6A
100
AcDbEntity
  8
LY_3
  6
CONTINUOUS
 62
         3
100
AcDbLine
 10
-153.970747251
 20
-21.1903660678
 30
0.0
 11
-149.6706679693
 21
-21.1903660678
 31
0.0
  0
LINE
  5
6B
100
AcDbEntity
  8
LY_3
  6
CONTINUOUS
 62
         3
100
AcDbLine
 10
-190.8705803803
 20
-21.1903660678
 30
0.0
 11
-186.5705010987
 21
-21.1903660678
 31
0.0
  0
LINE
  5
6C
100
AcDbEntity
  8
LY_3
  6
CONTINUOUS
 62
         3
100
AcDbLine
 10
-190.8705803803
 20
0.963716854
 30
0.0
 11
-190.8705803803
 21
-29.5643512335
 31
0.0
  0
LINE
  5
6D
100
AcDbEntity
  8
LY_3
  6
CONTINUOUS
 62
         3
100
AcDbLine
 10
-149.6706679693
 20
0.963716854
 30
0.0
 11
-149.6706679693
 21
-29.5643512335
 31
0.0
  0
LINE
  5
6E
100
AcDbEntity
  8
LY_3
  6
CONTINUOUS
 62
         3
100
AcDbLine
 10
-196.5705772436
 20
0.963716854
 30
0.0
 11
-190.8705803803
 21
0.963716854
 31
0.0
  0
LINE
  5
6F
100
AcDbEntity
  8
LY_3
  6
CONTINUOUS
 62
         3
100
AcDbLine
 10
-190.8705803803
 20
-18.5903447442
 30
0.0
 11
-196.370534522
 21
-18.5903447442
 31
0.0
  0
LINE
  5
70
100
AcDbEntity
  8
LY_3
  6
CONTINUOUS
 62
         3
100
AcDbLine
 10
-190.8705803803
 20
-3.7903113954
 30
0.0
 11
-196.370534522
 21
-3.7903113954
 31
0.0
  0
LINE
  5
71
100
AcDbEntity
  8
LY_3
  6
CONTINUOUS
 62
         3
100
AcDbLine
 10
-183.5705087728
 20
-22.4124806126
 30
0.0
 11
-156.9707395769
 21
-22.4124806126
 31
0.0
  0
LINE
  5
72
100
AcDbEntity
  8
LY_3
  6
CONTINUOUS
 62
         3
100
AcDbLine
 10
-187.4706170521
 20
-1.9768424893
 30
0.0
 11
-187.4706170521
 21
-22.1903889411
 31
0.0
  0
LINE
  5
73
100
AcDbEntity
  8
LY_3
  6
CONTINUOUS
 62
         3
100
AcDbLine
 10
-153.0706312976
 20
-1.9768424893
 30
0.0
 11
-153.0706312976
 21
-22.1903889411
 31
0.0
  0
LINE
  5
74
100
AcDbEntity
  8
LY_3
  6
CONTINUOUS
 62
         3
100
AcDbLine
 10
-183.5701217357
 20
-172.5083990947
 30
0.0
 11
-186.5701141375
 21
-175.5083914965
 31
0.0
  0
LINE
  5
75
100
AcDbEntity
  8
LY_3
  6
CONTINUOUS
 62
         3
100
AcDbLine
 10
-186.5705010987
 20
-206.0363687531
 30
0.0
 11
-186.5705010987
 21
-175.5083274876
 31
0.0
  0
LINE
  5
76
100
AcDbEntity
  8
LY_3
  6
CONTINUOUS
 62
         3
100
AcDbLine
 10
-156.970187308
 20
-172.5082102768
 30
0.0
 11
-153.9701949062
 21
-175.5082026786
 31
0.0
  0
LINE
  5
77
100
AcDbEntity
  8
LY_3
  6
CONTINUOUS
 62
         3
100
AcDbLine
 10
-153.970747251
 20
-206.0363687531
 30
0.0
 11
-153.970747251
 21
-175.5083274876
 31
0.0
  0
LINE
  5
78
100
AcDbEntity
  8
LY_3
  6
CONTINUOUS
 62
         3
100
AcDbLine
 10
-153.970747251
 20
-200.8823623488
 30
0.0
 11
-149.6706679693
 21
-200.8823623488
 31
0.0
  0
LINE
  5
79
100
AcDbEntity
  8
LY_3
  6
CONTINUOUS
 62
         3
100
AcDbLine
 10
-153.970747251
 20
-180.882288737
 30
0.0
 11
-149.6706679693
 21
-180.882288737
 31
0.0
  0
LINE
  5
7A
100
AcDbEntity
  8
LY_3
  6
CONTINUOUS
 62
         3
100
AcDbLine
 10
-149.6706679693
 20
-203.0363692747
 30
0.0
 11
-149.6706679693
 21
-172.5083274131
 31
0.0
  0
LINE
  5
7B
100
AcDbEntity
  8
LY_3
  6
CONTINUOUS
 62
         3
100
AcDbLine
 10
-149.6706679693
 20
-183.482341055
 30
0.0
 11
-144.1707138277
 21
-183.482341055
 31
0.0
  0
LINE
  5
7C
100
AcDbEntity
  8
LY_3
  6
CONTINUOUS
 62
         3
100
AcDbLine
 10
-143.970671106
 20
-203.0363692747
 30
0.0
 11
-143.970671106
 21
-169.0363282965
 31
0.0
  0
LINE
  5
7D
100
AcDbEntity
  8
LY_3
  6
CONTINUOUS
 62
         3
100
AcDbLine
 10
-149.6706679693
 20
-198.2823553303
 30
0.0
 11
-144.1707138277
 21
-198.2823553303
 31
0.0
  0
LINE
  5
7E
100
AcDbEntity
  8
LY_3
  6
CONTINUOUS
 62
         3
100
AcDbLine
 10
-149.6706679693
 20
-203.0363692747
 30
0.0
 11
-144.0706543199
 21
-203.0363692747
 31
0.0
  0
LINE
  5
7F
100
AcDbEntity
  8
LY_3
  6
CONTINUOUS
 62
         3
100
AcDbLine
 10
-190.8705803803
 20
-200.8823623488
 30
0.0
 11
-186.5705010987
 21
-200.8823623488
 31
0.0
  0
LINE
  5
80
100
AcDbEntity
  8
LY_3
  6
CONTINUOUS
 62
         3
100
AcDbLine
 10
-190.8705803803
 20
-180.882288737
 30
0.0
 11
-186.5705010987
 21
-180.882288737
 31
0.0
  0
LINE
  5
81
100
AcDbEntity
  8
LY_3
  6
CONTINUOUS
 62
         3
100
AcDbLine
 10
-190.8705803803
 20
-183.482341055
 30
0.0
 11
-196.370534522
 21
-183.482341055
 31
0.0
  0
LINE
  5
82
100
AcDbEntity
  8
LY_3
  6
CONTINUOUS
 62
         3
100
AcDbLine
 10
-190.8705803803
 20
-203.0363692747
 30
0.0
 11
-190.8705803803
 21
-172.5083274131
 31
0.0
  0
LINE
  5
83
100
AcDbEntity
  8
LY_3
  6
CONTINUOUS
 62
         3
100
AcDbLine
 10
-196.5705772436
 20
-203.0363692747
 30
0.0
 11
-196.5705772436
 21
-169.0363282965
 31
0.0
  0
LINE
  5
84
100
AcDbEntity
  8
LY_3
  6
CONTINUOUS
 62
         3
100
AcDbLine
 10
-190.8705803803
 20
-198.2823553303
 30
0.0
 11
-196.370534522
 21
-198.2823553303
 31
0.0
  0
LINE
  5
85
100
AcDbEntity
  8
LY_3
  6
CONTINUOUS
 62
         3
100
AcDbLine
 10
-196.5705772436
 20
-203.0363692747
 30
0.0
 11
-190.8705803803
 21
-203.0363692747
 31
0.0
  0
LINE
  5
86
100
AcDbEntity
  8
LY_3
  6
CONTINUOUS
 62
         3
100
AcDbLine
 10
-194.2706200025
 20
-229.7863254839
 30
0.0
 11
-194.2706200025
 21
-212.2863257447
 31
0.0
  0
LINE
  5
88
100
AcDbEntity
  8
LY_3
  6
DASHED
 62
        80
100
AcDbLine
 10
-1.655456821
 20
-30.7811578768
 30
0.0
 11
-13.7782392728
 21
-18.6583018499
 31
0.0
  0
LINE
  5
89
100
AcDbEntity
  8
LY_3
  6
CENTER
 62
        80
100
AcDbLine
 10
-22.6168886109
 20
-2.0414115775
 30
0.0
 11
5.6581353732
 21
-30.3166071674
 31
0.0
  0
LINE
  5
8A
100
AcDbEntity
  8
LY_3
  6
DASHED
 62
        80
100
AcDbLine
 10
6.1227304701
 20
-23.0029638448
 30
0.0
 11
-5.9999980339
 21
-10.8801617659
 31
0.0
  0
LINE
  5
8B
100
AcDbEntity
  8
LY_3
  6
DASHED
 62
        80
100
AcDbLine
 10
-1.3237173797
 20
-14.1422745476
 30
0.0
 11
-10.5161278983
 21
-23.3346292763
 31
0.0
  0
LINE
  5
8C
100
AcDbEntity
  8
LY_3
  6
DASHED
 62
        80
100
AcDbLine
 10
-6.0000184955
 20
-11.5872854614
 30
0.0
 11
-6.0000184955
 21
-9.4659704905
 31
0.0
  0
LINE
  5
8D
100
AcDbEntity
  8
LY_3
  6
DASHED
 62
        80
100
AcDbLine
 10
-11.9311002614
 20
-4.9490235416
 30
0.0
 11
-5.99997106
 21
-10.88018874
 31
0.0
  0
LINE
  5
8E
100
AcDbEntity
  8
LY_3
  6
DASHED
 62
        80
100
AcDbLine
 10
-11.1925235924
 20
-4.2734084395
 30
0.0
 11
-5.9999667686
 21
-9.4659967779
 31
0.0
  0
LINE
  5
8F
100
AcDbEntity
  8
LY_3
  6
DASHED
 62
        80
100
AcDbLine
 10
-1.3237173797
 20
-14.1422745476
 30
0.0
 11
-5.9999667686
 21
-9.4659967779
 31
0.0
  0
LINE
  5
90
100
AcDbEntity
  8
LY_3
  6
DASHED
 62
        80
100
AcDbLine
 10
-13.071035396
 20
-18.6583579439
 30
0.0
 11
-5.9999462319
 21
-11.5873116951
 31
0.0
  0
LINE
  5
91
100
AcDbEntity
  8
LY_3
  6
DASHED
 62
        80
100
AcDbLine
 10
-15.1923772871
 20
-18.6583515065
 30
0.0
 11
-5.9999667686
 21
-9.4659967779
 31
0.0
  0
LINE
  5
92
100
AcDbEntity
  8
LY_3
  6
DASHED
 62
        80
100
AcDbLine
 10
-15.1923706535
 20
-18.6582845015
 30
0.0
 11
-13.0710556826
 21
-18.6582845015
 31
0.0
  0
LINE
  5
93
100
AcDbEntity
  8
LY_3
  6
DASHED
 62
        80
100
AcDbLine
 10
-20.3849071371
 20
-13.4657901422
 30
0.0
 11
-15.1923772871
 21
-18.6583515065
 31
0.0
  0
LINE
  5
94
100
AcDbEntity
  8
LY_3
  6
DASHED
 62
        80
100
AcDbLine
 10
-19.7092875525
 20
-12.7272175737
 30
0.0
 11
-13.778185325
 21
-18.658355798
 31
0.0
  0
LINE
  5
95
100
AcDbEntity
  8
LY_3
  6
DASHED
 62
        80
100
AcDbLine
 10
-10.5161278983
 20
-23.3346292763
 30
0.0
 11
-15.1924312349
 21
-18.6582975584
 31
0.0
  0
LINE
  5
96
100
AcDbEntity
  8
LY_3
  6
CONTINUOUS
 62
         3
100
AcDbLine
 10
-206.2706274531
 20
3.963671033
 30
0.0
 11
-206.2706274531
 21
-11.1902899229
 31
0.0
  0
LINE
  5
97
100
AcDbEntity
  8
LY_3
  6
CONTINUOUS
 62
         3
100
AcDbLine
 10
-134.2706208966
 20
3.963671033
 30
0.0
 11
-134.2706208966
 21
-11.1902899229
 31
0.0
  0
LINE
  5
98
100
AcDbEntity
  8
LY_3
  6
CONTINUOUS
 62
         3
100
AcDbLine
 10
-206.2706274531
 20
-190.882364882
 30
0.0
 11
-206.2706274531
 21
-206.0363258378
 31
0.0
  0
LINE
  5
99
100
AcDbEntity
  8
LY_3
  6
CONTINUOUS
 62
         3
100
AcDbLine
 10
-134.2706208966
 20
-190.882364882
 30
0.0
 11
-134.2706208966
 21
-206.0363258378
 31
0.0
  0
LINE
  5
9A
100
AcDbEntity
  8
LY_3
  6
CENTER
 62
        80
100
AcDbLine
 10
177.6279942307
 20
-101.0363274024
 30
0.0
 11
215.1279747098
 21
-101.0363274024
 31
0.0
  0
LINE
  5
9B
100
AcDbEntity
  8
LY_3
  6
CENTER
 62
        80
100
AcDbLine
 10
76.3779862584
 20
-202.2863353747
 30
0.0
 11
76.3779862584
 21
-239.7863158538
 31
0.0
  0
LINE
  5
9C
100
AcDbEntity
  8
LY_3
  6
DASHED
 62
        80
100
AcDbLine
 10
-10.59608361
 20
-3.4555984667
 30
0.0
 11
-21.2027121437
 21
-14.0622270004
 31
0.0
  0
LINE
  5
9D
100
AcDbEntity
  8
LY_3
  6
DASHED
 62
        80
100
AcDbLine
 10
-13.6306092715
 20
-0.4210577615
 30
0.0
 11
-10.5961263543
 21
-3.4555590955
 31
0.0
  0
LINE
  5
9E
100
AcDbEntity
  8
LY_3
  6
DASHED
 62
        80
100
AcDbLine
 10
-24.2372430179
 20
-11.0276810827
 30
0.0
 11
-21.2027331268
 21
-14.0622093908
 31
0.0
  0
LINE
  5
9F
100
AcDbEntity
  8
LY_3
  6
DASHED
 62
        80
100
AcDbLine
 10
6.1227862383
 20
-179.0697777895
 30
0.0
 11
-6.0000866474
 21
-191.1925771001
 31
0.0
  0
LINE
  5
A0
100
AcDbEntity
  8
LY_3
  6
CENTER
 62
        80
100
AcDbLine
 10
-22.6169920927
 20
-200.031241611
 30
0.0
 11
5.6582355289
 21
-171.7561855953
 31
0.0
  0
LINE
  5
A1
100
AcDbEntity
  8
LY_3
  6
DASHED
 62
        80
100
AcDbLine
 10
-1.6554077937
 20
-171.2915904984
 30
0.0
 11
-13.7782267314
 21
-183.4143358612
 31
0.0
  0
LINE
  5
A2
100
AcDbEntity
  8
LY_3
  6
DASHED
 62
        80
100
AcDbLine
 10
-10.5161139497
 20
-178.738055207
 30
0.0
 11
-1.323759221
 21
-187.9304657255
 31
0.0
  0
LINE
  5
A3
100
AcDbEntity
  8
LY_3
  6
DASHED
 62
        80
100
AcDbLine
 10
-13.0710938296
 20
-183.4143559982
 30
0.0
 11
-15.1924088004
 21
-183.4143559982
 31
0.0
  0
LINE
  5
A4
100
AcDbEntity
  8
LY_3
  6
DASHED
 62
        80
100
AcDbLine
 10
-19.7093649557
 20
-189.3454380887
 30
0.0
 11
-13.7781997573
 21
-183.4143088873
 31
0.0
  0
LINE
  5
A5
100
AcDbEntity
  8
LY_3
  6
DASHED
 62
        80
100
AcDbLine
 10
-20.3849800578
 20
-188.6068614196
 30
0.0
 11
-15.1923917194
 21
-183.4143045958
 31
0.0
  0
LINE
  5
A6
100
AcDbEntity
  8
LY_3
  6
DASHED
 62
        80
100
AcDbLine
 10
-10.5161139497
 20
-178.738055207
 30
0.0
 11
-15.1923917194
 21
-183.4143045958
 31
0.0
  0
LINE
  5
A7
100
AcDbEntity
  8
LY_3
  6
DASHED
 62
        80
100
AcDbLine
 10
-6.0000305534
 20
-190.4853732232
 30
0.0
 11
-13.0710768022
 21
-183.4142840591
 31
0.0
  0
LINE
  5
A8
100
AcDbEntity
  8
LY_3
  6
DASHED
 62
        80
100
AcDbLine
 10
-6.0000369908
 20
-192.6067151144
 30
0.0
 11
-15.1923917194
 21
-183.4143045958
 31
0.0
  0
LINE
  5
A9
100
AcDbEntity
  8
LY_3
  6
DASHED
 62
        80
100
AcDbLine
 10
-6.0000947895
 20
-192.6067224612
 30
0.0
 11
-6.0000947895
 21
-190.4854003379
 31
0.0
  0
LINE
  5
AA
100
AcDbEntity
  8
LY_3
  6
DASHED
 62
        80
100
AcDbLine
 10
-11.192598355
 20
-197.7992449643
 30
0.0
 11
-6.0000369908
 21
-192.6067151144
 31
0.0
  0
LINE
  5
AB
100
AcDbEntity
  8
LY_3
  6
DASHED
 62
        80
100
AcDbLine
 10
-11.9311709236
 20
-197.1236253797
 30
0.0
 11
-6.0000326993
 21
-191.1925231523
 31
0.0
  0
LINE
  5
AC
100
AcDbEntity
  8
LY_3
  6
DASHED
 62
        80
100
AcDbLine
 10
-1.323759221
 20
-187.9304657255
 30
0.0
 11
-6.0000909389
 21
-192.6067690622
 31
0.0
  0
LINE
  5
AD
100
AcDbEntity
  8
LY_3
  6
DASHED
 62
        80
100
AcDbLine
 10
-21.2028200397
 20
-188.0104278427
 30
0.0
 11
-10.5961915059
 21
-198.6170563765
 31
0.0
  0
LINE
  5
AE
100
AcDbEntity
  8
LY_3
  6
DASHED
 62
        80
100
AcDbLine
 10
-24.2373459087
 20
-191.0449622716
 30
0.0
 11
-21.2028294017
 21
-188.0104641815
 31
0.0
  0
LINE
  5
AF
100
AcDbEntity
  8
LY_3
  6
DASHED
 62
        80
100
AcDbLine
 10
-13.6307209016
 20
-201.6515943321
 30
0.0
 11
-10.5961791065
 21
-198.617070954
 31
0.0
  0
LINE
  5
B0
100
AcDbEntity
  8
LY_3
  6
DASHED
 62
        80
100
AcDbLine
 10
154.4114162663
 20
-171.291524615
 30
0.0
 11
166.5342155768
 21
-183.4143975008
 31
0.0
  0
LINE
  5
B1
100
AcDbEntity
  8
LY_3
  6
CENTER
 62
        80
100
AcDbLine
 10
175.3728649149
 20
-200.0312877731
 30
0.0
 11
147.0978240721
 21
-171.7560753245
 31
0.0
  0
LINE
  5
B2
100
AcDbEntity
  8
LY_3
  6
DASHED
 62
        80
100
AcDbLine
 10
146.6332289752
 20
-179.0697186471
 30
0.0
 11
158.7559743379
 21
-191.1925375847
 31
0.0
  0
LINE
  5
B3
100
AcDbEntity
  8
LY_3
  6
DASHED
 62
        80
100
AcDbLine
 10
154.0796936837
 20
-187.930424803
 30
0.0
 11
163.2721042023
 21
-178.7380700744
 31
0.0
  0
LINE
  5
B4
100
AcDbEntity
  8
LY_3
  6
DASHED
 62
        80
100
AcDbLine
 10
158.7559910123
 20
-190.4854051062
 30
0.0
 11
158.7559910123
 21
-192.6067200771
 31
0.0
  0
LINE
  5
B5
100
AcDbEntity
  8
LY_3
  6
DASHED
 62
        80
100
AcDbLine
 10
164.6870765654
 20
-197.123675809
 30
0.0
 11
158.755947364
 21
-191.1925106107
 31
0.0
  0
LINE
  5
B6
100
AcDbEntity
  8
LY_3
  6
DASHED
 62
        80
100
AcDbLine
 10
163.9484998964
 20
-197.7992909111
 30
0.0
 11
158.7559430726
 21
-192.6067025728
 31
0.0
  0
LINE
  5
B7
100
AcDbEntity
  8
LY_3
  6
DASHED
 62
        80
100
AcDbLine
 10
154.0796936837
 20
-187.930424803
 30
0.0
 11
158.7559430726
 21
-192.6067025728
 31
0.0
  0
LINE
  5
B8
100
AcDbEntity
  8
LY_3
  6
DASHED
 62
        80
100
AcDbLine
 10
165.8270117
 20
-183.4143414067
 30
0.0
 11
158.7559225359
 21
-190.4853876555
 31
0.0
  0
LINE
  5
B9
100
AcDbEntity
  8
LY_3
  6
DASHED
 62
        80
100
AcDbLine
 10
167.9483535911
 20
-183.4143478441
 30
0.0
 11
158.7559430726
 21
-192.6067025728
 31
0.0
  0
LINE
  5
BA
100
AcDbEntity
  8
LY_3
  6
DASHED
 62
        80
100
AcDbLine
 10
167.9483431703
 20
-183.4144060661
 30
0.0
 11
165.8270281994
 21
-183.4144060661
 31
0.0
  0
LINE
  5
BB
100
AcDbEntity
  8
LY_3
  6
DASHED
 62
        80
100
AcDbLine
 10
173.1408834411
 20
-188.6069092084
 30
0.0
 11
167.9483535911
 21
-183.4143478441
 31
0.0
  0
LINE
  5
BC
100
AcDbEntity
  8
LY_3
  6
DASHED
 62
        80
100
AcDbLine
 10
172.4652638565
 20
-189.345481777
 30
0.0
 11
166.534161629
 21
-183.4143435526
 31
0.0
  0
LINE
  5
BD
100
AcDbEntity
  8
LY_3
  6
DASHED
 62
        80
100
AcDbLine
 10
163.2721042023
 20
-178.7380700744
 30
0.0
 11
167.9484075389
 21
-183.4144017922
 31
0.0
  0
LINE
  5
BE
100
AcDbEntity
  8
LY_3
  6
DASHED
 62
        80
100
AcDbLine
 10
163.3520363103
 20
-198.6171372984
 30
0.0
 11
173.9586648441
 21
-188.0105087647
 31
0.0
  0
LINE
  5
BF
100
AcDbEntity
  8
LY_3
  6
DASHED
 62
        80
100
AcDbLine
 10
166.3865855755
 20
-201.6516415891
 30
0.0
 11
163.3521026583
 21
-198.6171402551
 31
0.0
  0
LINE
  5
C0
100
AcDbEntity
  8
LY_3
  6
DASHED
 62
        80
100
AcDbLine
 10
176.9932193219
 20
-191.0450182679
 30
0.0
 11
173.9587094308
 21
-188.0104899599
 31
0.0
  0
LINE
  5
C1
100
AcDbEntity
  8
LY_3
  6
DASHED
 62
        80
100
AcDbLine
 10
146.6331630918
 20
-23.002894587
 30
0.0
 11
158.7560359775
 21
-10.8800952765
 31
0.0
  0
LINE
  5
C2
100
AcDbEntity
  8
LY_3
  6
CENTER
 62
        80
100
AcDbLine
 10
175.3729262499
 20
-2.0414459384
 30
0.0
 11
147.0977138012
 21
-30.3164867812
 31
0.0
  0
LINE
  5
C3
100
AcDbEntity
  8
LY_3
  6
DASHED
 62
        80
100
AcDbLine
 10
154.4113571238
 20
-30.7810818781
 30
0.0
 11
166.5341760615
 21
-18.6583365154
 31
0.0
  0
LINE
  5
C4
100
AcDbEntity
  8
LY_3
  6
DASHED
 62
        80
100
AcDbLine
 10
163.2720632798
 20
-23.3346171696
 30
0.0
 11
154.0797085511
 21
-14.142206651
 31
0.0
  0
LINE
  5
C5
100
AcDbEntity
  8
LY_3
  6
DASHED
 62
        80
100
AcDbLine
 10
165.8270281994
 20
-18.6583226485
 30
0.0
 11
167.9483431703
 21
-18.6583226485
 31
0.0
  0
LINE
  5
C6
100
AcDbEntity
  8
LY_3
  6
DASHED
 62
        80
100
AcDbLine
 10
172.4653142858
 20
-12.7272342879
 30
0.0
 11
166.5341490874
 21
-18.6583634893
 31
0.0
  0
LINE
  5
C7
100
AcDbEntity
  8
LY_3
  6
DASHED
 62
        80
100
AcDbLine
 10
173.1409293879
 20
-13.4658109569
 30
0.0
 11
167.9483410495
 21
-18.6583677808
 31
0.0
  0
LINE
  5
C8
100
AcDbEntity
  8
LY_3
  6
DASHED
 62
        80
100
AcDbLine
 10
163.2720632798
 20
-23.3346171696
 30
0.0
 11
167.9483410495
 21
-18.6583677808
 31
0.0
  0
LINE
  5
C9
100
AcDbEntity
  8
LY_3
  6
DASHED
 62
        80
100
AcDbLine
 10
158.7559798835
 20
-11.5872991533
 30
0.0
 11
165.8270261323
 21
-18.6583883175
 31
0.0
  0
LINE
  5
CA
100
AcDbEntity
  8
LY_3
  6
DASHED
 62
        80
100
AcDbLine
 10
158.7559863209
 20
-9.4659572622
 30
0.0
 11
167.9483410495
 21
-18.6583677808
 31
0.0
  0
LINE
  5
CB
100
AcDbEntity
  8
LY_3
  6
DASHED
 62
        80
100
AcDbLine
 10
158.7560291593
 20
-9.4659704905
 30
0.0
 11
158.7560291593
 21
-11.5872854614
 31
0.0
  0
LINE
  5
CC
100
AcDbEntity
  8
LY_3
  6
DASHED
 62
        80
100
AcDbLine
 10
163.9485476852
 20
-4.2734274122
 30
0.0
 11
158.7559863209
 21
-9.4659572622
 31
0.0
  0
LINE
  5
CD
100
AcDbEntity
  8
LY_3
  6
DASHED
 62
        80
100
AcDbLine
 10
164.6871202537
 20
-4.9490469968
 30
0.0
 11
158.7559820294
 21
-10.8801492243
 31
0.0
  0
LINE
  5
CE
100
AcDbEntity
  8
LY_3
  6
DASHED
 62
        80
100
AcDbLine
 10
154.0797085511
 20
-14.142206651
 30
0.0
 11
158.756040269
 21
-9.4659033144
 31
0.0
  0
LINE
  5
CF
100
AcDbEntity
  8
LY_3
  6
DASHED
 62
        80
100
AcDbLine
 10
173.958745766
 20
-14.0622809484
 30
0.0
 11
163.3521172323
 21
-3.4556524147
 31
0.0
  0
LINE
  5
D0
100
AcDbEntity
  8
LY_3
  6
DASHED
 62
        80
100
AcDbLine
 10
176.9932800659
 20
-11.0277252778
 30
0.0
 11
173.9587787319
 21
-14.062208195
 31
0.0
  0
LINE
  5
D1
100
AcDbEntity
  8
LY_3
  6
DASHED
 62
        80
100
AcDbLine
 10
166.3866567447
 20
-0.4210915314
 30
0.0
 11
163.3521284366
 21
-3.4556014226
 31
0.0
  0
LINE
  5
D2
100
AcDbEntity
  8
LY_3
  6
CONTINUOUS
 62
         3
100
AcDbLine
 10
-215.2706425778
 20
-29.5643512335
 30
0.0
 11
-200.5706305898
 21
-29.5643512335
 31
0.0
  0
LINE
  5
D3
100
AcDbEntity
  8
LY_3
  6
CONTINUOUS
 62
         3
100
AcDbLine
 10
-139.9706177599
 20
-29.5643512335
 30
0.0
 11
-125.2706439189
 21
-29.5643512335
 31
0.0
  0
LINE
  5
D4
100
AcDbEntity
  8
LY_3
  6
CONTINUOUS
 62
         3
100
AcDbLine
 10
-200.5706305898
 20
-172.5083035713
 30
0.0
 11
-215.2706425778
 21
-172.5083035713
 31
0.0
  0
LINE
  5
D5
100
AcDbEntity
  8
LY_3
  6
CONTINUOUS
 62
         3
100
AcDbLine
 10
-125.2706439189
 20
-172.5083035713
 30
0.0
 11
-139.9706177599
 21
-172.5083035713
 31
0.0
  0
ARC
  5
D6
100
AcDbEntity
  8
LY_3
  6
CENTER
 62
        80
100
AcDbCircle
 10
76.3779862584
 20
-101.0363274024
 30
0.0
 40
119.9999982119
100
AcDbArc
 50
291.0384039723
 51
308.9615992573
  0
ARC
  5
D7
100
AcDbEntity
  8
LY_3
  6
CONTINUOUS
 62
         3
100
AcDbCircle
 10
76.3779862584
 20
-101.0363274024
 30
0.0
 40
49.9999992549
100
AcDbArc
 50
106.2602035596
 51
73.7397978069
  0
CIRCLE
  5
D8
100
AcDbEntity
  8
LY_3
  6
CONTINUOUS
 62
         3
100
AcDbCircle
 10
76.3779862584
 20
-101.0363274024
 30
0.0
 40
71.4719761689
  0
CIRCLE
  5
D9
100
AcDbEntity
  8
LY_3
  6
CONTINUOUS
 62
         3
100
AcDbCircle
 10
76.3779862584
 20
-101.0363274024
 30
0.0
 40
105.0000365824
  0
CIRCLE
  5
DA
100
AcDbEntity
  8
LY_3
  6
CONTINUOUS
 62
         3
100
AcDbCircle
 10
76.3779862584
 20
-101.0363274024
 30
0.0
 40
134.9999979883
  0
ARC
  5
DB
100
AcDbEntity
  8
LY_3
  6
CENTER
 62
        80
100
AcDbCircle
 10
76.3779862584
 20
-101.0363274024
 30
0.0
 40
119.9999982119
100
AcDbArc
 50
21.0383999079
 51
38.9615983467
  0
ARC
  5
DC
100
AcDbEntity
  8
LY_3
  6
CENTER
 62
        80
100
AcDbCircle
 10
76.3779862584
 20
-101.0363274024
 30
0.0
 40
119.9999982119
100
AcDbArc
 50
351.0384024882
 51
8.9615975118
  0
ARC
  5
DD
100
AcDbEntity
  8
LY_3
  6
CENTER
 62
        80
100
AcDbCircle
 10
76.3779862584
 20
-101.0363274024
 30
0.0
 40
119.9999982119
100
AcDbArc
 50
171.0383733462
 51
188.9615547095
  0
ARC
  5
DE
100
AcDbEntity
  8
LY_3
  6
CENTER
 62
        80
100
AcDbCircle
 10
76.3779862584
 20
-101.0363274024
 30
0.0
 40
119.9999982119
100
AcDbArc
 50
81.0383913323
 51
98.9615900347
  0
ARC
  5
DF
100
AcDbEntity
  8
LY_3
  6
CENTER
 62
        80
100
AcDbCircle
 10
76.3779862584
 20
-101.0363274024
 30
0.0
 40
119.9999982119
100
AcDbArc
 50
201.0384392952
 51
218.9616206585
  0
ARC
  5
E0
100
AcDbEntity
  8
LY_3
  6
CENTER
 62
        80
100
AcDbCircle
 10
76.3779862584
 20
-101.0363274024
 30
0.0
 40
119.9999982119
100
AcDbArc
 50
51.0384007427
 51
68.9615786909
  0
ARC
  5
E1
100
AcDbEntity
  8
LY_3
  6
CENTER
 62
        80
100
AcDbCircle
 10
76.3779862584
 20
-101.0363274024
 30
0.0
 40
119.9999982119
100
AcDbArc
 50
231.0384332998
 51
248.9616146631
  0
ARC
  5
E2
100
AcDbEntity
  8
LY_3
  6
CENTER
 62
        80
100
AcDbCircle
 10
76.3779862584
 20
-101.0363274024
 30
0.0
 40
119.9999982119
100
AcDbArc
 50
141.0383793415
 51
158.9615607048
  0
ARC
  5
E3
100
AcDbEntity
  8
LY_3
  6
CENTER
 62
        80
100
AcDbCircle
 10
76.3779862584
 20
-101.0363274024
 30
0.0
 40
119.9999982119
100
AcDbArc
 50
321.0384016533
 51
338.9616000921
  0
CIRCLE
  5
E4
100
AcDbEntity
  8
LY_3
  6
CONTINUOUS
 62
         3
100
AcDbCircle
 10
45.3196752588
 20
14.8747731653
 30
0.0
 40
8.7499998696
  0
CIRCLE
  5
E5
100
AcDbEntity
  8
LY_3
  6
CONTINUOUS
 62
         3
100
AcDbCircle
 10
107.436259111
 20
-216.9473898231
 30
0.0
 40
8.7499998696
  0
ARC
  5
E6
100
AcDbEntity
  8
LY_3
  6
CENTER
 62
        80
100
AcDbCircle
 10
76.3779862584
 20
-101.0363274024
 30
0.0
 40
119.9999982119
100
AcDbArc
 50
261.0384273044
 51
278.9615900347
  0
ARC
  5
E7
100
AcDbEntity
  8
LY_3
  6
CENTER
 62
        80
100
AcDbCircle
 10
76.3779862584
 20
-101.0363274024
 30
0.0
 40
119.9999982119
100
AcDbArc
 50
111.0384039723
 51
128.9615667002
  0
MTEXT
  5
E8
100
AcDbEntity
  8
LY_3
  6
CONTINUOUS
 62
       110
100
AcDbMText
 10
-34.8061671491
 20
69.1865802765
 30
0.0
 40
15.0
 41
0.0
 71
         1
 72
         1
  1
\W1.154;\A1;BR100
  0
MTEXT
  5
E9
100
AcDbEntity
  8
LY_3
  6
CONTINUOUS
 62
       110
100
AcDbMText
 10
-68.2430553901
 20
92.6673583984
 30
0.0
 40
13.0
 41
0.0
 71
         1
 72
         1
  1
\W1.042;\A1;CAM CLUTCH
  0
ENDSEC
  0
SECTION
  2
OBJECTS
  0
DICTIONARY
  5
19
100
AcDbDictionary
  3
ACAD_GROUP
350
1A
  3
ACAD_MLINESTYLE
350
1B
  0
DICTIONARY
  5
1A
102
{ACAD_REACTORS
330
19
102
}
100
AcDbDictionary
  0
DICTIONARY
  5
1B
102
{ACAD_REACTORS
330
19
102
}
100
AcDbDictionary
  3
STANDARD
350
1C
  0
MLINESTYLE
  5
1C
102
{ACAD_REACTORS
330
1B
102
}
100
AcDbMlineStyle
  2
Standard
 70
         0
  3

 62
         0
 51
90.0
 52
90.0
 71
         2
 49
0.5
 62
       256
  6
ByLayer
 49
-0.5
 62
       256
  6
ByLayer
  0
ENDSEC
  0
EOF
