  0
SECTION
  2
HEADER
  9
$ACADVER
  1
AC1014
  9
$ACADMAINTVER
 70
         0
  9
$DWGCODEPAGE
  3
ANSI_932
  9
$INSBASE
 10
0.0
 20
0.0
 30
0.0
  9
$EXTMIN
 10
-149.7484177085
 20
-70.276286
 30
0.0
  9
$EXTMAX
 10
81.030513
 20
122.1256910721
 30
0.0
  9
$LIMMIN
 10
-149.7484177085
 20
-70.276286
  9
$LIMMAX
 10
81.030513
 20
122.1256910721
  9
$ORTHOMODE
 70
         0
  9
$REGENMODE
 70
         1
  9
$FILLMODE
 70
         1
  9
$QTEXTMODE
 70
         0
  9
$MIRRTEXT
 70
         1
  9
$DRAGMODE
 70
         2
  9
$LTSCALE
 40
1.0
  9
$OSMODE
 70
         0
  9
$ATTMODE
 70
         1
  9
$TEXTSIZE
 40
3.2000000477
  9
$TRACEWID
 40
0.05
  9
$TEXTSTYLE
  7
MX_NOTE_STANDARD
  9
$CLAYER
  8
LY_3
  9
$CELTYPE
  6
CONTINUOUS
  9
$CECOLOR
 62
       256
  9
$CELTSCALE
 40
1.0
  9
$DELOBJ
 70
         1
  9
$DISPSILH
 70
         0
  9
$DIMSCALE
 40
1.0
  9
$DIMASZ
 40
2.5
  9
$DIMEXO
 40
0.0
  9
$DIMDLI
 40
3.75
  9
$DIMRND
 40
0.0
  9
$DIMDLE
 40
0.0
  9
$DIMEXE
 40
2.5
  9
$DIMTP
 40
0.0
  9
$DIMTM
 40
0.0
  9
$DIMTXT
 40
3.2000000477
  9
$DIMCEN
 40
2.5
  9
$DIMTSZ
 40
0.0
  9
$DIMTOL
 70
         0
  9
$DIMLIM
 70
         0
  9
$DIMTIH
 70
         0
  9
$DIMTOH
 70
         0
  9
$DIMSE1
 70
         0
  9
$DIMSE2
 70
         0
  9
$DIMTAD
 70
         1
  9
$DIMZIN
 70
         8
  9
$DIMBLK
  1

  9
$DIMASO
 70
         1
  9
$DIMSHO
 70
         1
  9
$DIMPOST
  1

  9
$DIMAPOST
  1

  9
$DIMALT
 70
         0
  9
$DIMALTD
 70
         4
  9
$DIMALTF
 40
0.0393700787
  9
$DIMLFAC
 40
1.0
  9
$DIMTOFL
 70
         1
  9
$DIMTVP
 40
0.0
  9
$DIMTIX
 70
         0
  9
$DIMSOXD
 70
         0
  9
$DIMSAH
 70
         1
  9
$DIMBLK1
  1
_OPEN30
  9
$DIMBLK2
  1
_OPEN30
  9
$DIMSTYLE
  2
MXDIMSTYLE
  9
$DIMCLRD
 70
         0
  9
$DIMCLRE
 70
         0
  9
$DIMCLRT
 70
         0
  9
$DIMTFAC
 40
1.0
  9
$DIMGAP
 40
1.0
  9
$DIMJUST
 70
         0
  9
$DIMSD1
 70
         0
  9
$DIMSD2
 70
         0
  9
$DIMTOLJ
 70
         0
  9
$DIMTZIN
 70
         0
  9
$DIMALTZ
 70
         0
  9
$DIMALTTZ
 70
         0
  9
$DIMFIT
 70
         3
  9
$DIMUPT
 70
         0
  9
$DIMUNIT
 70
         2
  9
$DIMDEC
 70
         2
  9
$DIMTDEC
 70
         2
  9
$DIMALTU
 70
         2
  9
$DIMALTTD
 70
         4
  9
$DIMTXSTY
  7
MX_NOTE_STANDARD
  9
$DIMAUNIT
 70
         0
  9
$LUNITS
 70
         2
  9
$LUPREC
 70
         4
  9
$SKETCHINC
 40
0.1
  9
$FILLETRAD
 40
0.0
  9
$AUNITS
 70
         0
  9
$AUPREC
 70
         0
  9
$MENU
  1
acad
  9
$ELEVATION
 40
0.0
  9
$PELEVATION
 40
0.0
  9
$THICKNESS
 40
0.0
  9
$LIMCHECK
 70
         0
  9
$BLIPMODE
 70
         1
  9
$CHAMFERA
 40
0.0
  9
$CHAMFERB
 40
0.0
  9
$CHAMFERC
 40
0.0
  9
$CHAMFERD
 40
0.0
  9
$SKPOLY
 70
         0
  9
$TDCREATE
 40
2456603.419490741
  9
$TDUPDATE
 40
2456603.419490741
  9
$TDINDWG
 40
0.0000000000
  9
$TDUSRTIMER
 40
0.0000000000
  9
$USRTIMER
 70
         1
  9
$ANGBASE
 50
0.0
  9
$ANGDIR
 70
         0
  9
$PDMODE
 70
         0
  9
$PDSIZE
 40
0.0
  9
$PLINEWID
 40
0.0
  9
$COORDS
 70
         1
  9
$SPLFRAME
 70
         0
  9
$SPLINETYPE
 70
         6
  9
$SPLINESEGS
 70
         8
  9
$ATTDIA
 70
         0
  9
$ATTREQ
 70
         1
  9
$HANDLING
 70
         1
  9
$HANDSEED
  5
75
  9
$SURFTAB1
 70
         6
  9
$SURFTAB2
 70
         6
  9
$SURFTYPE
 70
         6
  9
$SURFU
 70
         6
  9
$SURFV
 70
         6
  9
$UCSNAME
  2

  9
$UCSORG
 10
0.0
 20
0.0
 30
0.0
  9
$UCSXDIR
 10
1.0
 20
0.0
 30
0.0
  9
$UCSYDIR
 10
0.0
 20
1.0
 30
0.0
  9
$PUCSNAME
  2

  9
$PUCSORG
 10
0.0
 20
0.0
 30
0.0
  9
$PUCSXDIR
 10
1.0
 20
0.0
 30
0.0
  9
$PUCSYDIR
 10
0.0
 20
1.0
 30
0.0
  9
$USERI1
 70
         0
  9
$USERI2
 70
         0
  9
$USERI3
 70
         0
  9
$USERI4
 70
         0
  9
$USERI5
 70
         0
  9
$USERR1
 40
0.0
  9
$USERR2
 40
0.0
  9
$USERR3
 40
0.0
  9
$USERR4
 40
0.0
  9
$USERR5
 40
0.0
  9
$WORLDVIEW
 70
         1
  9
$SHADEDGE
 70
         3
  9
$SHADEDIF
 70
        70
  9
$TILEMODE
 70
         1
  9
$MAXACTVP
 70
        16
  9
$PINSBASE
 10
0.0
 20
0.0
 30
0.0
  9
$PLIMCHECK
 70
         0
  9
$PEXTMIN
 10
1.0000000000E+20
 20
1.0000000000E+20
 30
1.0000000000E+20
  9
$PEXTMAX
 10
-1.0000000000E+20
 20
-1.0000000000E+20
 30
-1.0000000000E+20
  9
$PLIMMIN
 10
0.0
 20
0.0
  9
$PLIMMAX
 10
12.0
 20
9.0
  9
$UNITMODE
 70
         0
  9
$VISRETAIN
 70
         0
  9
$PLINEGEN
 70
         1
  9
$PSLTSCALE
 70
         0
  9
$TREEDEPTH
 70
      3020
  9
$PICKSTYLE
 70
         1
  9
$CMLSTYLE
  2
Standard
  9
$CMLJUST
 70
         0
  9
$CMLSCALE
 40
1.0
  9
$PROXYGRAPHICS
 70
         0
  9
$MEASUREMENT
 70
         1
  0
ENDSEC
  0
SECTION
  2
CLASSES
  0
CLASS
  1
LWPOLYLINE
  2
AcDbPolyline
  3
"AutoCAD"
 90
        0
280
         0
281
         1
  0
CLASS
  1
IMAGE
  2
AcDbRasterImage
  3
ISM
 90
      127
280
         0
281
         1
  0
CLASS
  1
OLE2FRAME
  2
AcDbOle2Frame
  3
""
 90
        0
280
         0
281
         1
  0
CLASS
  1
HATCH
  2
AcDbHatch
  3
"ACAD_SEDONA"
 90
        0
280
         0
281
         1
  0
CLASS
  1
DICTIONARYVAR
  2
AcDbDictionaryVar
  3
"AutoCAD"
 90
        0
280
         0
281
         0
  0
CLASS
  1
RASTERVARIABLES
  2
AcDbRasterVariables
  3
ISM
 90
        0
280
         0
281
         0
  0
CLASS
  1
IMAGEDEF
  2
AcDbRasterImageDef
  3
ISM
 90
        0
280
         0
281
         0
  0
CLASS
  1
IMAGEDEF_REACTOR
  2
AcDbRasterImageDefReactor
  3
ISM
 90
        1
280
         0
281
         0
  0
CLASS
  1
IDBUFFER
  2
AcDbIdBuffer
  3
"Acad"
 90
        0
280
         0
281
         0
  0
CLASS
  1
SPATIAL_FILTER
  2
AcDbSpatialFilter
  3
"Acad"
 90
        0
280
         0
281
         0
  0
CLASS
  1
XRECORD
  2
AcDbXrecord
  3
"<Built In>"
 90
        0
280
         0
281
         0
  0
CLASS
  1
SORTENTSTABLE
  2
AcDbSortentsTable
  3
"AutoCAD"
 90
        0
280
         0
281
         0
  0
CLASS
  1
LAYER_INDEX
  2
AcDbLayerIndex
  3
"Acad"
 90
        0
280
         0
281
         0
  0
CLASS
  1
SPATIAL_INDEX
  2
AcDbSpatialIndex
  3
"Acad"
 90
        0
280
         0
281
         0
  0
CLASS
  1
OBJECT_PTR
  2
CAseDLPNTableRecord
  3
"ASE-LPNTableRecord"
 90
        1
280
         0
281
         0
  0
CLASS
  1
LAYOUT
  2
AcDbLayout
  3
"AutoCAD 2000"
 90
        0
280
         0
281
         0
  0
CLASS
  1
PLOTSETTINGS
  2
AcDbPlotSettings
  3
"AutoCAD 2000"
 90
        0
280
         0
281
         0
  0
CLASS
  1
ACDBDICTIONARYWDFLT
  2
AcDbDictionaryWithDefault
  3
"AutoCAD 2000"
 90
        0
280
         0
281
         0
  0
CLASS
  1
ACDBPLACEHOLDER
  2
AcDbPlaceHolder
  3
"AutoCAD 2000"
 90
        0
280
         0
281
         0
  0
ENDSEC
  0
SECTION
  2
TABLES
  0
TABLE
  2
VPORT
  5
7
100
AcDbSymbolTable
 70
         1
  0
VPORT
  5
15
100
AcDbSymbolTableRecord
100
AcDbViewportTableRecord
  2
*ACTIVE
 70
         0
 10
0.0
 20
0.0
 11
1.0
 21
1.0
 12
-34.3589523542
 22
25.924702536
 13
0.0
 23
0.0
 14
1.0
 24
1.0
 15
0.0
 25
0.0
 16
0.0
 26
0.0
 36
1.0
 17
0.0
 27
0.0
 37
0.0
 40
194.3259968428
 41
1.7320508076
 42
50.0
 43
0.0
 44
0.0
 50
0.0
 51
0.0
 71
         0
 72
       100
 73
         1
 74
         1
 75
         0
 76
         0
 77
         0
 78
         0
  0
ENDTAB
  0
TABLE
  2
LTYPE
  5
4
100
AcDbSymbolTable
 70
         3
  0
LTYPE
  5
11
100
AcDbSymbolTableRecord
100
AcDbLinetypeTableRecord
  2
BYBLOCK
 70
        64
  3

 72
        65
 73
         0
 40
0.0
  0
LTYPE
  5
12
100
AcDbSymbolTableRecord
100
AcDbLinetypeTableRecord
  2
BYLAYER
 70
        64
  3

 72
        65
 73
         0
 40
0.0
  0
LTYPE
  5
13
100
AcDbSymbolTableRecord
100
AcDbLinetypeTableRecord
  2
CONTINUOUS
 70
        64
  3
Solid line
 72
        65
 73
         0
 40
0.0
  0
ENDTAB
  0
TABLE
  2
LAYER
  5
2
100
AcDbSymbolTable
 70
         3
  0
LAYER
  5
14
100
AcDbSymbolTableRecord
100
AcDbLayerTableRecord
  2
0
 70
         0
 62
         7
  6
CONTINUOUS
  0
LAYER
  5
1D
100
AcDbSymbolTableRecord
100
AcDbLayerTableRecord
  2
DEFPOINTS
 70
         0
 62
         7
  6
CONTINUOUS
  0
LAYER
  5
1E
100
AcDbSymbolTableRecord
100
AcDbLayerTableRecord
  2
LY_3
 70
         0
 62
         7
  6
CONTINUOUS
  0
ENDTAB
  0
TABLE
  2
STYLE
  5
3
100
AcDbSymbolTable
 70
         1
  0
STYLE
  5
17
100
AcDbSymbolTableRecord
100
AcDbTextStyleTableRecord
  2
MX_NOTE_STANDARD
 70
         0
 40
0.0
 41
1.0
 50
0.0
 71
         0
 42
3.2000000477
  3
txt.shx
  4
extfont.shx
  0
ENDTAB
  0
TABLE
  2
VIEW
  5
5
100
AcDbSymbolTable
 70
         0
  0
ENDTAB
  0
TABLE
  2
UCS
  5
6
100
AcDbSymbolTable
 70
         0
  0
ENDTAB
  0
TABLE
  2
APPID
  5
8
100
AcDbSymbolTable
 70
         1
  0
APPID
  5
16
100
AcDbSymbolTableRecord
100
AcDbRegAppTableRecord
  2
ACAD
 70
         0
  0
ENDTAB
  0
TABLE
  2
DIMSTYLE
  5
9
100
AcDbSymbolTable
 70
         1
  0
DIMSTYLE
105
18
100
AcDbSymbolTableRecord
100
AcDbDimStyleTableRecord
  2
MXDIMSTYLE
 70
         0
  3

  4

  5

  6
_OPEN30
  7
_OPEN30
 40
1.0
 41
2.5
 42
0.0
 43
3.75
 44
2.5
 45
0.0
 46
0.0
 47
0.0
 48
0.0
 71
         0
 72
         0
 73
         0
 74
         0
 75
         0
 76
         0
 77
         1
 78
         8
140
3.2000000477
141
2.5
142
0.0
143
0.0393700787
144
1.0
145
0.0
146
1.0
147
1.0
170
         0
171
         4
172
         1
173
         1
174
         0
175
         0
176
         0
177
         0
178
         0
270
         2
271
         2
272
         2
273
         2
274
         4
275
         0
280
         0
281
         0
282
         0
283
         0
284
         0
285
         0
286
         0
287
         3
288
         0
340
17
  0
ENDTAB
  0
TABLE
  2
BLOCK_RECORD
  5
1
100
AcDbSymbolTable
 70
         1
  0
BLOCK_RECORD
  5
A
100
AcDbSymbolTableRecord
100
AcDbBlockTableRecord
  2
*MODEL_SPACE
  0
BLOCK_RECORD
  5
B
100
AcDbSymbolTableRecord
100
AcDbBlockTableRecord
  2
*PAPER_SPACE
  0
BLOCK_RECORD
  5
1F
100
AcDbSymbolTableRecord
100
AcDbBlockTableRecord
  2
_OPEN30
  0
ENDTAB
  0
ENDSEC
  0
SECTION
  2
BLOCKS
  0
BLOCK
  5
D
100
AcDbEntity
  8
0
100
AcDbBlockBegin
  2
*MODEL_SPACE
 70
         0
 10
0.0
 20
0.0
 30
0.0
  3
*MODEL_SPACE
  1

  0
ENDBLK
  5
E
100
AcDbEntity
  8
0
100
AcDbBlockEnd
  0
BLOCK
  5
F
100
AcDbEntity
 67
         1
  8
0
100
AcDbBlockBegin
  2
*PAPER_SPACE
 70
         0
 10
0.0
 20
0.0
 30
0.0
  3
*PAPER_SPACE
  1

  0
ENDBLK
  5
10
100
AcDbEntity
 67
         1
  8
0
100
AcDbBlockEnd
  0
BLOCK
  5
20
100
AcDbEntity
  8
0
  6
ByBlock
 62
         0
100
AcDbBlockBegin
  2
_OPEN30
 70
         2
 10
0.0
 20
0.0
 30
0.0
  3
_OPEN30
  1

  0
LINE
  5
21
100
AcDbEntity
  8
0
  6
ByBlock
 62
         0
100
AcDbLine
 10
-1.0
 20
0.267949
 30
0.0
 11
0.0
 21
0.0
 31
0.0
  0
LINE
  5
22
100
AcDbEntity
  8
0
  6
ByBlock
 62
         0
100
AcDbLine
 10
0.0
 20
0.0
 30
0.0
 11
-1.0
 21
-0.267949
 31
0.0
  0
LINE
  5
23
100
AcDbEntity
  8
0
  6
ByBlock
 62
         0
100
AcDbLine
 10
0.0
 20
0.0
 30
0.0
 11
-1.0
 21
0.0
 31
0.0
  0
ENDBLK
  5
24
100
AcDbEntity
  8
0
  6
ByBlock
 62
         0
100
AcDbBlockEnd
  0
ENDSEC
  0
SECTION
  2
ENTITIES
  0
MTEXT
  5
25
100
AcDbEntity
  8
LY_3
  6
CONTINUOUS
 62
       110
100
AcDbMText
 10
-147.446440963
 20
117.7423578659
 30
0.0
 40
13.1499996185
 41
0.0
 71
         1
 72
         1
  1
\W1.050;\A1;TSUBAKI
  0
POINT
  5
26
100
AcDbEntity
  8
LY_3
  6
CONTINUOUS
 62
        20
100
AcDbPoint
 10
-41.03054
 20
-30.276305
 30
0.0
  0
POINT
  5
27
100
AcDbEntity
  8
LY_3
  6
CONTINUOUS
 62
        20
100
AcDbPoint
 10
41.03054
 20
-30.276305
 30
0.0
  0
MTEXT
  5
28
100
AcDbEntity
  8
LY_3
  6
CONTINUOUS
 62
         7
100
AcDbMText
 10
-29.8913039502
 20
68.667357702
 30
0.0
 40
15.0
 41
0.0
 71
         1
 72
         1
  1
\W1.043;\A1;BB40
  0
MTEXT
  5
29
100
AcDbEntity
  8
LY_3
  6
CONTINUOUS
 62
         7
100
AcDbMText
 10
-68.2430559669
 20
92.6673580596
 30
0.0
 40
13.0
 41
0.0
 71
         1
 72
         1
  1
\W1.042;\A1;CAM CLUTCH
  0
MTEXT
  5
2A
100
AcDbEntity
  8
LY_3
  6
CONTINUOUS
 62
         7
100
AcDbMText
 10
42.4766939976
 20
-5.5618420297
 30
0.0
 40
1.5
 41
0.0
 71
         1
 72
         1
  1
\A1;4
 11
0.9966373441
 21
-0.0819390283
 31
0.0
  0
MTEXT
  5
2B
100
AcDbEntity
  8
LY_3
  6
CONTINUOUS
 62
         7
100
AcDbMText
 10
38.5926960022
 20
-5.6398900297
 30
0.0
 40
1.5
 41
0.0
 71
         1
 72
         1
  1
\A1;B
 11
0.9971851123
 21
0.0749790084
 31
0.0
  0
MTEXT
  5
2C
100
AcDbEntity
  8
LY_3
  6
CONTINUOUS
 62
         7
100
AcDbMText
 10
36.6672600046
 20
-5.9071070295
 30
0.0
 40
1.5
 41
0.0
 71
         1
 72
         1
  1
\A1;B
 11
0.9882283478
 21
0.1529860538
 31
0.0
  0
MTEXT
  5
2D
100
AcDbEntity
  8
LY_3
  6
CONTINUOUS
 62
         7
100
AcDbMText
 10
44.4606669905
 20
-5.7594860287
 30
0.0
 40
1.5
 41
0.0
 71
         1
 72
         1
  1
\W1.200;\A1;0
 11
0.9871362879
 21
-0.1598810466
 31
0.0
  0
MTEXT
  5
2E
100
AcDbEntity
  8
LY_3
  6
CONTINUOUS
 62
         7
100
AcDbMText
 10
40.5331619999
 20
-5.5245650298
 30
0.0
 40
1.5
 41
0.0
 71
         1
 72
         1
  1
\A1;-
 11
0.9999939064
 21
-0.0034909997
 31
0.0
  0
CIRCLE
  5
2F
100
AcDbEntity
  8
LY_3
  6
CONTINUOUS
 62
       251
100
AcDbCircle
 10
41.03054
 20
-30.276305
 30
0.0
 40
28.5
  0
ARC
  5
30
100
AcDbEntity
  8
LY_3
  6
CONTINUOUS
 62
       251
100
AcDbCircle
 10
-61.780559
 20
4.873677
 30
0.0
 40
0.15
100
AcDbArc
 50
0.000036
 51
90.000018
  0
ARC
  5
31
100
AcDbEntity
  8
LY_3
  6
CONTINUOUS
 62
       251
100
AcDbCircle
 10
-61.780559
 20
4.499547
 30
0.0
 40
0.15
100
AcDbArc
 50
279.999925
 51
359.999745
  0
ARC
  5
32
100
AcDbEntity
  8
LY_3
  6
CONTINUOUS
 62
       251
100
AcDbCircle
 10
-62.180568
 20
3.9213
 30
0.0
 40
0.35
100
AcDbArc
 50
100.000016
 51
180.000004
  0
ARC
  5
33
100
AcDbEntity
  8
LY_3
  6
CONTINUOUS
 62
       251
100
AcDbCircle
 10
-61.780559
 20
4.499547
 30
0.0
 40
0.349995
100
AcDbArc
 50
280.173084
 51
359.999964
  0
ARC
  5
34
100
AcDbEntity
  8
LY_3
  6
CONTINUOUS
 62
       251
100
AcDbCircle
 10
-61.780559
 20
4.873677
 30
0.0
 40
0.349995
100
AcDbArc
 50
0.000036
 51
90.000018
  0
CIRCLE
  5
35
100
AcDbEntity
  8
LY_3
  6
CONTINUOUS
 62
       251
100
AcDbCircle
 10
-45.980519
 20
1.74561
 30
0.0
 40
0.5
  0
CIRCLE
  5
36
100
AcDbEntity
  8
LY_3
  6
CONTINUOUS
 62
       251
100
AcDbCircle
 10
-45.980519
 20
1.74561
 30
0.0
 40
0.3
  0
ARC
  5
37
100
AcDbEntity
  8
LY_3
  6
CONTINUOUS
 62
       251
100
AcDbCircle
 10
-62.180568
 20
3.9213
 30
0.0
 40
0.15
100
AcDbArc
 50
100.000016
 51
180.000061
  0
ARC
  5
38
100
AcDbEntity
  8
LY_3
  6
CONTINUOUS
 62
       251
100
AcDbCircle
 10
-42.280522
 20
4.873677
 30
0.0
 40
0.15
100
AcDbArc
 50
89.999982
 51
179.999964
  0
ARC
  5
39
100
AcDbEntity
  8
LY_3
  6
CONTINUOUS
 62
       251
100
AcDbCircle
 10
-42.280522
 20
4.499547
 30
0.0
 40
0.15
100
AcDbArc
 50
180.000255
 51
260.000075
  0
ARC
  5
3A
100
AcDbEntity
  8
LY_3
  6
CONTINUOUS
 62
       251
100
AcDbCircle
 10
-42.280522
 20
4.499547
 30
0.0
 40
0.349995
100
AcDbArc
 50
180.000036
 51
259.826916
  0
ARC
  5
3B
100
AcDbEntity
  8
LY_3
  6
CONTINUOUS
 62
       251
100
AcDbCircle
 10
-42.280522
 20
4.873677
 30
0.0
 40
0.349995
100
AcDbArc
 50
89.999982
 51
179.999964
  0
ARC
  5
3C
100
AcDbEntity
  8
LY_3
  6
CONTINUOUS
 62
       251
100
AcDbCircle
 10
-41.880513
 20
3.9213
 30
0.0
 40
0.15
100
AcDbArc
 50
359.999939
 51
79.999984
  0
ARC
  5
3D
100
AcDbEntity
  8
LY_3
  6
CONTINUOUS
 62
       251
100
AcDbCircle
 10
-41.880513
 20
3.9213
 30
0.0
 40
0.35
100
AcDbArc
 50
359.999996
 51
79.999984
  0
CIRCLE
  5
3E
100
AcDbEntity
  8
LY_3
  6
CONTINUOUS
 62
       251
100
AcDbCircle
 10
-56.230513
 20
0.223622
 30
0.0
 40
3.96875
  0
ARC
  5
3F
100
AcDbEntity
  8
LY_3
  6
CONTINUOUS
 62
       251
100
AcDbCircle
 10
41.03054
 20
-30.276305
 30
0.0
 40
24.0
100
AcDbArc
 50
261.0
 51
279.0
  0
CIRCLE
  5
40
100
AcDbEntity
  8
LY_3
  6
CONTINUOUS
 62
       251
100
AcDbCircle
 10
41.03054
 20
-30.276305
 30
0.0
 40
35.499989
  0
CIRCLE
  5
41
100
AcDbEntity
  8
LY_3
  6
CONTINUOUS
 62
       251
100
AcDbCircle
 10
41.03054
 20
-30.276305
 30
0.0
 40
39.999973
  0
CIRCLE
  5
42
100
AcDbEntity
  8
LY_3
  6
CONTINUOUS
 62
       251
100
AcDbCircle
 10
41.03054
 20
-30.276305
 30
0.0
 40
19.999969
  0
LINE
  5
43
100
AcDbEntity
  8
LY_3
  6
CONTINUOUS
 62
       251
100
AcDbLine
 10
-61.53054
 20
-10.276336
 30
0.0
 11
-61.53054
 21
-70.276286
 31
0.0
  0
LINE
  5
44
100
AcDbEntity
  8
LY_3
  6
CONTINUOUS
 62
       251
100
AcDbLine
 10
-42.53054
 20
-10.276336
 30
0.0
 11
-42.53054
 21
-70.276286
 31
0.0
  0
LINE
  5
45
100
AcDbEntity
  8
LY_3
  6
CONTINUOUS
 62
       251
100
AcDbLine
 10
-61.430553
 20
5.223683
 30
0.0
 11
-61.430553
 21
2.24561
 31
0.0
  0
LINE
  5
46
100
AcDbEntity
  8
LY_3
  6
CONTINUOUS
 62
       251
100
AcDbLine
 10
-62.530528
 20
5.223683
 30
0.0
 11
-63.03054
 21
5.223683
 31
0.0
  0
LINE
  5
47
100
AcDbEntity
  8
LY_3
  6
CONTINUOUS
 62
       251
100
AcDbLine
 10
-62.330531
 20
-1.576311
 30
0.0
 11
-62.530528
 21
-1.576311
 31
0.0
  0
LINE
  5
48
100
AcDbEntity
  8
LY_3
  6
CONTINUOUS
 62
       251
100
AcDbLine
 10
-61.630565
 20
4.873677
 30
0.0
 11
-61.630565
 21
4.499089
 31
0.0
  0
LINE
  5
49
100
AcDbEntity
  8
LY_3
  6
CONTINUOUS
 62
       251
100
AcDbLine
 10
-61.699263
 20
2.24561
 30
0.0
 11
-61.699263
 21
-1.776363
 31
0.0
  0
LINE
  5
4A
100
AcDbEntity
  8
LY_3
  6
CONTINUOUS
 62
       251
100
AcDbLine
 10
-62.630565
 20
5.223683
 30
0.0
 11
-62.630565
 21
5.023686
 31
0.0
  0
LINE
  5
4B
100
AcDbEntity
  8
LY_3
  6
CONTINUOUS
 62
       251
100
AcDbLine
 10
-61.780559
 20
5.023686
 30
0.0
 11
-62.630565
 21
5.023686
 31
0.0
  0
LINE
  5
4C
100
AcDbEntity
  8
LY_3
  6
CONTINUOUS
 62
       251
100
AcDbLine
 10
-61.719791
 20
4.154844
 30
0.0
 11
-62.20662
 21
4.069003
 31
0.0
  0
LINE
  5
4D
100
AcDbEntity
  8
LY_3
  6
CONTINUOUS
 62
       251
100
AcDbLine
 10
-61.754522
 20
4.351817
 30
0.0
 11
-62.241351
 21
4.265976
 31
0.0
  0
LINE
  5
4E
100
AcDbEntity
  8
LY_3
  6
CONTINUOUS
 62
       251
100
AcDbLine
 10
-62.530559
 20
3.9213
 30
0.0
 11
-62.530559
 21
-1.776363
 31
0.0
  0
LINE
  5
4F
100
AcDbEntity
  8
LY_3
  6
CONTINUOUS
 62
       251
100
AcDbLine
 10
-62.330562
 20
3.9213
 30
0.0
 11
-62.330562
 21
-1.776363
 31
0.0
  0
LINE
  5
50
100
AcDbEntity
  8
LY_3
  6
CONTINUOUS
 62
       251
100
AcDbLine
 10
-63.03054
 20
9.723668
 30
0.0
 11
-63.03054
 21
-70.276286
 31
0.0
  0
LINE
  5
51
100
AcDbEntity
  8
LY_3
  6
CONTINUOUS
 62
       251
100
AcDbLine
 10
-41.03054
 20
9.723668
 30
0.0
 11
-41.03054
 21
-70.276286
 31
0.0
  0
LINE
  5
52
100
AcDbEntity
  8
LY_3
  6
CONTINUOUS
 62
       251
100
AcDbLine
 10
-41.03054
 20
-70.276286
 30
0.0
 11
-63.03054
 21
-70.276286
 31
0.0
  0
LINE
  5
53
100
AcDbEntity
  8
LY_3
  6
CONTINUOUS
 62
       251
100
AcDbLine
 10
-63.03054
 20
9.723668
 30
0.0
 11
-41.03054
 21
9.723668
 31
0.0
  0
LINE
  5
54
100
AcDbEntity
  8
LY_3
  6
CONTINUOUS
 62
       251
100
AcDbLine
 10
-63.03054
 20
-10.276336
 30
0.0
 11
-41.03054
 21
-10.276336
 31
0.0
  0
LINE
  5
55
100
AcDbEntity
  8
LY_3
  6
CONTINUOUS
 62
       251
100
AcDbLine
 10
-42.630528
 20
5.223683
 30
0.0
 11
-42.630528
 21
0.434621
 31
0.0
  0
LINE
  5
56
100
AcDbEntity
  8
LY_3
  6
CONTINUOUS
 62
       251
100
AcDbLine
 10
-50.030522
 20
2.134618
 30
0.0
 11
-49.230504
 21
2.134618
 31
0.0
  0
LINE
  5
57
100
AcDbEntity
  8
LY_3
  6
CONTINUOUS
 62
       251
100
AcDbLine
 10
-49.230504
 20
2.24561
 30
0.0
 11
-49.230504
 21
-1.776363
 31
0.0
  0
LINE
  5
58
100
AcDbEntity
  8
LY_3
  6
CONTINUOUS
 62
       251
100
AcDbLine
 10
-42.730519
 20
2.24561
 30
0.0
 11
-42.730519
 21
-1.776363
 31
0.0
  0
LINE
  5
59
100
AcDbEntity
  8
LY_3
  6
CONTINUOUS
 62
       251
100
AcDbLine
 10
-42.630528
 20
-0.265376
 30
0.0
 11
-42.630528
 21
-1.776363
 31
0.0
  0
LINE
  5
5A
100
AcDbEntity
  8
LY_3
  6
CONTINUOUS
 62
       251
100
AcDbLine
 10
-46.480519
 20
2.24561
 30
0.0
 11
-46.480519
 21
1.24561
 31
0.0
  0
LINE
  5
5B
100
AcDbEntity
  8
LY_3
  6
CONTINUOUS
 62
       251
100
AcDbLine
 10
-45.480519
 20
2.24561
 30
0.0
 11
-45.480519
 21
1.24561
 31
0.0
  0
LINE
  5
5C
100
AcDbEntity
  8
LY_3
  6
CONTINUOUS
 62
       251
100
AcDbLine
 10
-46.480519
 20
1.24561
 30
0.0
 11
-45.480519
 21
1.24561
 31
0.0
  0
LINE
  5
5D
100
AcDbEntity
  8
LY_3
  6
CONTINUOUS
 62
       251
100
AcDbLine
 10
-41.930547
 20
3.673665
 30
0.0
 11
-41.930547
 21
-1.776363
 31
0.0
  0
LINE
  5
5E
100
AcDbEntity
  8
LY_3
  6
CONTINUOUS
 62
       251
100
AcDbLine
 10
-50.030522
 20
-0.265376
 30
0.0
 11
-49.230504
 21
-0.265376
 31
0.0
  0
LINE
  5
5F
100
AcDbEntity
  8
LY_3
  6
CONTINUOUS
 62
       251
100
AcDbLine
 10
-42.730519
 20
0.434621
 30
0.0
 11
-42.630528
 21
0.434621
 31
0.0
  0
LINE
  5
60
100
AcDbEntity
  8
LY_3
  6
CONTINUOUS
 62
       251
100
AcDbLine
 10
-50.030522
 20
2.134618
 30
0.0
 11
-50.030522
 21
-1.776363
 31
0.0
  0
LINE
  5
61
100
AcDbEntity
  8
LY_3
  6
CONTINUOUS
 62
       251
100
AcDbLine
 10
-42.730519
 20
-0.265376
 30
0.0
 11
-41.930547
 21
-0.265376
 31
0.0
  0
LINE
  5
62
100
AcDbEntity
  8
LY_3
  6
CONTINUOUS
 62
       251
100
AcDbLine
 10
-41.530553
 20
5.223683
 30
0.0
 11
-41.03054
 21
5.223683
 31
0.0
  0
LINE
  5
63
100
AcDbEntity
  8
LY_3
  6
CONTINUOUS
 62
       251
100
AcDbLine
 10
-52.815467
 20
2.24561
 30
0.0
 11
-42.630528
 21
2.24561
 31
0.0
  0
LINE
  5
64
100
AcDbEntity
  8
LY_3
  6
CONTINUOUS
 62
       251
100
AcDbLine
 10
-42.630528
 20
3.673665
 30
0.0
 11
-41.930547
 21
3.673665
 31
0.0
  0
LINE
  5
65
100
AcDbEntity
  8
LY_3
  6
CONTINUOUS
 62
       251
100
AcDbLine
 10
-52.802534
 20
-1.776363
 30
0.0
 11
-41.03054
 21
-1.776363
 31
0.0
  0
LINE
  5
66
100
AcDbEntity
  8
LY_3
  6
CONTINUOUS
 62
       251
100
AcDbLine
 10
-61.699263
 20
2.24561
 30
0.0
 11
-59.645559
 21
2.24561
 31
0.0
  0
LINE
  5
67
100
AcDbEntity
  8
LY_3
  6
CONTINUOUS
 62
       251
100
AcDbLine
 10
-63.03054
 20
-1.776363
 30
0.0
 11
-59.658492
 21
-1.776363
 31
0.0
  0
LINE
  5
68
100
AcDbEntity
  8
LY_3
  6
CONTINUOUS
 62
       251
100
AcDbLine
 10
-63.03054
 20
5.223683
 30
0.0
 11
-61.430553
 21
5.223683
 31
0.0
  0
LINE
  5
69
100
AcDbEntity
  8
LY_3
  6
CONTINUOUS
 62
       251
100
AcDbLine
 10
-41.73055
 20
-1.576311
 30
0.0
 11
-41.530553
 21
-1.576311
 31
0.0
  0
LINE
  5
6A
100
AcDbEntity
  8
LY_3
  6
CONTINUOUS
 62
       251
100
AcDbLine
 10
-42.430516
 20
4.873677
 30
0.0
 11
-42.430516
 21
4.499089
 31
0.0
  0
LINE
  5
6B
100
AcDbEntity
  8
LY_3
  6
CONTINUOUS
 62
       251
100
AcDbLine
 10
-42.630528
 20
5.223683
 30
0.0
 11
-41.430516
 21
5.223683
 31
0.0
  0
LINE
  5
6C
100
AcDbEntity
  8
LY_3
  6
CONTINUOUS
 62
       251
100
AcDbLine
 10
-41.430516
 20
5.223683
 30
0.0
 11
-41.430516
 21
5.023686
 31
0.0
  0
LINE
  5
6D
100
AcDbEntity
  8
LY_3
  6
CONTINUOUS
 62
       251
100
AcDbLine
 10
-42.280522
 20
5.023686
 30
0.0
 11
-41.430516
 21
5.023686
 31
0.0
  0
LINE
  5
6E
100
AcDbEntity
  8
LY_3
  6
CONTINUOUS
 62
       251
100
AcDbLine
 10
-41.730519
 20
3.9213
 30
0.0
 11
-41.730519
 21
-1.776363
 31
0.0
  0
LINE
  5
6F
100
AcDbEntity
  8
LY_3
  6
CONTINUOUS
 62
       251
100
AcDbLine
 10
-41.530522
 20
3.9213
 30
0.0
 11
-41.530522
 21
-1.776363
 31
0.0
  0
LINE
  5
70
100
AcDbEntity
  8
LY_3
  6
CONTINUOUS
 62
       251
100
AcDbLine
 10
-42.306558
 20
4.351817
 30
0.0
 11
-41.81973
 21
4.265976
 31
0.0
  0
LINE
  5
71
100
AcDbEntity
  8
LY_3
  6
CONTINUOUS
 62
       251
100
AcDbLine
 10
-42.34129
 20
4.154844
 30
0.0
 11
-41.854461
 21
4.069003
 31
0.0
  0
LINE
  5
72
100
AcDbEntity
  8
LY_3
  6
CONTINUOUS
 62
       251
100
AcDbLine
 10
37.275913
 20
-53.980757
 30
0.0
 11
39.449642
 21
-54.729231
 31
0.0
  0
LINE
  5
73
100
AcDbEntity
  8
LY_3
  6
CONTINUOUS
 62
       251
100
AcDbLine
 10
37.275902
 20
-53.980844
 30
0.0
 11
39.627758
 21
-53.775083
 31
0.0
  0
POINT
  5
74
100
AcDbEntity
  8
LY_3
  6
CONTINUOUS
 62
        20
100
AcDbPoint
 10
-63.03054
 20
-30.276305
 30
0.0
  0
ENDSEC
  0
SECTION
  2
OBJECTS
  0
DICTIONARY
  5
19
100
AcDbDictionary
  3
ACAD_GROUP
350
1A
  3
ACAD_MLINESTYLE
350
1B
  0
DICTIONARY
  5
1A
102
{ACAD_REACTORS
330
19
102
}
100
AcDbDictionary
  0
DICTIONARY
  5
1B
102
{ACAD_REACTORS
330
19
102
}
100
AcDbDictionary
  3
STANDARD
350
1C
  0
MLINESTYLE
  5
1C
102
{ACAD_REACTORS
330
1B
102
}
100
AcDbMlineStyle
  2
Standard
 70
         0
  3

 62
         0
 51
90.0
 52
90.0
 71
         2
 49
0.5
 62
       256
  6
ByLayer
 49
-0.5
 62
       256
  6
ByLayer
  0
ENDSEC
  0
EOF
